  0
SECTION
  2
HEADER
  9
$ACADVER
  1
AC1009
  9
$INSBASE
 10
0.0
 20
0.0
 30
0.0
  9
$EXTMIN
 10
0.0
 20
-2.960436562073669
 30
0.0
  9
$EXTMAX
 10
302.5
 20
413.0
 30
0.0
  9
$LIMMIN
 10
0.0
 20
0.0
  9
$LIMMAX
 10
375.0
 20
270.0
  9
$ORTHOMODE
 70
     0
  9
$REGENMODE
 70
     1
  9
$FILLMODE
 70
     1
  9
$QTEXTMODE
 70
     0
  9
$MIRRTEXT
 70
     0
  9
$DRAGMODE
 70
     2
  9
$LTSCALE
 40
5.0
  9
$OSMODE
 70
    37
  9
$ATTMODE
 70
     1
  9
$TEXTSIZE
 40
0.2
  9
$TRACEWID
 40
0.05
  9
$TEXTSTYLE
  7
STANDARD
  9
$CLAYER
  8
0
  9
$CELTYPE
  6
BYLAYER
  9
$CECOLOR
 62
     4
  9
$DIMSCALE
 40
1.0
  9
$DIMASZ
 40
3.0
  9
$DIMEXO
 40
1.0
  9
$DIMDLI
 40
6.0
  9
$DIMRND
 40
0.0
  9
$DIMDLE
 40
0.0
  9
$DIMEXE
 40
1.0
  9
$DIMTP
 40
495.0
  9
$DIMTM
 40
0.0
  9
$DIMTXT
 40
3.0
  9
$DIMCEN
 40
0.0
  9
$DIMTSZ
 40
0.0
  9
$DIMTOL
 70
     0
  9
$DIMLIM
 70
     0
  9
$DIMTIH
 70
     0
  9
$DIMTOH
 70
     0
  9
$DIMSE1
 70
     0
  9
$DIMSE2
 70
     0
  9
$DIMTAD
 70
     1
  9
$DIMZIN
 70
     8
  9
$DIMBLK
  1

  9
$DIMASO
 70
     0
  9
$DIMSHO
 70
     0
  9
$DIMPOST
  1

  9
$DIMAPOST
  1

  9
$DIMALT
 70
     0
  9
$DIMALTD
 70
     2
  9
$DIMALTF
 40
25.399999999999999
  9
$DIMLFAC
 40
1.0
  9
$DIMTOFL
 70
     1
  9
$DIMTVP
 40
0.0
  9
$DIMTIX
 70
     1
  9
$DIMSOXD
 70
     0
  9
$DIMSAH
 70
     0
  9
$DIMBLK1
  1

  9
$DIMBLK2
  1

  9
$DIMSTYLE
  2
STANDARD
  9
$DIMCLRD
 70
     0
  9
$DIMCLRE
 70
     0
  9
$DIMCLRT
 70
     0
  9
$DIMTFAC
 40
1.0
  9
$DIMGAP
 40
1.0
  9
$LUNITS
 70
     2
  9
$LUPREC
 70
     1
  9
$SKETCHINC
 40
0.1
  9
$FILLETRAD
 40
2.0
  9
$AUNITS
 70
     0
  9
$AUPREC
 70
     1
  9
$MENU
  1
C:\R13\WIN\SUPPORT\ACAD-I
  9
$ELEVATION
 40
0.0
  9
$PELEVATION
 40
0.0
  9
$THICKNESS
 40
0.0
  9
$LIMCHECK
 70
     0
  9
$BLIPMODE
 70
     0
  9
$CHAMFERA
 40
0.0
  9
$CHAMFERB
 40
0.0
  9
$SKPOLY
 70
     0
  9
$TDCREATE
 40
2451962.4112634258
  9
$TDUPDATE
 40
2457893.419369271
  9
$TDINDWG
 40
0.3061825463
  9
$TDUSRTIMER
 40
2456555.2325499542
  9
$USRTIMER
 70
     1
  9
$ANGBASE
 50
0.0
  9
$ANGDIR
 70
     0
  9
$PDMODE
 70
     0
  9
$PDSIZE
 40
0.0
  9
$PLINEWID
 40
0.0
  9
$COORDS
 70
     1
  9
$SPLFRAME
 70
     0
  9
$SPLINETYPE
 70
     6
  9
$SPLINESEGS
 70
     8
  9
$ATTDIA
 70
     0
  9
$ATTREQ
 70
     1
  9
$HANDLING
 70
     1
  9
$HANDSEED
  5
5B6B
  9
$SURFTAB1
 70
     6
  9
$SURFTAB2
 70
     6
  9
$SURFTYPE
 70
     6
  9
$SURFU
 70
     6
  9
$SURFV
 70
     6
  9
$UCSNAME
  2

  9
$UCSORG
 10
0.0
 20
0.0
 30
0.0
  9
$UCSXDIR
 10
1.0
 20
0.0
 30
0.0
  9
$UCSYDIR
 10
0.0
 20
1.0
 30
0.0
  9
$PUCSNAME
  2

  9
$PUCSORG
 10
0.0
 20
0.0
 30
0.0
  9
$PUCSXDIR
 10
1.0
 20
0.0
 30
0.0
  9
$PUCSYDIR
 10
0.0
 20
1.0
 30
0.0
  9
$USERI1
 70
     4
  9
$USERI2
 70
     1
  9
$USERI3
 70
     0
  9
$USERI4
 70
     0
  9
$USERI5
 70
     0
  9
$USERR1
 40
1.0
  9
$USERR2
 40
3.0
  9
$USERR3
 40
3.0
  9
$USERR4
 40
3.0
  9
$USERR5
 40
10.0
  9
$WORLDVIEW
 70
     1
  9
$SHADEDGE
 70
     3
  9
$SHADEDIF
 70
    70
  9
$TILEMODE
 70
     1
  9
$MAXACTVP
 70
    16
  9
$PLIMCHECK
 70
     0
  9
$PEXTMIN
 10
1.0000000000000000E+020
 20
1.0000000000000000E+020
 30
1.0000000000000000E+020
  9
$PEXTMAX
 10
-1.0000000000000000E+020
 20
-1.0000000000000000E+020
 30
-1.0000000000000000E+020
  9
$PLIMMIN
 10
0.0
 20
0.0
  9
$PLIMMAX
 10
12.0
 20
9.0
  9
$UNITMODE
 70
     0
  9
$VISRETAIN
 70
     0
  9
$PLINEGEN
 70
     0
  9
$PSLTSCALE
 70
     0
  0
ENDSEC
  0
SECTION
  2
TABLES
  0
TABLE
  2
VPORT
 70
     1
  0
VPORT
  2
*ACTIVE
 70
     0
 10
0.0
 20
0.0
 11
1.0
 21
1.0
 12
454.05982905982899
 22
250.0
 13
0.0
 23
0.0
 14
10.0
 24
10.0
 15
10.0
 25
10.0
 16
0.0
 26
0.0
 36
1.0
 17
0.0
 27
0.0
 37
0.0
 40
500.0
 41
1.816239316239316
 42
50.0
 43
0.0
 44
0.0
 50
0.0
 51
0.0
 71
    16
 72
   100
 73
     1
 74
     0
 75
     0
 76
     1
 77
     0
 78
     0
  0
ENDTAB
  0
TABLE
  2
LTYPE
 70
     4
  0
LTYPE
  2
CONTINUOUS
 70
     0
  3
Solid Line
 72
    65
 73
     0
 40
0.0
  0
LTYPE
  2
PHANTOM2
 70
     0
  3
___ _ _ ___ _ _ ___ _ _ ___ _ _
 72
    65
 73
     6
 40
1.25
 49
0.625
 49
-0.125
 49
0.125
 49
-0.125
 49
0.125
 49
-0.125
  0
LTYPE
  2
CENTER
 70
     0
  3
____ _ ____ _ ____ _ ____ _ ____ _ ____ _ ____
 72
    65
 73
     4
 40
2.0
 49
1.25
 49
-0.25
 49
0.25
 49
-0.25
  0
LTYPE
  2
HIDDEN
 70
     0
  3
_ _ _ _ _ _ _ _ _ _ _ _ _ _ _ _ _ _ _ _ _ _ _
 72
    65
 73
     2
 40
0.375
 49
0.25
 49
-0.125
  0
ENDTAB
  0
TABLE
  2
LAYER
 70
     5
  0
LAYER
  2
0
 70
     0
 62
     7
  6
CONTINUOUS
  0
LAYER
  2
1
 70
     0
 62
     1
  6
CENTER
  0
LAYER
  2
3
 70
     0
 62
     3
  6
CONTINUOUS
  0
LAYER
  2
2
 70
     0
 62
     2
  6
HIDDEN
  0
LAYER
  2
DEFPOINTS
 70
     0
 62
     7
  6
CONTINUOUS
  0
ENDTAB
  0
TABLE
  2
STYLE
 70
     2
  0
STYLE
  2
STANDARD
 70
     0
 40
0.0
 41
1.0
 50
0.0
 71
     0
 42
0.2
  3
SIMPLEX
  4
BIGFONT
  0
STYLE
  2
STANDARD1
 70
     0
 40
0.0
 41
1.0
 50
0.0
 71
     0
 42
3.0
  3
txt
  4

  0
ENDTAB
  0
TABLE
  2
VIEW
 70
     0
  0
ENDTAB
  0
TABLE
  2
UCS
 70
     0
  0
ENDTAB
  0
TABLE
  2
APPID
 70
    32
  0
APPID
  2
ACAD
 70
     0
  0
APPID
  2
ACADANNOTATIVE
 70
     0
  0
APPID
  2
GENIUS_GENOREF_13
 70
     0
  0
APPID
  2
GENIUS_GENOENT_13
 70
     0
  0
APPID
  2
GENIUS_GENBH_13
 70
     0
  0
APPID
  2
GENIUS_GENOBJ_13
 70
     0
  0
APPID
  2
GENIUS_GENODEF_13
 70
     0
  0
APPID
  2
GENIUS_GENOLIS_13
 70
     0
  0
APPID
  2
GENIUS_GENOBJ-NBEHI-BHF_13
 70
     0
  0
APPID
  2
GENIUS_GENOBJ-NBEHI-BHB_13
 70
     0
  0
APPID
  2
GENIUS_GENOBJ-F-PART_13
 70
     0
  0
APPID
  2
GENIUS_GEFSTDP_13
 70
     0
  0
APPID
  2
GENIUS_GENOBJ-N-RSSYM_13
 70
     0
  0
APPID
  2
GENIUS_GENSYMENT_13
 70
     0
  0
APPID
  2
GENIUS_GENOBJ-N-TIT_13
 70
     0
  0
APPID
  2
GENIUS_GENTITLE_13
 70
     0
  0
APPID
  2
GENIUS_GENZVEED_13
 70
     0
  0
APPID
  2
GENIUS_GENOBJ-N-LEADER_13
 70
     0
  0
APPID
  2
GENIUS_GENOBJ-N-FIL_13
 70
     0
  0
APPID
  2
GENIUS_GENOBJ-N-SEC_13
 70
     0
  0
APPID
  2
GENIUS_GENOBJ-N-CRS_13
 70
     0
  0
APPID
  2
GENIUS_GENOBJ-N-ZOO_13
 70
     0
  0
APPID
  2
GENIUS_GENZOO_13
 70
     0
  0
APPID
  2
GENIUS_GENOBJ-F-TOL_13
 70
     0
  0
APPID
  2
GENIUS_GENFIL_13
 70
     0
  0
APPID
  2
GENIUS_GENOBJ-N-CHA_13
 70
     0
  0
APPID
  2
ACAD_EXEMPT_FROM_CAD_STANDARDS
 70
     0
  0
APPID
  2
ACAD_MLEADERVER
 70
     0
  0
APPID
  2
ACAD_NAV_VCDISPLAY
 70
     0
  0
APPID
  2
ACAD_DSTYLE_DIMJAG
 70
     0
  0
APPID
  2
ACAD_DSTYLE_DIMTALN
 70
     0
  0
APPID
  2
ACAD_DSTYLE_DIMRADIAL_EXTENSION
 70
     0
  0
ENDTAB
  0
TABLE
  2
DIMSTYLE
 70
     1
  0
DIMSTYLE
  2
STANDARD
 70
     0
  3

  4

  5

  6

  7

 40
1.0
 41
0.18
 42
0.0625
 43
0.38
 44
0.18
 45
0.0
 46
0.0
 47
0.0
 48
0.0
140
0.18
141
0.09
142
0.0
143
25.399999999999999
144
1.0
145
0.0
146
1.0
147
0.09
 71
     0
 72
     0
 73
     1
 74
     1
 75
     0
 76
     0
 77
     0
 78
     0
170
     0
171
     2
172
     0
173
     0
174
     0
175
     0
176
     0
177
     0
178
     0
  0
ENDTAB
  0
ENDSEC
  0
SECTION
  2
BLOCKS
  0
BLOCK
  8
0
  2
$MODEL_SPACE
 70
     0
 10
0.0
 20
0.0
 30
0.0
  3
$MODEL_SPACE
  1

  0
ENDBLK
  5
439E
  8
0
  0
BLOCK
 67
     1
  8
0
  2
$PAPER_SPACE
 70
     0
 10
0.0
 20
0.0
 30
0.0
  3
$PAPER_SPACE
  1

  0
ENDBLK
  5
439A
 67
     1
  8
0
  0
ENDSEC
  0
SECTION
  2
ENTITIES
  0
TEXT
  5
4ECE
  8
0
 62
     3
 10
0.0
 20
0.0
 30
0.0
 40
10.0
  1
LQFD60S20C-SUS
  7
STANDARD1
  0
LINE
  5
58D8
  8
0
 10
272.4999999999992
 20
127.3715789032492
 30
0.0
 11
272.4999999999992
 21
114.6284210967451
 31
0.0
  0
LINE
  5
58D9
  8
0
 10
286.9999999999992
 20
113.0
 30
0.0
 11
258.0000000000008
 21
113.0
 31
0.0
  0
LINE
  5
58DA
  8
0
 10
258.0000000000008
 20
128.99999999999929
 30
0.0
 11
286.99999999999761
 21
128.99999999999929
 31
0.0
  0
ARC
  5
58DB
  8
0
 10
264.9999999999992
 20
107.0486660917354
 30
0.0
 40
21.662658773668529
 50
69.74384199959708
 51
110.25615800040291
  0
LINE
  5
58DC
  8
0
 10
258.0000000000008
 20
128.99999999999929
 30
0.0
 11
257.49999999999949
 21
128.71132486540381
 31
0.0
  0
LINE
  5
58DD
  8
0
 10
258.0000000000008
 20
113.0
 30
0.0
 11
257.49999999999949
 21
113.28867513459539
 31
0.0
  0
ARC
  5
58DE
  8
0
 10
264.9999999999992
 20
134.95133390826371
 30
0.0
 40
21.662658773668529
 50
249.74384199959709
 51
290.256158000396
  0
LINE
  5
58DF
  8
0
 10
257.4999999999992
 20
128.71132486540381
 30
0.0
 11
257.49999999999949
 21
113.28867513459539
 31
0.0
  0
LINE
  5
58E0
  8
0
 10
287.4999999999992
 20
128.71132486540381
 30
0.0
 11
287.49999999999898
 21
113.28867513459539
 31
0.0
  0
ARC
  5
58E1
  8
0
 10
279.9999999999992
 20
134.95133390826371
 30
0.0
 40
21.662658773668529
 50
249.74384199959709
 51
290.256158000396
  0
LINE
  5
58E2
  8
0
 10
286.99999999999761
 20
113.0
 30
0.0
 11
287.49999999999898
 21
113.28867513459539
 31
0.0
  0
LINE
  5
58E3
  8
0
 10
286.99999999999761
 20
128.99999999999929
 30
0.0
 11
287.49999999999898
 21
128.71132486540381
 31
0.0
  0
ARC
  5
58E4
  8
0
 10
279.9999999999992
 20
107.0486660917354
 30
0.0
 40
21.662658773668529
 50
69.74384199959708
 51
110.25615800040291
  0
LINE
  5
58E5
  8
0
 10
127.0000000000002
 20
113.0000000000001
 30
0.0
 11
97.999999999999773
 21
112.9999999999999
 31
0.0
  0
LINE
  5
58E6
  8
0
 10
97.999999999999773
 20
129.00000000000011
 30
0.0
 11
127.0000000000004
 21
128.9999999999996
 31
0.0
  0
LINE
  5
58E7
  8
0
 10
126.9999999999998
 20
129.00000000000011
 30
0.0
 11
129.82050807568839
 21
127.3715789032497
 31
0.0
  0
ARC
  5
58E8
  8
0
 10
125.4903810567659
 20
121.04385662012881
 30
0.0
 40
7.6674682452751766
 50
64.384247470462824
 51
124.38424746800671
  0
ARC
  5
58E9
  8
0
 10
125.4903810567659
 20
121.04385662012881
 30
0.0
 40
7.6674682452751766
 50
55.615752531993259
 51
55.615752531993259
  0
ARC
  5
58EA
  8
0
 10
125.4903810567659
 20
120.95614337987109
 30
0.0
 40
7.6674682452751766
 50
304.38424746800672
 51
304.38424746800672
  0
ARC
  5
58EB
  8
0
 10
125.4903810567659
 20
120.95614337987109
 30
0.0
 40
7.6674682452751766
 50
235.61575253199319
 51
295.61575252953708
  0
LINE
  5
58EC
  8
0
 10
126.9999999999998
 20
112.9999999999999
 30
0.0
 11
129.82050807568839
 21
114.6284210967502
 31
0.0
  0
LINE
  5
58ED
  8
0
 10
129.82050807568811
 20
127.3715789032497
 30
0.0
 11
129.8205080759719
 21
114.6284210969139
 31
0.0
  0
LINE
  5
58EE
  8
0
 10
121.1602540378439
 20
114.62842109677359
 30
0.0
 11
121.16025403769
 21
127.3715789032497
 31
0.0
  0
ARC
  5
58EF
  8
0
 10
112.5000000000732
 20
141.9489291719884
 30
0.0
 40
28.660254037392811
 50
252.41204622556489
 51
287.58795377412758
  0
LINE
  5
58F0
  8
0
 10
103.8397459621555
 20
114.62842109677359
 30
0.0
 11
103.83974596230949
 21
127.3715789032497
 31
0.0
  0
LINE
  5
58F1
  8
0
 10
95.179491924311364
 20
127.3715789032497
 30
0.0
 11
95.179491924027616
 21
114.6284210969139
 31
0.0
  0
LINE
  5
58F2
  8
0
 10
97.999999999999773
 20
112.9999999999999
 30
0.0
 11
95.179491924311165
 21
114.6284210967502
 31
0.0
  0
ARC
  5
58F3
  8
0
 10
99.50961894323359
 20
120.95614337987109
 30
0.0
 40
7.6674682452751766
 50
244.38424747046281
 51
304.38424746800672
  0
ARC
  5
58F4
  8
0
 10
99.50961894323359
 20
120.95614337987109
 30
0.0
 40
7.6674682452751766
 50
235.61575253199319
 51
235.61575253199319
  0
ARC
  5
58F5
  8
0
 10
112.5000000000732
 20
100.05107082801131
 30
0.0
 40
28.660254037392811
 50
72.412046225872373
 51
107.58795377443511
  0
ARC
  5
58F6
  8
0
 10
99.50961894323359
 20
121.04385662012881
 30
0.0
 40
7.6674682452751766
 50
124.38424746800671
 51
124.38424746800671
  0
ARC
  5
58F7
  8
0
 10
99.50961894323359
 20
121.04385662012881
 30
0.0
 40
7.6674682452751766
 50
55.615752531993259
 51
115.6157525295371
  0
LINE
  5
58F8
  8
0
 10
97.999999999999773
 20
129.00000000000011
 30
0.0
 11
95.179491924311165
 21
127.3715789032497
 31
0.0
  0
CIRCLE
  5
58F9
  8
0
 10
112.5
 20
378.0
 30
0.0
 40
14.5
  0
LINE
  5
58FA
  8
0
 10
95.179491924311264
 20
378.0
 30
0.0
 11
103.8397459621557
 21
363.0
 31
0.0
  0
LINE
  5
58FB
  8
0
 10
103.8397459621559
 20
393.0
 30
0.0
 11
95.179491924311264
 21
378.0
 31
0.0
  0
LINE
  5
58FC
  8
0
 10
121.1602540378443
 20
393.0
 30
0.0
 11
103.8397459621559
 21
393.0
 31
0.0
  0
LINE
  5
58FD
  8
0
 10
129.82050807568891
 20
378.0
 30
0.0
 11
121.1602540378443
 21
393.0
 31
0.0
  0
LINE
  5
58FE
  8
0
 10
121.1602540378445
 20
363.0
 30
0.0
 11
129.82050807568891
 21
378.0
 31
0.0
  0
LINE
  5
58FF
  8
0
 10
103.8397459621557
 20
363.0
 30
0.0
 11
121.1602540378445
 21
363.0
 31
0.0
  0
LINE
  5
5900
  8
1
 10
272.50000000000011
 20
263.0
 30
0.0
 11
272.5000000000004
 21
47.000000000000007
 31
0.0
  0
LINE
  5
5901
  8
0
 10
277.74903501696679
 20
74.0
 30
0.0
 11
277.74903501696679
 21
76.0
 31
0.0
  0
LINE
  5
5902
  8
0
 10
267.25096498303321
 20
76.0
 30
0.0
 11
267.25096498303321
 21
74.0
 31
0.0
  0
LINE
  5
5903
  8
0
 10
267.25096498303321
 20
74.0
 30
0.0
 11
277.74903501696679
 21
74.0
 31
0.0
  0
ARC
  5
5904
  8
0
 10
272.50050380932362
 20
69.630999981416039
 30
0.0
 40
6.8289999999993816
 50
29.560165772322851
 51
39.774787798921331
  0
ARC
  5
5905
  8
0
 10
272.49949619067712
 20
69.630999981415684
 30
0.0
 40
6.8290000000001134
 50
140.22521220108351
 51
150.4398342276771
  0
LINE
  5
5906
  8
0
 10
264.0335
 20
258.0
 30
0.0
 11
262.5
 21
256.4665
 31
0.0
  0
LINE
  5
5907
  8
0
 10
282.5
 20
256.4665
 30
0.0
 11
280.9665
 21
258.0
 31
0.0
  0
LINE
  5
5908
  8
0
 10
280.9665
 20
258.0
 30
0.0
 11
264.0335
 21
258.0
 31
0.0
  0
LINE
  5
5909
  8
0
 10
262.5
 20
76.0
 30
0.0
 11
282.5
 21
76.0
 31
0.0
  0
LINE
  5
590A
  8
0
 10
265.88562172233861
 20
78.0
 30
0.0
 11
279.1143782776615
 21
78.0
 31
0.0
  0
LINE
  5
590B
  8
0
 10
265.88562172233861
 20
88.0
 30
0.0
 11
265.88562172233861
 21
78.0
 31
0.0
  0
LINE
  5
590C
  8
0
 10
279.1143782776615
 20
88.0
 30
0.0
 11
265.88562172233861
 21
88.0
 31
0.0
  0
LINE
  5
590D
  8
0
 10
279.1143782776615
 20
78.0
 30
0.0
 11
279.1143782776615
 21
88.0
 31
0.0
  0
LINE
  5
590E
  8
0
 10
265.0
 20
88.0
 30
0.0
 11
262.5
 21
88.0
 31
0.0
  0
LINE
  5
590F
  8
0
 10
265.0
 20
78.0
 30
0.0
 11
265.0
 21
88.0
 31
0.0
  0
LINE
  5
5910
  8
0
 10
280.0
 20
88.0
 30
0.0
 11
280.0
 21
78.0
 31
0.0
  0
LINE
  5
5911
  8
0
 10
280.0
 20
78.0
 30
0.0
 11
282.5
 21
78.0
 31
0.0
  0
LINE
  5
5912
  8
0
 10
282.5
 20
76.0
 30
0.0
 11
282.5
 21
78.0
 31
0.0
  0
LINE
  5
5913
  8
0
 10
282.5
 20
88.0
 30
0.0
 11
282.5
 21
113.0
 31
0.0
  0
LINE
  5
5914
  8
0
 10
282.49999999999989
 20
128.9999999999992
 30
0.0
 11
282.5
 21
256.4665
 31
0.0
  0
LINE
  5
5915
  8
0
 10
262.5
 20
256.4665
 30
0.0
 11
262.5
 21
128.9999999999992
 31
0.0
  0
LINE
  5
5916
  8
0
 10
262.5
 20
113.0
 30
0.0
 11
262.5
 21
88.0
 31
0.0
  0
LINE
  5
5917
  8
0
 10
262.5
 20
78.0
 30
0.0
 11
262.5
 21
76.0
 31
0.0
  0
LINE
  5
5918
  8
0
 10
262.5
 20
78.0
 30
0.0
 11
265.0
 21
78.0
 31
0.0
  0
LINE
  5
5919
  8
0
 10
282.5
 20
88.0
 30
0.0
 11
280.0
 21
88.0
 31
0.0
  0
LINE
  5
591A
  8
0
 10
282.5
 20
256.4665
 30
0.0
 11
262.5
 21
256.4665
 31
0.0
  0
LINE
  5
591B
  8
3
 10
264.0335
 20
258.0
 30
0.0
 11
264.03349999999989
 21
128.9999999999992
 31
0.0
  0
LINE
  5
591C
  8
3
 10
264.0335
 20
113.0000000000001
 30
0.0
 11
264.0335
 21
90.0
 31
0.0
  0
LINE
  5
591D
  8
3
 10
262.5
 20
88.0
 30
0.0
 11
264.0335
 21
90.0
 31
0.0
  0
LINE
  5
591E
  8
0
 10
262.5
 20
90.0
 30
0.0
 11
282.5
 21
90.0
 31
0.0
  0
LINE
  5
591F
  8
3
 10
280.9665
 20
258.0
 30
0.0
 11
280.96650000000011
 21
128.9999999999992
 31
0.0
  0
LINE
  5
5920
  8
3
 10
280.9665
 20
113.0000000000001
 30
0.0
 11
280.9665
 21
90.0
 31
0.0
  0
LINE
  5
5921
  8
3
 10
282.5
 20
88.0
 30
0.0
 11
280.9665
 21
90.0
 31
0.0
  0
LINE
  5
5922
  8
0
 10
258.18799999999999
 20
73.0
 30
0.0
 11
254.46799999999999
 21
69.932999999999993
 31
0.0
  0
LINE
  5
5923
  8
0
 10
290.5320000000001
 20
69.932999999999993
 30
0.0
 11
286.81200000000001
 21
73.0
 31
0.0
  0
LINE
  5
5924
  8
0
 10
258.18799999999999
 20
73.0
 30
0.0
 11
286.81200000000001
 21
73.0
 31
0.0
  0
ARC
  5
5925
  8
0
 10
289.83189661008743
 20
68.052068251256173
 30
0.0
 40
2.0069999999999428
 50
23.95661111562649
 51
69.584182493118718
  0
ARC
  5
5926
  8
0
 10
255.1681033899126
 20
68.052068251256173
 30
0.0
 40
2.0069999999999411
 50
110.4158175068812
 51
156.04338888437351
  0
ARC
  5
5927
  8
0
 10
293.4997690272258
 20
69.682683857133156
 30
0.0
 40
2.0070000000000232
 50
203.98010846715459
 51
249.56390492501311
  0
ARC
  5
5928
  8
0
 10
251.5002309727742
 20
69.682683857133156
 30
0.0
 40
2.007000000000025
 50
290.43609507498689
 51
336.01989153284529
  0
LINE
  5
5929
  8
0
 10
253.33399999996931
 20
68.866999999930613
 30
0.0
 11
291.66600000003069
 21
68.866999999930613
 31
0.0
  0
LINE
  5
592A
  8
0
 10
252.20099999999991
 20
67.801999999999893
 30
0.0
 11
248.94500000000011
 21
65.687000000000126
 31
0.0
  0
LINE
  5
592B
  8
0
 10
296.05499999999978
 20
65.687000000000126
 30
0.0
 11
292.79900000000009
 21
67.801999999999893
 31
0.0
  0
ARC
  5
592C
  8
0
 10
295.35511269838707
 20
63.805987834956689
 30
0.0
 40
2.006999999999985
 50
26.515732446534699
 51
69.590764700536141
  0
ARC
  5
592D
  8
0
 10
249.6448873016129
 20
63.805987834956689
 30
0.0
 40
2.0069999999999859
 50
110.4092352994638
 51
153.48426755346529
  0
ARC
  5
592E
  8
0
 10
298.94711545000467
 20
65.597554738837744
 30
0.0
 40
2.0070000000000281
 50
206.50113971722351
 51
249.55335065538841
  0
ARC
  5
592F
  8
0
 10
246.0528845499953
 20
65.597554738837744
 30
0.0
 40
2.0070000000000321
 50
290.44664934461161
 51
333.49886028277638
  0
LINE
  5
5930
  8
0
 10
247.84899999987391
 20
64.701999999747272
 30
0.0
 11
297.15100000012598
 21
64.701999999747272
 31
0.0
  0
LINE
  5
5934
  8
0
 10
246.7540000000003
 20
63.717000000000112
 30
0.0
 11
244.25399999999999
 21
62.090000000000039
 31
0.0
  0
LINE
  5
5935
  8
0
 10
300.74599999999998
 20
62.090000000000039
 30
0.0
 11
298.2459999999997
 21
63.717000000000112
 31
0.0
  0
ARC
  5
5936
  8
0
 10
300.06727230764682
 20
60.20868962697989
 30
0.0
 40
2.0000000000000151
 50
2.7314755961228059
 51
70.161879109748753
  0
ARC
  5
5937
  8
0
 10
244.93272769235321
 20
60.20868962697989
 30
0.0
 40
2.0000000000000151
 50
109.8381208902512
 51
177.26852440387719
  0
LINE
  5
5938
  8
0
 10
242.93500000000009
 20
60.303999999999981
 30
0.0
 11
242.5
 21
52.000000000000007
 31
0.0
  0
LINE
  5
5939
  8
0
 10
302.5
 20
52.000000000000007
 30
0.0
 11
302.06500000000011
 21
60.303999999999981
 31
0.0
  0
LINE
  5
593A
  8
0
 10
242.93500000000009
 20
60.303999999999981
 30
0.0
 11
302.06500000000011
 21
60.303999999999981
 31
0.0
  0
LINE
  5
593B
  8
0
 10
242.5
 20
52.000000000000007
 30
0.0
 11
302.5
 21
52.000000000000007
 31
0.0
  0
LINE
  5
593C
  8
2
 10
66.75
 20
64.0
 30
0.0
 11
58.25
 21
64.0
 31
0.0
  0
LINE
  5
593D
  8
2
 10
58.25
 20
64.0
 30
0.0
 11
58.25
 21
52.000000000000007
 31
0.0
  0
LINE
  5
593E
  8
2
 10
66.75
 20
52.000000000000007
 30
0.0
 11
66.75
 21
64.0
 31
0.0
  0
LINE
  5
593F
  8
2
 10
84.749999999999986
 20
64.0
 30
0.0
 11
76.25
 21
64.0
 31
0.0
  0
LINE
  5
5940
  8
2
 10
76.25
 20
64.0
 30
0.0
 11
76.25
 21
52.000000000000007
 31
0.0
  0
LINE
  5
5941
  8
2
 10
84.749999999999986
 20
52.000000000000007
 30
0.0
 11
84.749999999999986
 21
64.0
 31
0.0
  0
LINE
  5
5942
  8
1
 10
112.5
 20
263.0
 30
0.0
 11
112.5
 21
47.000000000000007
 31
0.0
  0
LINE
  5
5943
  8
1
 10
62.5
 20
67.0
 30
0.0
 11
62.5
 21
49.000000000000121
 31
0.0
  0
LINE
  5
5944
  8
1
 10
80.499999999999886
 20
67.0
 30
0.0
 11
80.5
 21
49.000000000000121
 31
0.0
  0
LINE
  5
5945
  8
0
 10
117.7490350169668
 20
74.0
 30
0.0
 11
117.7490350169668
 21
76.0
 31
0.0
  0
LINE
  5
5946
  8
0
 10
107.2509649830332
 20
76.0
 30
0.0
 11
107.2509649830332
 21
74.0
 31
0.0
  0
ARC
  5
5947
  8
0
 10
112.5005038093236
 20
69.630999981416039
 30
0.0
 40
6.8289999999993816
 50
29.560165772322851
 51
39.774787798916421
  0
ARC
  5
5948
  8
0
 10
112.49949619067699
 20
69.630999981415684
 30
0.0
 40
6.8290000000001134
 50
140.22521220108351
 51
150.4398342276771
  0
LINE
  5
5949
  8
0
 10
107.2509649830332
 20
74.0
 30
0.0
 11
117.7490350169668
 21
74.0
 31
0.0
  0
LINE
  5
594A
  8
0
 10
120.9665
 20
258.0
 30
0.0
 11
104.0335
 21
258.0
 31
0.0
  0
LINE
  5
594B
  8
0
 10
104.0335
 20
258.0
 30
0.0
 11
102.5
 21
256.4665
 31
0.0
  0
LINE
  5
594C
  8
0
 10
122.5
 20
256.4665
 30
0.0
 11
120.9665
 21
258.0
 31
0.0
  0
LINE
  5
594D
  8
0
 10
105.0
 20
88.0
 30
0.0
 11
102.5
 21
88.0
 31
0.0
  0
LINE
  5
594E
  8
0
 10
105.0
 20
78.0
 30
0.0
 11
105.0
 21
88.0
 31
0.0
  0
LINE
  5
594F
  8
0
 10
120.0
 20
78.0
 30
0.0
 11
122.5
 21
78.0
 31
0.0
  0
LINE
  5
5950
  8
0
 10
120.0
 20
88.0
 30
0.0
 11
120.0
 21
78.0
 31
0.0
  0
LINE
  5
5951
  8
0
 10
105.8856217223385
 20
88.0
 30
0.0
 11
105.8856217223385
 21
78.0
 31
0.0
  0
LINE
  5
5952
  8
0
 10
119.1143782776614
 20
88.0
 30
0.0
 11
105.8856217223385
 21
88.0
 31
0.0
  0
LINE
  5
5953
  8
0
 10
119.1143782776614
 20
78.0
 30
0.0
 11
119.1143782776614
 21
88.0
 31
0.0
  0
LINE
  5
5954
  8
0
 10
105.8856217223385
 20
78.0
 30
0.0
 11
119.1143782776614
 21
78.0
 31
0.0
  0
LINE
  5
5955
  8
0
 10
122.5
 20
256.4665
 30
0.0
 11
102.5
 21
256.4665
 31
0.0
  0
LINE
  5
5956
  8
0
 10
122.5
 20
76.0
 30
0.0
 11
122.5
 21
78.0
 31
0.0
  0
LINE
  5
5957
  8
0
 10
122.5
 20
88.0
 30
0.0
 11
122.5
 21
113.0000000000003
 31
0.0
  0
LINE
  5
5958
  8
0
 10
122.4999999999999
 20
128.9999999999996
 30
0.0
 11
122.5
 21
256.4665
 31
0.0
  0
LINE
  5
5959
  8
0
 10
102.5
 20
256.4665
 30
0.0
 11
102.5
 21
129.0
 31
0.0
  0
LINE
  5
595A
  8
0
 10
102.5
 20
113.0000000000001
 30
0.0
 11
102.5
 21
88.0
 31
0.0
  0
LINE
  5
595B
  8
0
 10
102.5
 20
78.0
 30
0.0
 11
102.5
 21
76.0
 31
0.0
  0
LINE
  5
595C
  8
0
 10
102.5
 20
78.0
 30
0.0
 11
105.0
 21
78.0
 31
0.0
  0
LINE
  5
595D
  8
0
 10
122.5
 20
88.0
 30
0.0
 11
120.0
 21
88.0
 31
0.0
  0
LINE
  5
595E
  8
0
 10
102.5
 20
76.0
 30
0.0
 11
122.5
 21
76.0
 31
0.0
  0
LINE
  5
595F
  8
3
 10
104.0335
 20
258.0
 30
0.0
 11
104.0334999999999
 21
128.99999999999989
 31
0.0
  0
LINE
  5
5960
  8
3
 10
104.0335
 20
113.0000000000001
 30
0.0
 11
104.0335
 21
90.0
 31
0.0
  0
LINE
  5
5961
  8
3
 10
102.5
 20
88.0
 30
0.0
 11
104.0335
 21
90.0
 31
0.0
  0
LINE
  5
5962
  8
0
 10
102.5
 20
90.0
 30
0.0
 11
122.5
 21
90.0
 31
0.0
  0
LINE
  5
5963
  8
3
 10
120.9665
 20
258.0
 30
0.0
 11
120.9665
 21
128.99999999999949
 31
0.0
  0
LINE
  5
5964
  8
3
 10
120.9665
 20
113.0000000000002
 30
0.0
 11
120.9665
 21
90.0
 31
0.0
  0
LINE
  5
5965
  8
3
 10
122.5
 20
88.0
 30
0.0
 11
120.9665
 21
90.0
 31
0.0
  0
LINE
  5
5966
  8
0
 10
56.926857210401863
 20
66.0
 30
0.0
 11
56.445000000000157
 21
65.687000000000126
 31
0.0
  0
LINE
  5
5967
  8
0
 10
56.926857210401863
 20
66.0
 30
0.0
 11
89.426857210401863
 21
66.000000000000213
 31
0.0
  0
ARC
  5
5969
  8
0
 10
57.144887301612918
 20
63.805987834956689
 30
0.0
 40
2.0070000000000379
 50
110.4092352994638
 51
153.48426755346529
  0
ARC
  5
596A
  8
0
 10
53.552884549995269
 20
65.597554738837744
 30
0.0
 40
2.0070000000000201
 50
290.44664934461161
 51
333.49886028277638
  0
LINE
  5
596C
  8
0
 10
54.254000000000239
 20
63.717000000000112
 30
0.0
 11
51.754000000000019
 21
62.090000000000039
 31
0.0
  0
ARC
  5
596D
  8
0
 10
52.432727692353183
 20
60.20868962697989
 30
0.0
 40
2.0000000000000311
 50
109.8381208902512
 51
177.26852440387719
  0
LINE
  5
596E
  8
0
 10
50.434999999999938
 20
60.303999999999981
 30
0.0
 11
50.0
 21
52.000000000000007
 31
0.0
  0
LINE
  5
596F
  8
0
 10
98.187999999999988
 20
73.0
 30
0.0
 11
94.467999999999961
 21
69.932999999999993
 31
0.0
  0
LINE
  5
5970
  8
0
 10
130.53200000000001
 20
69.932999999999993
 30
0.0
 11
126.812
 21
73.0
 31
0.0
  0
LINE
  5
5971
  8
0
 10
98.187999999999988
 20
73.0
 30
0.0
 11
126.812
 21
73.0
 31
0.0
  0
ARC
  5
5972
  8
0
 10
129.8318966100874
 20
68.052068251256173
 30
0.0
 40
2.0069999999999428
 50
23.95661111562649
 51
69.584182493118718
  0
ARC
  5
5973
  8
0
 10
95.168103389912631
 20
68.052068251256173
 30
0.0
 40
2.0069999999999411
 50
110.4158175068812
 51
156.04338888437351
  0
ARC
  5
5974
  8
0
 10
133.49976902722571
 20
69.682683857133156
 30
0.0
 40
2.0070000000000232
 50
203.98010846715459
 51
249.56390492501311
  0
ARC
  5
5975
  8
0
 10
91.500230972774261
 20
69.682683857133156
 30
0.0
 40
2.007000000000025
 50
290.43609507498689
 51
336.01989153284529
  0
LINE
  5
5976
  8
0
 10
93.333999999969265
 20
68.866999999930613
 30
0.0
 11
131.66600000003069
 21
68.866999999930613
 31
0.0
  0
LINE
  5
5977
  8
0
 10
92.200999999999908
 20
67.801999999999893
 30
0.0
 11
89.426857210401863
 21
66.0
 31
0.0
  0
LINE
  5
5978
  8
0
 10
136.05499999999981
 20
65.687000000000126
 30
0.0
 11
132.79900000000009
 21
67.801999999999893
 31
0.0
  0
ARC
  5
597A
  8
0
 10
135.35511269838699
 20
63.805987834956689
 30
0.0
 40
2.006999999999985
 50
26.515732446534699
 51
69.590764700536141
  0
LINE
  5
597B
  8
0
 10
55.348999999873968
 20
64.701999999747272
 30
0.0
 11
137.151000000126
 21
64.701999999747272
 31
0.0
  0
ARC
  5
597C
  8
0
 10
138.9471154500047
 20
65.597554738837744
 30
0.0
 40
2.0070000000000281
 50
206.50113971722351
 51
249.55335065538841
  0
LINE
  5
597F
  8
0
 10
140.74600000000001
 20
62.090000000000039
 30
0.0
 11
138.2459999999997
 21
63.717000000000112
 31
0.0
  0
ARC
  5
5980
  8
0
 10
140.06727230764679
 20
60.20868962697989
 30
0.0
 40
2.0000000000000151
 50
2.7314755961228059
 51
70.161879109748753
  0
LINE
  5
5981
  8
0
 10
50.0
 20
52.000000000000007
 30
0.0
 11
142.5
 21
52.000000000000007
 31
0.0
  0
LINE
  5
5982
  8
0
 10
50.434999999999938
 20
60.303999999999981
 30
0.0
 11
142.065
 21
60.303999999999981
 31
0.0
  0
LINE
  5
5983
  8
0
 10
142.5
 20
52.000000000000007
 30
0.0
 11
142.065
 21
60.303999999999981
 31
0.0
  0
CIRCLE
  5
5984
  8
2
 10
80.5
 20
378.0
 30
0.0
 40
4.2499999999999947
  0
CIRCLE
  5
5985
  8
2
 10
62.5
 20
378.0
 30
0.0
 40
4.2499999999999947
  0
LINE
  5
5986
  8
1
 10
80.5
 20
385.25
 30
0.0
 11
80.5
 21
370.75
 31
0.0
  0
LINE
  5
5987
  8
1
 10
62.5
 20
385.25
 30
0.0
 11
62.5
 21
370.75
 31
0.0
  0
LINE
  5
5988
  8
1
 10
147.5
 20
378.0
 30
0.0
 11
45.0
 21
378.0
 31
0.0
  0
LINE
  5
5989
  8
1
 10
112.5
 20
413.0
 30
0.0
 11
112.5
 21
343.0
 31
0.0
  0
CIRCLE
  5
598A
  8
0
 10
112.5
 20
378.0
 30
0.0
 40
10.0
  0
CIRCLE
  5
598B
  8
3
 10
112.5
 20
378.0
 30
0.0
 40
8.4664999999999981
  0
LINE
  5
598C
  8
0
 10
67.117109940223713
 20
360.50418920992428
 30
0.0
 11
103.7288488583178
 21
349.31085732110893
 31
0.0
  0
LINE
  5
598D
  8
0
 10
67.117109940223713
 20
395.49581079007572
 30
0.0
 11
103.7288488583178
 21
406.68914267889107
 31
0.0
  0
ARC
  5
598E
  8
0
 10
112.5
 20
378.0
 30
0.0
 40
30.0
 50
253.00000000000489
 51
106.999999999995
  0
ARC
  5
598F
  8
0
 10
67.5
 20
378.0
 30
0.0
 40
17.500000000000011
 50
91.253699150881786
 51
268.74630084911831
  0
ARC
  5
5990
  8
0
 10
67.5
 20
378.0
 30
0.0
 40
17.065000000000001
 50
91.052980199619867
 51
268.94701980036712
  0
LINE
  5
5991
  8
0
 10
67.186397571236384
 20
360.93788176934999
 30
0.0
 11
103.8560305498723
 21
349.72684988995297
 31
0.0
  0
LINE
  5
5992
  8
0
 10
67.186397571236384
 20
395.06211823065001
 30
0.0
 11
103.8560305498723
 21
406.27315011004703
 31
0.0
  0
ARC
  5
5993
  8
0
 10
112.5
 20
378.0
 30
0.0
 40
29.565000000000001
 50
253.00000000000489
 51
106.999999999995
  0
LINE
  5
5994
  8
0
 10
67.907832960282576
 20
365.85584612747471
 30
0.0
 11
105.2927451068429
 21
354.42613146063468
 31
0.0
  0
LINE
  5
5995
  8
0
 10
67.907832960282462
 20
390.14415387252529
 30
0.0
 11
105.2927451068429
 21
401.57386853936532
 31
0.0
  0
ARC
  5
5996
  8
0
 10
67.5
 20
378.0
 30
0.0
 40
12.151000000126039
 50
88.076578317410863
 51
271.92342168258909
  0
ARC
  5
5997
  8
0
 10
112.5
 20
378.0
 30
0.0
 40
24.651000000126061
 50
253.00000000000489
 51
106.999999999995
  0
CIRCLE
  5
5998
  8
0
 10
112.5
 20
378.0
 30
0.0
 40
19.166000000030792
  0
CIRCLE
  5
5999
  8
0
 10
62.5
 20
378.0
 30
0.0
 40
1.0
  0
CIRCLE
  5
599A
  8
0
 10
80.5
 20
378.0
 30
0.0
 40
1.0
  0
LINE
  5
599B
  8
3
 10
105.8856217223385
 20
88.0
 30
0.0
 11
119.1143782776614
 21
78.0
 31
0.0
  0
LINE
  5
599C
  8
3
 10
105.8856217223385
 20
78.0
 30
0.0
 11
119.1143782776614
 21
88.0
 31
0.0
  0
LINE
  5
599D
  8
3
 10
265.88562172233861
 20
88.0
 30
0.0
 11
279.1143782776615
 21
78.0
 31
0.0
  0
LINE
  5
599E
  8
3
 10
265.88562172233861
 20
78.0
 30
0.0
 11
279.1143782776615
 21
88.0
 31
0.0
  0
ENDSEC
  0
EOF
