  0
SECTION
  2
HEADER
  9
$ACADVER
  1
AC1009
  9
$INSBASE
 10
0.0
 20
0.0
 30
0.0
  9
$EXTMIN
 10
0.0
 20
-2.960436562073669
 30
0.0
  9
$EXTMAX
 10
302.5
 20
413.0
 30
0.0
  9
$LIMMIN
 10
0.0
 20
0.0
  9
$LIMMAX
 10
375.0
 20
270.0
  9
$ORTHOMODE
 70
     1
  9
$REGENMODE
 70
     1
  9
$FILLMODE
 70
     1
  9
$QTEXTMODE
 70
     0
  9
$MIRRTEXT
 70
     0
  9
$DRAGMODE
 70
     2
  9
$LTSCALE
 40
5.0
  9
$OSMODE
 70
    37
  9
$ATTMODE
 70
     1
  9
$TEXTSIZE
 40
0.2
  9
$TRACEWID
 40
0.05
  9
$TEXTSTYLE
  7
STANDARD
  9
$CLAYER
  8
0
  9
$CELTYPE
  6
BYLAYER
  9
$CECOLOR
 62
     4
  9
$DIMSCALE
 40
1.0
  9
$DIMASZ
 40
3.0
  9
$DIMEXO
 40
1.0
  9
$DIMDLI
 40
6.0
  9
$DIMRND
 40
0.0
  9
$DIMDLE
 40
0.0
  9
$DIMEXE
 40
1.0
  9
$DIMTP
 40
495.0
  9
$DIMTM
 40
0.0
  9
$DIMTXT
 40
3.0
  9
$DIMCEN
 40
0.0
  9
$DIMTSZ
 40
0.0
  9
$DIMTOL
 70
     0
  9
$DIMLIM
 70
     0
  9
$DIMTIH
 70
     0
  9
$DIMTOH
 70
     0
  9
$DIMSE1
 70
     0
  9
$DIMSE2
 70
     0
  9
$DIMTAD
 70
     1
  9
$DIMZIN
 70
     8
  9
$DIMBLK
  1

  9
$DIMASO
 70
     0
  9
$DIMSHO
 70
     0
  9
$DIMPOST
  1

  9
$DIMAPOST
  1

  9
$DIMALT
 70
     0
  9
$DIMALTD
 70
     2
  9
$DIMALTF
 40
25.399999999999999
  9
$DIMLFAC
 40
1.0
  9
$DIMTOFL
 70
     1
  9
$DIMTVP
 40
0.0
  9
$DIMTIX
 70
     1
  9
$DIMSOXD
 70
     0
  9
$DIMSAH
 70
     0
  9
$DIMBLK1
  1

  9
$DIMBLK2
  1

  9
$DIMSTYLE
  2
STANDARD
  9
$DIMCLRD
 70
     0
  9
$DIMCLRE
 70
     0
  9
$DIMCLRT
 70
     0
  9
$DIMTFAC
 40
1.0
  9
$DIMGAP
 40
1.0
  9
$LUNITS
 70
     2
  9
$LUPREC
 70
     1
  9
$SKETCHINC
 40
0.1
  9
$FILLETRAD
 40
2.0
  9
$AUNITS
 70
     0
  9
$AUPREC
 70
     1
  9
$MENU
  1
C:\R13\WIN\SUPPORT\ACAD-I
  9
$ELEVATION
 40
0.0
  9
$PELEVATION
 40
0.0
  9
$THICKNESS
 40
0.0
  9
$LIMCHECK
 70
     0
  9
$BLIPMODE
 70
     0
  9
$CHAMFERA
 40
0.0
  9
$CHAMFERB
 40
0.0
  9
$SKPOLY
 70
     0
  9
$TDCREATE
 40
2451962.4112634258
  9
$TDUPDATE
 40
2457893.4193924889
  9
$TDINDWG
 40
0.3553475463
  9
$TDUSRTIMER
 40
2456555.281714953
  9
$USRTIMER
 70
     1
  9
$ANGBASE
 50
0.0
  9
$ANGDIR
 70
     0
  9
$PDMODE
 70
     0
  9
$PDSIZE
 40
0.0
  9
$PLINEWID
 40
0.0
  9
$COORDS
 70
     1
  9
$SPLFRAME
 70
     0
  9
$SPLINETYPE
 70
     6
  9
$SPLINESEGS
 70
     8
  9
$ATTDIA
 70
     0
  9
$ATTREQ
 70
     1
  9
$HANDLING
 70
     1
  9
$HANDSEED
  5
663D
  9
$SURFTAB1
 70
     6
  9
$SURFTAB2
 70
     6
  9
$SURFTYPE
 70
     6
  9
$SURFU
 70
     6
  9
$SURFV
 70
     6
  9
$UCSNAME
  2

  9
$UCSORG
 10
0.0
 20
0.0
 30
0.0
  9
$UCSXDIR
 10
1.0
 20
0.0
 30
0.0
  9
$UCSYDIR
 10
0.0
 20
1.0
 30
0.0
  9
$PUCSNAME
  2

  9
$PUCSORG
 10
0.0
 20
0.0
 30
0.0
  9
$PUCSXDIR
 10
1.0
 20
0.0
 30
0.0
  9
$PUCSYDIR
 10
0.0
 20
1.0
 30
0.0
  9
$USERI1
 70
     4
  9
$USERI2
 70
     1
  9
$USERI3
 70
     0
  9
$USERI4
 70
     0
  9
$USERI5
 70
     0
  9
$USERR1
 40
1.0
  9
$USERR2
 40
3.0
  9
$USERR3
 40
3.0
  9
$USERR4
 40
3.0
  9
$USERR5
 40
10.0
  9
$WORLDVIEW
 70
     1
  9
$SHADEDGE
 70
     3
  9
$SHADEDIF
 70
    70
  9
$TILEMODE
 70
     1
  9
$MAXACTVP
 70
    16
  9
$PLIMCHECK
 70
     0
  9
$PEXTMIN
 10
1.0000000000000000E+020
 20
1.0000000000000000E+020
 30
1.0000000000000000E+020
  9
$PEXTMAX
 10
-1.0000000000000000E+020
 20
-1.0000000000000000E+020
 30
-1.0000000000000000E+020
  9
$PLIMMIN
 10
0.0
 20
0.0
  9
$PLIMMAX
 10
12.0
 20
9.0
  9
$UNITMODE
 70
     0
  9
$VISRETAIN
 70
     0
  9
$PLINEGEN
 70
     0
  9
$PSLTSCALE
 70
     0
  0
ENDSEC
  0
SECTION
  2
TABLES
  0
TABLE
  2
VPORT
 70
     1
  0
VPORT
  2
*ACTIVE
 70
     0
 10
0.0
 20
0.0
 11
1.0
 21
1.0
 12
454.05982905982899
 22
250.0
 13
0.0
 23
0.0
 14
10.0
 24
10.0
 15
10.0
 25
10.0
 16
0.0
 26
0.0
 36
1.0
 17
0.0
 27
0.0
 37
0.0
 40
500.0
 41
1.816239316239316
 42
50.0
 43
0.0
 44
0.0
 50
0.0
 51
0.0
 71
    16
 72
   100
 73
     1
 74
     0
 75
     0
 76
     1
 77
     0
 78
     0
  0
ENDTAB
  0
TABLE
  2
LTYPE
 70
     4
  0
LTYPE
  2
CONTINUOUS
 70
     0
  3
Solid Line
 72
    65
 73
     0
 40
0.0
  0
LTYPE
  2
PHANTOM2
 70
     0
  3
___ _ _ ___ _ _ ___ _ _ ___ _ _
 72
    65
 73
     6
 40
1.25
 49
0.625
 49
-0.125
 49
0.125
 49
-0.125
 49
0.125
 49
-0.125
  0
LTYPE
  2
CENTER
 70
     0
  3
____ _ ____ _ ____ _ ____ _ ____ _ ____ _ ____
 72
    65
 73
     4
 40
2.0
 49
1.25
 49
-0.25
 49
0.25
 49
-0.25
  0
LTYPE
  2
HIDDEN
 70
     0
  3
_ _ _ _ _ _ _ _ _ _ _ _ _ _ _ _ _ _ _ _ _ _ _
 72
    65
 73
     2
 40
0.375
 49
0.25
 49
-0.125
  0
ENDTAB
  0
TABLE
  2
LAYER
 70
     5
  0
LAYER
  2
0
 70
     0
 62
     7
  6
CONTINUOUS
  0
LAYER
  2
1
 70
     0
 62
     1
  6
CENTER
  0
LAYER
  2
3
 70
     0
 62
     3
  6
CONTINUOUS
  0
LAYER
  2
2
 70
     0
 62
     2
  6
HIDDEN
  0
LAYER
  2
DEFPOINTS
 70
     0
 62
     7
  6
CONTINUOUS
  0
ENDTAB
  0
TABLE
  2
STYLE
 70
     2
  0
STYLE
  2
STANDARD
 70
     0
 40
0.0
 41
1.0
 50
0.0
 71
     0
 42
0.2
  3
SIMPLEX
  4
BIGFONT
  0
STYLE
  2
STANDARD1
 70
     0
 40
0.0
 41
1.0
 50
0.0
 71
     0
 42
3.0
  3
txt
  4

  0
ENDTAB
  0
TABLE
  2
VIEW
 70
     0
  0
ENDTAB
  0
TABLE
  2
UCS
 70
     0
  0
ENDTAB
  0
TABLE
  2
APPID
 70
    32
  0
APPID
  2
ACAD
 70
     0
  0
APPID
  2
ACADANNOTATIVE
 70
     0
  0
APPID
  2
GENIUS_GENOREF_13
 70
     0
  0
APPID
  2
GENIUS_GENOENT_13
 70
     0
  0
APPID
  2
GENIUS_GENBH_13
 70
     0
  0
APPID
  2
GENIUS_GENOBJ_13
 70
     0
  0
APPID
  2
GENIUS_GENODEF_13
 70
     0
  0
APPID
  2
GENIUS_GENOLIS_13
 70
     0
  0
APPID
  2
GENIUS_GENOBJ-NBEHI-BHF_13
 70
     0
  0
APPID
  2
GENIUS_GENOBJ-NBEHI-BHB_13
 70
     0
  0
APPID
  2
GENIUS_GENOBJ-F-PART_13
 70
     0
  0
APPID
  2
GENIUS_GEFSTDP_13
 70
     0
  0
APPID
  2
GENIUS_GENOBJ-N-RSSYM_13
 70
     0
  0
APPID
  2
GENIUS_GENSYMENT_13
 70
     0
  0
APPID
  2
GENIUS_GENOBJ-N-TIT_13
 70
     0
  0
APPID
  2
GENIUS_GENTITLE_13
 70
     0
  0
APPID
  2
GENIUS_GENZVEED_13
 70
     0
  0
APPID
  2
GENIUS_GENOBJ-N-LEADER_13
 70
     0
  0
APPID
  2
GENIUS_GENOBJ-N-FIL_13
 70
     0
  0
APPID
  2
GENIUS_GENOBJ-N-SEC_13
 70
     0
  0
APPID
  2
GENIUS_GENOBJ-N-CRS_13
 70
     0
  0
APPID
  2
GENIUS_GENOBJ-N-ZOO_13
 70
     0
  0
APPID
  2
GENIUS_GENZOO_13
 70
     0
  0
APPID
  2
GENIUS_GENOBJ-F-TOL_13
 70
     0
  0
APPID
  2
GENIUS_GENFIL_13
 70
     0
  0
APPID
  2
GENIUS_GENOBJ-N-CHA_13
 70
     0
  0
APPID
  2
ACAD_EXEMPT_FROM_CAD_STANDARDS
 70
     0
  0
APPID
  2
ACAD_MLEADERVER
 70
     0
  0
APPID
  2
ACAD_NAV_VCDISPLAY
 70
     0
  0
APPID
  2
ACAD_DSTYLE_DIMJAG
 70
     0
  0
APPID
  2
ACAD_DSTYLE_DIMTALN
 70
     0
  0
APPID
  2
ACAD_DSTYLE_DIMRADIAL_EXTENSION
 70
     0
  0
ENDTAB
  0
TABLE
  2
DIMSTYLE
 70
     1
  0
DIMSTYLE
  2
STANDARD
 70
     0
  3

  4

  5

  6

  7

 40
1.0
 41
0.18
 42
0.0625
 43
0.38
 44
0.18
 45
0.0
 46
0.0
 47
0.0
 48
0.0
140
0.18
141
0.09
142
0.0
143
25.399999999999999
144
1.0
145
0.0
146
1.0
147
0.09
 71
     0
 72
     0
 73
     1
 74
     1
 75
     0
 76
     0
 77
     0
 78
     0
170
     0
171
     2
172
     0
173
     0
174
     0
175
     0
176
     0
177
     0
178
     0
  0
ENDTAB
  0
ENDSEC
  0
SECTION
  2
BLOCKS
  0
BLOCK
  8
0
  2
$MODEL_SPACE
 70
     0
 10
0.0
 20
0.0
 30
0.0
  3
$MODEL_SPACE
  1

  0
ENDBLK
  5
439E
  8
0
  0
BLOCK
 67
     1
  8
0
  2
$PAPER_SPACE
 70
     0
 10
0.0
 20
0.0
 30
0.0
  3
$PAPER_SPACE
  1

  0
ENDBLK
  5
439A
 67
     1
  8
0
  0
ENDSEC
  0
SECTION
  2
ENTITIES
  0
TEXT
  5
4ECE
  8
0
 62
     3
 10
0.0
 20
0.0
 30
0.0
 40
10.0
  1
LQFD60S24C-SUS
  7
STANDARD1
  0
LINE
  5
62EB
  8
1
 10
272.50000000000011
 20
303.0
 30
0.0
 11
272.49999999999989
 21
47.0
 31
0.0
  0
LINE
  5
62EC
  8
0
 10
277.74903501696679
 20
74.0
 30
0.0
 11
277.74903501696679
 21
76.0
 31
0.0
  0
LINE
  5
62ED
  8
0
 10
267.25096498303321
 20
76.0
 30
0.0
 11
267.25096498303321
 21
74.0
 31
0.0
  0
LINE
  5
62EE
  8
0
 10
267.25096498303321
 20
74.0
 30
0.0
 11
277.74903501696679
 21
74.0
 31
0.0
  0
ARC
  5
62EF
  8
0
 10
272.50050380932362
 20
69.630999981416039
 30
0.0
 40
6.8289999999993816
 50
29.56016577232371
 51
39.774787798916513
  0
ARC
  5
62F0
  8
0
 10
272.49949619067712
 20
69.630999981415684
 30
0.0
 40
6.8290000000001134
 50
140.22521220108351
 51
150.4398342276763
  0
LINE
  5
62F1
  8
0
 10
263.5
 20
88.0
 30
0.0
 11
260.5
 21
88.0
 31
0.0
  0
LINE
  5
62F2
  8
0
 10
263.5
 20
76.0
 30
0.0
 11
263.5
 21
88.0
 31
0.0
  0
LINE
  5
62F3
  8
0
 10
264.5627460668062
 20
88.0
 30
0.0
 11
264.5627460668062
 21
76.0
 31
0.0
  0
LINE
  5
62F4
  8
0
 10
280.4372539331938
 20
88.0
 30
0.0
 11
264.5627460668062
 21
88.0
 31
0.0
  0
LINE
  5
62F5
  8
0
 10
280.4372539331938
 20
76.0
 30
0.0
 11
280.4372539331938
 21
88.0
 31
0.0
  0
LINE
  5
62F6
  8
0
 10
263.5
 20
76.0
 30
0.0
 11
281.5
 21
76.0
 31
0.0
  0
LINE
  5
62F7
  8
0
 10
281.5
 20
88.0
 30
0.0
 11
281.5
 21
76.0
 31
0.0
  0
LINE
  5
62F8
  8
0
 10
284.5
 20
88.0
 30
0.0
 11
284.50000000000011
 21
113.0
 31
0.0
  0
LINE
  5
62F9
  8
0
 10
284.50000000000011
 20
132.0
 30
0.0
 11
284.5
 21
296.15949999999998
 31
0.0
  0
LINE
  5
62FA
  8
0
 10
260.5
 20
296.15949999999998
 30
0.0
 11
260.5
 21
132.0
 31
0.0
  0
LINE
  5
62FB
  8
0
 10
260.5
 20
113.0
 30
0.0
 11
260.5
 21
88.0
 31
0.0
  0
LINE
  5
62FC
  8
0
 10
284.5
 20
88.0
 30
0.0
 11
281.5
 21
88.0
 31
0.0
  0
LINE
  5
62FD
  8
0
 10
262.34050000000002
 20
298.0
 30
0.0
 11
260.5
 21
296.15949999999998
 31
0.0
  0
LINE
  5
62FE
  8
0
 10
284.5
 20
296.15949999999998
 30
0.0
 11
282.65949999999998
 21
298.0
 31
0.0
  0
LINE
  5
62FF
  8
0
 10
284.5
 20
296.15949999999998
 30
0.0
 11
260.5
 21
296.15949999999998
 31
0.0
  0
LINE
  5
6300
  8
0
 10
282.65949999999998
 20
298.0
 30
0.0
 11
262.34050000000002
 21
298.0
 31
0.0
  0
LINE
  5
6301
  8
3
 10
262.34050000000002
 20
298.0
 30
0.0
 11
262.34050000000008
 21
132.00000000000011
 31
0.0
  0
LINE
  5
6302
  8
3
 10
262.34050000000008
 20
113.0
 30
0.0
 11
262.34050000000002
 21
90.0
 31
0.0
  0
LINE
  5
6303
  8
3
 10
260.5
 20
88.0
 30
0.0
 11
262.34050000000002
 21
90.0
 31
0.0
  0
LINE
  5
6304
  8
0
 10
260.5
 20
90.0
 30
0.0
 11
284.5
 21
90.0
 31
0.0
  0
LINE
  5
6305
  8
3
 10
282.65949999999998
 20
298.0
 30
0.0
 11
282.65949999999998
 21
132.00000000000011
 31
0.0
  0
LINE
  5
6306
  8
3
 10
282.65949999999998
 20
113.0
 30
0.0
 11
282.65949999999998
 21
90.0
 31
0.0
  0
LINE
  5
6307
  8
3
 10
284.5
 20
88.0
 30
0.0
 11
282.65949999999998
 21
90.0
 31
0.0
  0
LINE
  5
6308
  8
0
 10
258.18799999999999
 20
73.0
 30
0.0
 11
254.46799999999999
 21
69.932999999999993
 31
0.0
  0
LINE
  5
6309
  8
0
 10
290.5320000000001
 20
69.932999999999993
 30
0.0
 11
286.81200000000001
 21
73.0
 31
0.0
  0
LINE
  5
630A
  8
0
 10
258.18799999999999
 20
73.0
 30
0.0
 11
286.81200000000001
 21
73.0
 31
0.0
  0
ARC
  5
630B
  8
0
 10
289.83189661008743
 20
68.052068251256173
 30
0.0
 40
2.0069999999999428
 50
23.95661111562546
 51
69.584182493118718
  0
ARC
  5
630C
  8
0
 10
255.1681033899126
 20
68.052068251256173
 30
0.0
 40
2.0069999999999411
 50
110.4158175068812
 51
156.04338888437451
  0
ARC
  5
630D
  8
0
 10
293.4997690272258
 20
69.682683857133156
 30
0.0
 40
2.0070000000000232
 50
203.98010846715559
 51
249.56390492501311
  0
ARC
  5
630E
  8
0
 10
251.5002309727742
 20
69.682683857133156
 30
0.0
 40
2.007000000000025
 50
290.43609507498689
 51
336.0198915328445
  0
LINE
  5
630F
  8
0
 10
253.33399999996931
 20
68.866999999930613
 30
0.0
 11
291.66600000003069
 21
68.866999999930613
 31
0.0
  0
LINE
  5
6310
  8
0
 10
252.20099999999991
 20
67.801999999999893
 30
0.0
 11
248.94500000000011
 21
65.687000000000126
 31
0.0
  0
LINE
  5
6311
  8
0
 10
296.05499999999978
 20
65.687000000000126
 30
0.0
 11
292.79900000000009
 21
67.801999999999893
 31
0.0
  0
ARC
  5
6312
  8
0
 10
295.35511269838707
 20
63.805987834956682
 30
0.0
 40
2.006999999999985
 50
26.515732446534891
 51
69.590764700536141
  0
ARC
  5
6313
  8
0
 10
249.6448873016129
 20
63.805987834956682
 30
0.0
 40
2.0069999999999859
 50
110.4092352994638
 51
153.48426755346509
  0
ARC
  5
6314
  8
0
 10
298.94711545000467
 20
65.597554738837744
 30
0.0
 40
2.0070000000000281
 50
206.50113971722331
 51
249.55335065538841
  0
ARC
  5
6315
  8
0
 10
246.0528845499953
 20
65.597554738837744
 30
0.0
 40
2.0070000000000321
 50
290.44664934461161
 51
333.49886028277672
  0
LINE
  5
6316
  8
0
 10
247.84899999987391
 20
64.701999999747272
 30
0.0
 11
297.15100000012598
 21
64.701999999747272
 31
0.0
  0
LINE
  5
631A
  8
0
 10
246.7540000000003
 20
63.717000000000098
 30
0.0
 11
244.25399999999999
 21
62.090000000000032
 31
0.0
  0
LINE
  5
631B
  8
0
 10
300.74599999999998
 20
62.090000000000032
 30
0.0
 11
298.2459999999997
 21
63.717000000000098
 31
0.0
  0
ARC
  5
631C
  8
0
 10
300.06727230764682
 20
60.208689626979883
 30
0.0
 40
2.0000000000000151
 50
2.7314755961228769
 51
70.161879109748725
  0
ARC
  5
631D
  8
0
 10
244.93272769235321
 20
60.208689626979883
 30
0.0
 40
2.0000000000000151
 50
109.8381208902512
 51
177.26852440387711
  0
LINE
  5
631E
  8
0
 10
242.93500000000009
 20
60.303999999999967
 30
0.0
 11
242.5
 21
52.0
 31
0.0
  0
LINE
  5
631F
  8
0
 10
302.5
 20
52.0
 30
0.0
 11
302.06499999999988
 21
60.303999999999967
 31
0.0
  0
LINE
  5
6320
  8
0
 10
242.93500000000009
 20
60.303999999999967
 30
0.0
 11
302.06499999999988
 21
60.303999999999967
 31
0.0
  0
LINE
  5
6321
  8
0
 10
242.5
 20
52.0
 30
0.0
 11
302.5
 21
52.0
 31
0.0
  0
LINE
  5
6322
  8
2
 10
66.75
 20
64.0
 30
0.0
 11
58.25
 21
64.0
 31
0.0
  0
LINE
  5
6323
  8
2
 10
58.25
 20
64.0
 30
0.0
 11
58.25
 21
52.0
 31
0.0
  0
LINE
  5
6324
  8
2
 10
66.75
 20
52.0
 30
0.0
 11
66.75
 21
64.0
 31
0.0
  0
LINE
  5
6325
  8
2
 10
84.749999999999986
 20
64.0
 30
0.0
 11
76.25
 21
64.0
 31
0.0
  0
LINE
  5
6326
  8
2
 10
76.25
 20
64.0
 30
0.0
 11
76.25
 21
52.0
 31
0.0
  0
LINE
  5
6327
  8
2
 10
84.749999999999986
 20
52.0
 30
0.0
 11
84.749999999999986
 21
64.0
 31
0.0
  0
LINE
  5
6328
  8
1
 10
112.5
 20
303.0
 30
0.0
 11
112.5
 21
47.0
 31
0.0
  0
LINE
  5
6329
  8
1
 10
62.5
 20
67.0
 30
0.0
 11
62.5
 21
49.0
 31
0.0
  0
LINE
  5
632A
  8
1
 10
80.499999999999886
 20
67.0
 30
0.0
 11
80.500000000000114
 21
49.0
 31
0.0
  0
LINE
  5
632B
  8
0
 10
117.7490350169668
 20
74.0
 30
0.0
 11
117.7490350169668
 21
76.0
 31
0.0
  0
LINE
  5
632C
  8
0
 10
107.2509649830332
 20
76.0
 30
0.0
 11
107.2509649830332
 21
74.0
 31
0.0
  0
ARC
  5
632D
  8
0
 10
112.5005038093236
 20
69.630999981416039
 30
0.0
 40
6.8289999999993816
 50
29.56016577232371
 51
39.774787798921572
  0
ARC
  5
632E
  8
0
 10
112.49949619067699
 20
69.630999981415684
 30
0.0
 40
6.8290000000001134
 50
140.22521220108351
 51
150.4398342276763
  0
LINE
  5
632F
  8
0
 10
107.2509649830332
 20
74.0
 30
0.0
 11
117.7490350169668
 21
74.0
 31
0.0
  0
LINE
  5
6330
  8
0
 10
122.65949999999999
 20
298.0
 30
0.0
 11
102.34050000000001
 21
298.0
 31
0.0
  0
LINE
  5
6331
  8
0
 10
102.34050000000001
 20
298.0
 30
0.0
 11
100.5
 21
296.15949999999998
 31
0.0
  0
LINE
  5
6332
  8
0
 10
124.5
 20
296.15949999999998
 30
0.0
 11
122.65949999999999
 21
298.0
 31
0.0
  0
LINE
  5
6333
  8
0
 10
120.4372539331938
 20
88.0
 30
0.0
 11
104.5627460668062
 21
88.0
 31
0.0
  0
LINE
  5
6334
  8
0
 10
103.5
 20
88.0
 30
0.0
 11
100.5
 21
88.0
 31
0.0
  0
LINE
  5
6335
  8
0
 10
103.5
 20
76.0
 30
0.0
 11
103.5
 21
88.0
 31
0.0
  0
LINE
  5
6336
  8
0
 10
104.5627460668062
 20
88.0
 30
0.0
 11
104.5627460668062
 21
76.0
 31
0.0
  0
LINE
  5
6337
  8
0
 10
120.4372539331938
 20
76.0
 30
0.0
 11
120.4372539331938
 21
88.0
 31
0.0
  0
LINE
  5
6338
  8
0
 10
103.5
 20
76.0
 30
0.0
 11
121.5
 21
76.0
 31
0.0
  0
LINE
  5
6339
  8
0
 10
121.5
 20
88.0
 30
0.0
 11
121.5
 21
76.0
 31
0.0
  0
LINE
  5
633A
  8
0
 10
124.5
 20
296.15949999999998
 30
0.0
 11
100.5
 21
296.15949999999998
 31
0.0
  0
LINE
  5
633B
  8
0
 10
124.5
 20
88.0
 30
0.0
 11
124.5
 21
113.0
 31
0.0
  0
LINE
  5
633C
  8
0
 10
124.5000000000001
 20
132.0
 30
0.0
 11
124.5
 21
296.15949999999998
 31
0.0
  0
LINE
  5
633D
  8
0
 10
100.5
 20
296.15949999999998
 30
0.0
 11
100.5
 21
132.0
 31
0.0
  0
LINE
  5
633E
  8
0
 10
100.5
 20
113.0
 30
0.0
 11
100.5
 21
88.0
 31
0.0
  0
LINE
  5
633F
  8
0
 10
124.5
 20
88.0
 30
0.0
 11
121.5
 21
88.0
 31
0.0
  0
LINE
  5
6340
  8
3
 10
102.34050000000001
 20
298.0
 30
0.0
 11
102.34050000000001
 21
132.00000000000011
 31
0.0
  0
LINE
  5
6341
  8
3
 10
102.34050000000001
 20
113.0
 30
0.0
 11
102.34050000000001
 21
90.0
 31
0.0
  0
LINE
  5
6342
  8
3
 10
100.5
 20
88.0
 30
0.0
 11
102.34050000000001
 21
90.0
 31
0.0
  0
LINE
  5
6343
  8
0
 10
100.5
 20
90.0
 30
0.0
 11
124.5
 21
90.0
 31
0.0
  0
LINE
  5
6344
  8
3
 10
122.65949999999999
 20
298.0
 30
0.0
 11
122.65950000000009
 21
132.00000000000011
 31
0.0
  0
LINE
  5
6345
  8
3
 10
122.65949999999999
 20
113.0
 30
0.0
 11
122.65949999999999
 21
90.0
 31
0.0
  0
LINE
  5
6346
  8
3
 10
124.5
 20
88.0
 30
0.0
 11
122.65949999999999
 21
90.0
 31
0.0
  0
LINE
  5
6347
  8
0
 10
56.926857210401863
 20
66.0
 30
0.0
 11
56.445000000000157
 21
65.687000000000126
 31
0.0
  0
LINE
  5
6348
  8
0
 10
56.926857210401863
 20
66.0
 30
0.0
 11
89.426857210401863
 21
66.0
 31
0.0
  0
ARC
  5
634A
  8
0
 10
57.144887301612918
 20
63.805987834956682
 30
0.0
 40
2.0070000000000379
 50
110.4092352994638
 51
153.48426755346509
  0
ARC
  5
634B
  8
0
 10
53.552884549995269
 20
65.597554738837744
 30
0.0
 40
2.0070000000000201
 50
290.44664934461161
 51
333.49886028277672
  0
LINE
  5
634D
  8
0
 10
54.254000000000239
 20
63.717000000000098
 30
0.0
 11
51.754000000000019
 21
62.090000000000032
 31
0.0
  0
ARC
  5
634E
  8
0
 10
52.432727692353183
 20
60.208689626979883
 30
0.0
 40
2.0000000000000311
 50
109.8381208902512
 51
177.26852440387711
  0
LINE
  5
634F
  8
0
 10
50.434999999999938
 20
60.303999999999967
 30
0.0
 11
50.0
 21
52.0
 31
0.0
  0
LINE
  5
6350
  8
0
 10
98.187999999999988
 20
73.0
 30
0.0
 11
94.467999999999961
 21
69.932999999999993
 31
0.0
  0
LINE
  5
6351
  8
0
 10
130.53200000000001
 20
69.932999999999993
 30
0.0
 11
126.812
 21
73.0
 31
0.0
  0
LINE
  5
6352
  8
0
 10
98.187999999999988
 20
73.0
 30
0.0
 11
126.812
 21
73.0
 31
0.0
  0
ARC
  5
6353
  8
0
 10
129.8318966100874
 20
68.052068251256173
 30
0.0
 40
2.0069999999999428
 50
23.95661111562546
 51
69.584182493118718
  0
ARC
  5
6354
  8
0
 10
95.168103389912631
 20
68.052068251256173
 30
0.0
 40
2.0069999999999411
 50
110.4158175068812
 51
156.04338888437451
  0
ARC
  5
6355
  8
0
 10
133.49976902722571
 20
69.682683857133156
 30
0.0
 40
2.0070000000000232
 50
203.98010846715559
 51
249.56390492501311
  0
ARC
  5
6356
  8
0
 10
91.500230972774261
 20
69.682683857133156
 30
0.0
 40
2.007000000000025
 50
290.43609507498689
 51
336.0198915328445
  0
LINE
  5
6357
  8
0
 10
93.333999999969265
 20
68.866999999930613
 30
0.0
 11
131.66600000003069
 21
68.866999999930613
 31
0.0
  0
LINE
  5
6358
  8
0
 10
92.200999999999908
 20
67.801999999999893
 30
0.0
 11
89.426857210401863
 21
66.0
 31
0.0
  0
LINE
  5
6359
  8
0
 10
136.05499999999981
 20
65.687000000000126
 30
0.0
 11
132.79900000000009
 21
67.801999999999893
 31
0.0
  0
ARC
  5
635B
  8
0
 10
135.35511269838699
 20
63.805987834956682
 30
0.0
 40
2.006999999999985
 50
26.515732446534891
 51
69.590764700536141
  0
LINE
  5
635C
  8
0
 10
55.348999999873968
 20
64.701999999747272
 30
0.0
 11
137.151000000126
 21
64.701999999747272
 31
0.0
  0
ARC
  5
635D
  8
0
 10
138.9471154500047
 20
65.597554738837744
 30
0.0
 40
2.0070000000000281
 50
206.50113971722331
 51
249.55335065538841
  0
LINE
  5
6360
  8
0
 10
140.74600000000001
 20
62.090000000000032
 30
0.0
 11
138.2459999999997
 21
63.717000000000098
 31
0.0
  0
ARC
  5
6361
  8
0
 10
140.06727230764679
 20
60.208689626979883
 30
0.0
 40
2.0000000000000151
 50
2.7314755961228769
 51
70.161879109748725
  0
LINE
  5
6362
  8
0
 10
50.0
 20
52.0
 30
0.0
 11
142.5
 21
52.0
 31
0.0
  0
LINE
  5
6363
  8
0
 10
50.434999999999938
 20
60.303999999999967
 30
0.0
 11
142.065
 21
60.303999999999967
 31
0.0
  0
LINE
  5
6364
  8
0
 10
142.5
 20
52.0
 30
0.0
 11
142.065
 21
60.303999999999967
 31
0.0
  0
CIRCLE
  5
6365
  8
2
 10
62.5
 20
378.0
 30
0.0
 40
4.2499999999999947
  0
CIRCLE
  5
6366
  8
2
 10
80.5
 20
378.0
 30
0.0
 40
4.2499999999999947
  0
LINE
  5
6367
  8
1
 10
62.5
 20
385.25
 30
0.0
 11
62.5
 21
370.75
 31
0.0
  0
LINE
  5
6368
  8
1
 10
80.5
 20
385.25
 30
0.0
 11
80.5
 21
370.75
 31
0.0
  0
LINE
  5
6369
  8
1
 10
112.5
 20
413.0
 30
0.0
 11
112.5
 21
343.0
 31
0.0
  0
LINE
  5
636A
  8
1
 10
147.5
 20
378.0
 30
0.0
 11
45.0
 21
378.0
 31
0.0
  0
CIRCLE
  5
636B
  8
0
 10
112.5
 20
378.0
 30
0.0
 40
12.0
  0
CIRCLE
  5
636C
  8
3
 10
112.5
 20
378.0
 30
0.0
 40
10.1595
  0
LINE
  5
636D
  8
0
 10
67.117109940223713
 20
360.5041892099245
 30
0.0
 11
103.7288488583178
 21
349.31085732110898
 31
0.0
  0
LINE
  5
636E
  8
0
 10
67.117109940223713
 20
395.4958107900755
 30
0.0
 11
103.7288488583178
 21
406.68914267889102
 31
0.0
  0
ARC
  5
636F
  8
0
 10
67.5
 20
378.0
 30
0.0
 40
17.500000000000011
 50
91.253699150881786
 51
268.74630084911831
  0
ARC
  5
6370
  8
0
 10
112.5
 20
378.0
 30
0.0
 40
30.0
 50
253.00000000000151
 51
106.99999999999839
  0
LINE
  5
6371
  8
0
 10
67.186397571236384
 20
360.93788176935021
 30
0.0
 11
103.8560305498722
 21
349.72684988995292
 31
0.0
  0
ARC
  5
6372
  8
0
 10
67.5
 20
378.0
 30
0.0
 40
17.065000000000001
 50
91.052980199619867
 51
268.94701980036712
  0
LINE
  5
6373
  8
0
 10
67.186397571236384
 20
395.0621182306499
 30
0.0
 11
103.8560305498722
 21
406.27315011004708
 31
0.0
  0
ARC
  5
6374
  8
0
 10
112.5
 20
378.0
 30
0.0
 40
29.565000000000001
 50
253.00000000000151
 51
106.99999999999839
  0
LINE
  5
6375
  8
0
 10
67.907832960282462
 20
390.14415387252518
 30
0.0
 11
105.2927451068429
 21
401.57386853936532
 31
0.0
  0
LINE
  5
6376
  8
0
 10
67.907832960282576
 20
365.85584612747471
 30
0.0
 11
105.2927451068429
 21
354.42613146063468
 31
0.0
  0
ARC
  5
6377
  8
0
 10
67.5
 20
378.0
 30
0.0
 40
12.151000000126039
 50
88.076578317410863
 51
271.92342168258909
  0
ARC
  5
6378
  8
0
 10
112.5
 20
378.0
 30
0.0
 40
24.651000000126061
 50
253.00000000000151
 51
106.99999999999839
  0
ARC
  5
6379
  8
0
 10
112.5
 20
378.0
 30
0.0
 40
19.166000000030792
 50
69.911481727138025
 51
110.0885182728619
  0
ARC
  5
637A
  8
0
 10
112.5
 20
378.0
 30
0.0
 40
19.166000000030792
 50
129.91148172712261
 51
170.0885182728978
  0
ARC
  5
637B
  8
0
 10
112.5
 20
378.0
 30
0.0
 40
19.166000000030792
 50
189.9114817271614
 51
230.08851827285591
  0
ARC
  5
637C
  8
0
 10
112.5
 20
378.0
 30
0.0
 40
19.166000000030792
 50
249.91148172708949
 51
290.08851827291062
  0
ARC
  5
637D
  8
0
 10
112.5
 20
378.0
 30
0.0
 40
19.166000000030792
 50
309.91148172708893
 51
350.0885182729312
  0
ARC
  5
637E
  8
0
 10
112.5
 20
378.0
 30
0.0
 40
19.166000000030792
 50
9.9114817271646114
 51
50.088518272889978
  0
CIRCLE
  5
637F
  8
0
 10
80.5
 20
378.0
 30
0.0
 40
1.0
  0
CIRCLE
  5
6380
  8
0
 10
62.5
 20
378.0
 30
0.0
 40
1.0
  0
LINE
  5
6381
  8
3
 10
264.5627460668062
 20
88.0
 30
0.0
 11
280.4372539331938
 21
76.0
 31
0.0
  0
LINE
  5
6382
  8
3
 10
280.4372539331938
 20
88.0
 30
0.0
 11
264.5627460668062
 21
76.0
 31
0.0
  0
LINE
  5
6383
  8
3
 10
104.5627460668062
 20
88.0
 30
0.0
 11
120.4372539331938
 21
76.0
 31
0.0
  0
LINE
  5
6384
  8
3
 10
120.4372539331938
 20
88.0
 30
0.0
 11
104.5627460668062
 21
76.0
 31
0.0
  0
LINE
  5
6385
  8
0
 10
254.50000001465079
 20
131.42264973926879
 30
0.0
 11
254.50000001465079
 21
113.5773502607309
 31
0.0
  0
LINE
  5
6386
  8
0
 10
255.50000000000011
 20
132.0
 30
0.0
 11
254.50000001465079
 21
131.42264973926879
 31
0.0
  0
ARC
  5
6387
  8
0
 10
263.50000000732541
 20
105.4274592319567
 30
0.0
 40
25.995190507312159
 50
69.743841999652616
 51
110.2561580003474
  0
ARC
  5
6388
  8
0
 10
263.50000000732541
 20
139.57254076804301
 30
0.0
 40
25.995190507312159
 50
249.74384199965269
 51
290.2561580003474
  0
LINE
  5
6389
  8
0
 10
255.50000000000011
 20
113.0
 30
0.0
 11
254.50000001465079
 21
113.5773502607309
 31
0.0
  0
LINE
  5
638A
  8
0
 10
289.49999999999977
 20
113.0
 30
0.0
 11
290.49999998534912
 21
113.5773502607309
 31
0.0
  0
ARC
  5
638B
  8
0
 10
281.49999999267459
 20
139.57254076804301
 30
0.0
 40
25.995190507312159
 50
249.74384199965269
 51
290.2561580003474
  0
ARC
  5
638C
  8
0
 10
281.49999999267459
 20
105.4274592319567
 30
0.0
 40
25.995190507312159
 50
69.743841999652616
 51
110.2561580003474
  0
LINE
  5
638D
  8
0
 10
289.49999999999977
 20
132.0
 30
0.0
 11
290.49999998534912
 21
131.42264973926879
 31
0.0
  0
LINE
  5
638E
  8
0
 10
255.50000000000011
 20
132.0
 30
0.0
 11
289.49999999999989
 21
132.0
 31
0.0
  0
LINE
  5
638F
  8
0
 10
290.49999998534912
 20
131.42264973926879
 30
0.0
 11
290.49999998534912
 21
113.5773502607309
 31
0.0
  0
LINE
  5
6390
  8
0
 10
255.50000000000011
 20
113.0
 30
0.0
 11
289.49999999999989
 21
113.0
 31
0.0
  0
LINE
  5
6391
  8
0
 10
272.5
 20
129.81495458599659
 30
0.0
 11
272.5
 21
115.1850454140032
 31
0.0
  0
CIRCLE
  5
6392
  8
0
 10
112.5
 20
378.0
 30
0.0
 40
17.0
  0
LINE
  5
6393
  8
0
 10
102.10769516303981
 20
395.99999998534901
 30
0.0
 11
122.8923048538649
 21
395.99999998534901
 31
0.0
  0
LINE
  5
6394
  8
0
 10
122.89230483695739
 20
395.9999999853344
 30
0.0
 11
133.28460968237371
 21
377.99999998534889
 31
0.0
  0
LINE
  5
6395
  8
0
 10
133.2846096739008
 20
378.00000000000267
 30
0.0
 11
122.8923048284919
 21
360.00000000000267
 31
0.0
  0
LINE
  5
6396
  8
0
 10
122.89230483694649
 20
360.00000001465651
 30
0.0
 11
102.1076951461213
 21
360.00000001465651
 31
0.0
  0
LINE
  5
6397
  8
0
 10
102.1076951630416
 20
360.00000001465651
 30
0.0
 11
91.715390317625406
 21
378.00000001465651
 31
0.0
  0
LINE
  5
6398
  8
0
 10
91.715390326098259
 20
378.00000000000267
 30
0.0
 11
102.1076951715072
 21
396.00000000000267
 31
0.0
  0
LINE
  5
6399
  8
0
 10
133.28460967389921
 20
129.81495458599699
 30
0.0
 11
133.28460967389921
 21
115.18504541400409
 31
0.0
  0
LINE
  5
639A
  8
0
 10
129.5
 20
132.0
 30
0.0
 11
133.28460967389921
 21
129.81495458599699
 31
0.0
  0
ARC
  5
639B
  8
0
 10
128.0884572554242
 20
122.221687852416
 30
0.0
 40
9.2009618868538041
 50
64.384247467923601
 51
124.3842474679435
  0
ARC
  5
639C
  8
0
 10
128.0884572554242
 20
122.7783121475851
 30
0.0
 40
9.2009618868538041
 50
235.61575253205649
 51
295.61575253207639
  0
LINE
  5
639D
  8
0
 10
129.5
 20
113.0
 30
0.0
 11
133.28460967389921
 21
115.18504541400409
 31
0.0
  0
LINE
  5
639E
  8
0
 10
95.500000000000114
 20
113.0
 30
0.0
 11
91.715390326100874
 21
115.18504541400409
 31
0.0
  0
ARC
  5
639F
  8
0
 10
96.911542744575854
 20
122.7783121475851
 30
0.0
 40
9.2009618868538041
 50
244.38424746792359
 51
304.38424746794351
  0
ARC
  5
63A0
  8
0
 10
112.500000000002
 20
147.96965507824839
 30
0.0
 40
34.392304817516766
 50
252.41204622606369
 51
287.58795377393972
  0
ARC
  5
63A1
  8
0
 10
96.911542744575854
 20
122.221687852416
 30
0.0
 40
9.2009618868538041
 50
55.615752532056462
 51
115.6157525320764
  0
ARC
  5
63A2
  8
0
 10
112.500000000002
 20
97.030344921752771
 30
0.0
 40
34.392304817516766
 50
72.412046226060284
 51
107.5879537739397
  0
LINE
  5
63A3
  8
0
 10
122.8923048369532
 20
129.81495458599699
 30
0.0
 11
122.8923048369532
 21
115.18504541400409
 31
0.0
  0
LINE
  5
63A4
  8
0
 10
102.10769516305091
 20
129.81495458599699
 30
0.0
 11
102.10769516305091
 21
115.18504541400409
 31
0.0
  0
LINE
  5
63A5
  8
0
 10
95.500000000000114
 20
132.0
 30
0.0
 11
91.715390326100874
 21
129.81495458599699
 31
0.0
  0
LINE
  5
63A6
  8
0
 10
91.715390326100874
 20
129.81495458599699
 30
0.0
 11
91.715390326100874
 21
115.18504541400409
 31
0.0
  0
LINE
  5
63A7
  8
0
 10
95.5
 20
113.0
 30
0.0
 11
129.5
 21
113.0
 31
0.0
  0
LINE
  5
63A8
  8
0
 10
95.500000000000227
 20
132.0
 30
0.0
 11
129.5
 21
132.0
 31
0.0
  0
ENDSEC
  0
EOF
