  0
SECTION
  2
HEADER
  9
$ACADVER
  1
AC1009
  9
$INSBASE
 10
0.0
 20
0.0
 30
0.0
  9
$EXTMIN
 10
0.0
 20
-2.960436562073669
 30
0.0
  9
$EXTMAX
 10
302.5
 20
366.0
 30
0.0
  9
$LIMMIN
 10
0.0
 20
0.0
  9
$LIMMAX
 10
375.0
 20
270.0
  9
$ORTHOMODE
 70
     1
  9
$REGENMODE
 70
     1
  9
$FILLMODE
 70
     1
  9
$QTEXTMODE
 70
     0
  9
$MIRRTEXT
 70
     0
  9
$DRAGMODE
 70
     2
  9
$LTSCALE
 40
5.0
  9
$OSMODE
 70
    37
  9
$ATTMODE
 70
     1
  9
$TEXTSIZE
 40
0.2
  9
$TRACEWID
 40
0.05
  9
$TEXTSTYLE
  7
STANDARD
  9
$CLAYER
  8
0
  9
$CELTYPE
  6
BYLAYER
  9
$CECOLOR
 62
   256
  9
$DIMSCALE
 40
1.0
  9
$DIMASZ
 40
3.0
  9
$DIMEXO
 40
1.0
  9
$DIMDLI
 40
6.0
  9
$DIMRND
 40
0.0
  9
$DIMDLE
 40
0.0
  9
$DIMEXE
 40
1.0
  9
$DIMTP
 40
495.0
  9
$DIMTM
 40
0.0
  9
$DIMTXT
 40
3.0
  9
$DIMCEN
 40
0.0
  9
$DIMTSZ
 40
0.0
  9
$DIMTOL
 70
     0
  9
$DIMLIM
 70
     0
  9
$DIMTIH
 70
     0
  9
$DIMTOH
 70
     0
  9
$DIMSE1
 70
     0
  9
$DIMSE2
 70
     0
  9
$DIMTAD
 70
     1
  9
$DIMZIN
 70
     8
  9
$DIMBLK
  1

  9
$DIMASO
 70
     0
  9
$DIMSHO
 70
     0
  9
$DIMPOST
  1

  9
$DIMAPOST
  1

  9
$DIMALT
 70
     0
  9
$DIMALTD
 70
     2
  9
$DIMALTF
 40
25.399999999999999
  9
$DIMLFAC
 40
1.0
  9
$DIMTOFL
 70
     1
  9
$DIMTVP
 40
0.0
  9
$DIMTIX
 70
     1
  9
$DIMSOXD
 70
     0
  9
$DIMSAH
 70
     0
  9
$DIMBLK1
  1

  9
$DIMBLK2
  1

  9
$DIMSTYLE
  2
STANDARD
  9
$DIMCLRD
 70
     0
  9
$DIMCLRE
 70
     0
  9
$DIMCLRT
 70
     0
  9
$DIMTFAC
 40
1.0
  9
$DIMGAP
 40
1.0
  9
$LUNITS
 70
     2
  9
$LUPREC
 70
     1
  9
$SKETCHINC
 40
0.1
  9
$FILLETRAD
 40
2.0
  9
$AUNITS
 70
     0
  9
$AUPREC
 70
     1
  9
$MENU
  1
C:\R13\WIN\SUPPORT\ACAD-I
  9
$ELEVATION
 40
0.0
  9
$PELEVATION
 40
0.0
  9
$THICKNESS
 40
0.0
  9
$LIMCHECK
 70
     0
  9
$BLIPMODE
 70
     0
  9
$CHAMFERA
 40
0.0
  9
$CHAMFERB
 40
0.0
  9
$SKPOLY
 70
     0
  9
$TDCREATE
 40
2451962.4112634258
  9
$TDUPDATE
 40
2457893.419462211
  9
$TDINDWG
 40
0.2385409838
  9
$TDUSRTIMER
 40
2456555.1649083919
  9
$USRTIMER
 70
     1
  9
$ANGBASE
 50
0.0
  9
$ANGDIR
 70
     0
  9
$PDMODE
 70
     0
  9
$PDSIZE
 40
0.0
  9
$PLINEWID
 40
0.0
  9
$COORDS
 70
     1
  9
$SPLFRAME
 70
     0
  9
$SPLINETYPE
 70
     6
  9
$SPLINESEGS
 70
     8
  9
$ATTDIA
 70
     0
  9
$ATTREQ
 70
     1
  9
$HANDLING
 70
     1
  9
$HANDSEED
  5
514C
  9
$SURFTAB1
 70
     6
  9
$SURFTAB2
 70
     6
  9
$SURFTYPE
 70
     6
  9
$SURFU
 70
     6
  9
$SURFV
 70
     6
  9
$UCSNAME
  2

  9
$UCSORG
 10
0.0
 20
0.0
 30
0.0
  9
$UCSXDIR
 10
1.0
 20
0.0
 30
0.0
  9
$UCSYDIR
 10
0.0
 20
1.0
 30
0.0
  9
$PUCSNAME
  2

  9
$PUCSORG
 10
0.0
 20
0.0
 30
0.0
  9
$PUCSXDIR
 10
1.0
 20
0.0
 30
0.0
  9
$PUCSYDIR
 10
0.0
 20
1.0
 30
0.0
  9
$USERI1
 70
     4
  9
$USERI2
 70
     1
  9
$USERI3
 70
     0
  9
$USERI4
 70
     0
  9
$USERI5
 70
     0
  9
$USERR1
 40
1.0
  9
$USERR2
 40
3.0
  9
$USERR3
 40
3.0
  9
$USERR4
 40
3.0
  9
$USERR5
 40
10.0
  9
$WORLDVIEW
 70
     1
  9
$SHADEDGE
 70
     3
  9
$SHADEDIF
 70
    70
  9
$TILEMODE
 70
     1
  9
$MAXACTVP
 70
    16
  9
$PLIMCHECK
 70
     0
  9
$PEXTMIN
 10
1.0000000000000000E+020
 20
1.0000000000000000E+020
 30
1.0000000000000000E+020
  9
$PEXTMAX
 10
-1.0000000000000000E+020
 20
-1.0000000000000000E+020
 30
-1.0000000000000000E+020
  9
$PLIMMIN
 10
0.0
 20
0.0
  9
$PLIMMAX
 10
12.0
 20
9.0
  9
$UNITMODE
 70
     0
  9
$VISRETAIN
 70
     0
  9
$PLINEGEN
 70
     0
  9
$PSLTSCALE
 70
     0
  0
ENDSEC
  0
SECTION
  2
TABLES
  0
TABLE
  2
VPORT
 70
     1
  0
VPORT
  2
*ACTIVE
 70
     0
 10
0.0
 20
0.0
 11
1.0
 21
1.0
 12
454.05982905982899
 22
250.0
 13
0.0
 23
0.0
 14
10.0
 24
10.0
 15
10.0
 25
10.0
 16
0.0
 26
0.0
 36
1.0
 17
0.0
 27
0.0
 37
0.0
 40
500.0
 41
1.816239316239316
 42
50.0
 43
0.0
 44
0.0
 50
0.0
 51
0.0
 71
    16
 72
   100
 73
     1
 74
     0
 75
     0
 76
     0
 77
     0
 78
     0
  0
ENDTAB
  0
TABLE
  2
LTYPE
 70
     4
  0
LTYPE
  2
CONTINUOUS
 70
     0
  3
Solid Line
 72
    65
 73
     0
 40
0.0
  0
LTYPE
  2
PHANTOM2
 70
     0
  3
___ _ _ ___ _ _ ___ _ _ ___ _ _
 72
    65
 73
     6
 40
1.25
 49
0.625
 49
-0.125
 49
0.125
 49
-0.125
 49
0.125
 49
-0.125
  0
LTYPE
  2
CENTER
 70
     0
  3
____ _ ____ _ ____ _ ____ _ ____ _ ____ _ ____
 72
    65
 73
     4
 40
2.0
 49
1.25
 49
-0.25
 49
0.25
 49
-0.25
  0
LTYPE
  2
HIDDEN
 70
     0
  3
_ _ _ _ _ _ _ _ _ _ _ _ _ _ _ _ _ _ _ _ _ _ _
 72
    65
 73
     2
 40
0.375
 49
0.25
 49
-0.125
  0
ENDTAB
  0
TABLE
  2
LAYER
 70
     5
  0
LAYER
  2
0
 70
     0
 62
     7
  6
CONTINUOUS
  0
LAYER
  2
1
 70
     0
 62
     1
  6
CENTER
  0
LAYER
  2
3
 70
     0
 62
     3
  6
CONTINUOUS
  0
LAYER
  2
2
 70
     0
 62
     2
  6
HIDDEN
  0
LAYER
  2
DEFPOINTS
 70
     0
 62
     7
  6
CONTINUOUS
  0
ENDTAB
  0
TABLE
  2
STYLE
 70
     2
  0
STYLE
  2
STANDARD
 70
     0
 40
0.0
 41
1.0
 50
0.0
 71
     0
 42
0.2
  3
SIMPLEX
  4
BIGFONT
  0
STYLE
  2
STANDARD1
 70
     0
 40
0.0
 41
1.0
 50
0.0
 71
     0
 42
3.0
  3
txt
  4

  0
ENDTAB
  0
TABLE
  2
VIEW
 70
     0
  0
ENDTAB
  0
TABLE
  2
UCS
 70
     0
  0
ENDTAB
  0
TABLE
  2
APPID
 70
    32
  0
APPID
  2
ACAD
 70
     0
  0
APPID
  2
ACADANNOTATIVE
 70
     0
  0
APPID
  2
GENIUS_GENOREF_13
 70
     0
  0
APPID
  2
GENIUS_GENOENT_13
 70
     0
  0
APPID
  2
GENIUS_GENBH_13
 70
     0
  0
APPID
  2
GENIUS_GENOBJ_13
 70
     0
  0
APPID
  2
GENIUS_GENODEF_13
 70
     0
  0
APPID
  2
GENIUS_GENOLIS_13
 70
     0
  0
APPID
  2
GENIUS_GENOBJ-NBEHI-BHF_13
 70
     0
  0
APPID
  2
GENIUS_GENOBJ-NBEHI-BHB_13
 70
     0
  0
APPID
  2
GENIUS_GENOBJ-F-PART_13
 70
     0
  0
APPID
  2
GENIUS_GEFSTDP_13
 70
     0
  0
APPID
  2
GENIUS_GENOBJ-N-RSSYM_13
 70
     0
  0
APPID
  2
GENIUS_GENSYMENT_13
 70
     0
  0
APPID
  2
GENIUS_GENOBJ-N-TIT_13
 70
     0
  0
APPID
  2
GENIUS_GENTITLE_13
 70
     0
  0
APPID
  2
GENIUS_GENZVEED_13
 70
     0
  0
APPID
  2
GENIUS_GENOBJ-N-LEADER_13
 70
     0
  0
APPID
  2
GENIUS_GENOBJ-N-FIL_13
 70
     0
  0
APPID
  2
GENIUS_GENOBJ-N-SEC_13
 70
     0
  0
APPID
  2
GENIUS_GENOBJ-N-CRS_13
 70
     0
  0
APPID
  2
GENIUS_GENOBJ-N-ZOO_13
 70
     0
  0
APPID
  2
GENIUS_GENZOO_13
 70
     0
  0
APPID
  2
GENIUS_GENOBJ-F-TOL_13
 70
     0
  0
APPID
  2
GENIUS_GENFIL_13
 70
     0
  0
APPID
  2
GENIUS_GENOBJ-N-CHA_13
 70
     0
  0
APPID
  2
ACAD_EXEMPT_FROM_CAD_STANDARDS
 70
     0
  0
APPID
  2
ACAD_MLEADERVER
 70
     0
  0
APPID
  2
ACAD_NAV_VCDISPLAY
 70
     0
  0
APPID
  2
ACAD_DSTYLE_DIMJAG
 70
     0
  0
APPID
  2
ACAD_DSTYLE_DIMTALN
 70
     0
  0
APPID
  2
ACAD_DSTYLE_DIMRADIAL_EXTENSION
 70
     0
  0
ENDTAB
  0
TABLE
  2
DIMSTYLE
 70
     1
  0
DIMSTYLE
  2
STANDARD
 70
     0
  3

  4

  5

  6

  7

 40
1.0
 41
0.18
 42
0.0625
 43
0.38
 44
0.18
 45
0.0
 46
0.0
 47
0.0
 48
0.0
140
0.18
141
0.09
142
0.0
143
25.399999999999999
144
1.0
145
0.0
146
1.0
147
0.09
 71
     0
 72
     0
 73
     1
 74
     1
 75
     0
 76
     0
 77
     0
 78
     0
170
     0
171
     2
172
     0
173
     0
174
     0
175
     0
176
     0
177
     0
178
     0
  0
ENDTAB
  0
ENDSEC
  0
SECTION
  2
BLOCKS
  0
BLOCK
  8
0
  2
$MODEL_SPACE
 70
     0
 10
0.0
 20
0.0
 30
0.0
  3
$MODEL_SPACE
  1

  0
ENDBLK
  5
439E
  8
0
  0
BLOCK
 67
     1
  8
0
  2
$PAPER_SPACE
 70
     0
 10
0.0
 20
0.0
 30
0.0
  3
$PAPER_SPACE
  1

  0
ENDBLK
  5
439A
 67
     1
  8
0
  0
ENDSEC
  0
SECTION
  2
ENTITIES
  0
TEXT
  5
441E
  8
0
 62
     3
 10
0.0
 20
0.0
 30
0.0
 40
10.0
  1
LQFDR60S16A-SUS
  7
STANDARD1
  0
LINE
  5
4582
  8
2
 10
66.75
 20
64.0
 30
0.0
 11
58.25
 21
64.0
 31
0.0
  0
LINE
  5
4583
  8
2
 10
58.25
 20
64.0
 30
0.0
 11
58.25
 21
52.0
 31
0.0
  0
LINE
  5
4584
  8
2
 10
66.75
 20
52.0
 30
0.0
 11
66.75
 21
64.0
 31
0.0
  0
LINE
  5
4585
  8
2
 10
84.749999999999986
 20
64.0
 30
0.0
 11
76.25
 21
64.0
 31
0.0
  0
LINE
  5
4586
  8
2
 10
76.25
 20
64.0
 30
0.0
 11
76.25
 21
52.0
 31
0.0
  0
LINE
  5
4587
  8
2
 10
84.749999999999986
 20
52.0
 30
0.0
 11
84.749999999999986
 21
64.0
 31
0.0
  0
LINE
  5
4591
  8
1
 10
112.5
 20
156.0
 30
0.0
 11
112.5
 21
45.0
 31
0.0
  0
LINE
  5
4593
  8
1
 10
62.500000000000057
 20
67.0
 30
0.0
 11
62.5
 21
49.0
 31
0.0
  0
LINE
  5
4594
  8
1
 10
80.5
 20
67.0
 30
0.0
 11
80.5
 21
49.0
 31
0.0
  0
LINE
  5
4597
  8
0
 10
117.7490350169668
 20
74.0
 30
0.0
 11
117.7490350169668
 21
76.0
 31
0.0
  0
LINE
  5
4598
  8
0
 10
107.2509649830331
 20
76.0
 30
0.0
 11
107.2509649830331
 21
74.0
 31
0.0
  0
ARC
  5
4599
  8
0
 10
112.5005038093235
 20
69.630999981416053
 30
0.0
 40
6.8289999999993816
 50
29.560165772322438
 51
39.774787798921253
  0
ARC
  5
459A
  8
0
 10
112.49949619067699
 20
69.630999981415641
 30
0.0
 40
6.8290000000001134
 50
140.22521220107899
 51
150.4398342276771
  0
LINE
  5
459B
  8
0
 10
107.2509649830331
 20
74.0
 30
0.0
 11
117.7490350169668
 21
74.0
 31
0.0
  0
LINE
  5
459C
  8
0
 10
106.5
 20
83.000000000000014
 30
0.0
 11
104.5
 21
83.000000000000014
 31
0.0
  0
LINE
  5
459D
  8
0
 10
106.5
 20
76.0
 30
0.0
 11
106.5
 21
83.000000000000014
 31
0.0
  0
LINE
  5
459E
  8
0
 10
107.2084973778708
 20
83.000000000000014
 30
0.0
 11
107.2084973778708
 21
76.0
 31
0.0
  0
LINE
  5
459F
  8
0
 10
117.7915026221292
 20
83.000000000000014
 30
0.0
 11
107.2084973778708
 21
83.000000000000014
 31
0.0
  0
LINE
  5
45A0
  8
0
 10
117.7915026221292
 20
76.0
 30
0.0
 11
117.7915026221292
 21
83.000000000000014
 31
0.0
  0
LINE
  5
45A1
  8
0
 10
106.5
 20
76.0
 30
0.0
 11
118.5
 21
76.0
 31
0.0
  0
LINE
  5
45A2
  8
0
 10
118.5
 20
83.0
 30
0.0
 11
118.5
 21
76.0
 31
0.0
  0
LINE
  5
45A3
  8
0
 10
120.5
 20
83.000000000000014
 30
0.0
 11
120.5
 21
108.0
 31
0.0
  0
LINE
  5
45A4
  8
0
 10
104.5
 20
149.773
 30
0.0
 11
104.4999999999999
 21
120.9999999999864
 31
0.0
  0
LINE
  5
45A5
  8
0
 10
120.5
 20
83.000000000000014
 30
0.0
 11
118.5
 21
83.0
 31
0.0
  0
LINE
  5
45A6
  8
0
 10
120.5
 20
149.773
 30
0.0
 11
104.5
 21
149.773
 31
0.0
  0
LINE
  5
45A7
  8
0
 10
119.273
 20
151.0
 30
0.0
 11
105.7269999999999
 21
151.0
 31
0.0
  0
LINE
  5
45A8
  8
0
 10
105.7269999999999
 20
151.0
 30
0.0
 11
104.5
 21
149.773
 31
0.0
  0
LINE
  5
45A9
  8
0
 10
120.5
 20
149.773
 30
0.0
 11
119.273
 21
151.0
 31
0.0
  0
LINE
  5
45AA
  8
3
 10
105.7269999999999
 20
151.0
 30
0.0
 11
105.727
 21
120.9999999999864
 31
0.0
  0
LINE
  5
45AB
  8
3
 10
104.5
 20
83.000000000000014
 30
0.0
 11
105.7269999999999
 21
85.0
 31
0.0
  0
LINE
  5
45AC
  8
0
 10
104.5
 20
85.0
 30
0.0
 11
120.5
 21
85.0
 31
0.0
  0
LINE
  5
45AD
  8
3
 10
119.273
 20
151.0
 30
0.0
 11
119.273
 21
120.9999999999864
 31
0.0
  0
LINE
  5
45AE
  8
3
 10
120.5
 20
83.000000000000014
 30
0.0
 11
119.273
 21
85.0
 31
0.0
  0
LINE
  5
45AF
  8
0
 10
56.926857210401863
 20
66.0
 30
0.0
 11
56.445000000000107
 21
65.687000000000083
 31
0.0
  0
LINE
  5
45B0
  8
0
 10
56.926857210401863
 20
66.0
 30
0.0
 11
89.426857210401863
 21
66.0
 31
0.0
  0
LINE
  5
45B1
  8
0
 10
55.5
 20
52.0
 30
0.0
 11
55.5
 21
50.0
 31
0.0
  0
ARC
  5
45B2
  8
0
 10
57.144887301612918
 20
63.805987834956667
 30
0.0
 40
2.0070000000000379
 50
110.4092352994638
 51
153.48426755346381
  0
ARC
  5
45B3
  8
0
 10
53.552884549995269
 20
65.597554738837715
 30
0.0
 40
2.0070000000000201
 50
290.4466493446115
 51
333.49886028277569
  0
LINE
  5
45B5
  8
0
 10
54.254000000000239
 20
63.717000000000141
 30
0.0
 11
51.754000000000019
 21
62.090000000000003
 31
0.0
  0
ARC
  5
45B6
  8
0
 10
52.432727692353183
 20
60.208689626979897
 30
0.0
 40
2.0000000000000311
 50
109.83812089024769
 51
177.26852440387651
  0
LINE
  5
45B7
  8
0
 10
50.435000000000002
 20
60.304000000000002
 30
0.0
 11
50.0
 21
52.0
 31
0.0
  0
LINE
  5
45B8
  8
0
 10
98.187999999999988
 20
73.0
 30
0.0
 11
94.467999999999961
 21
69.932999999999964
 31
0.0
  0
LINE
  5
45B9
  8
0
 10
130.53200000000001
 20
69.932999999999964
 30
0.0
 11
126.812
 21
73.0
 31
0.0
  0
LINE
  5
45BA
  8
0
 10
98.187999999999988
 20
73.0
 30
0.0
 11
126.812
 21
73.0
 31
0.0
  0
ARC
  5
45BB
  8
0
 10
129.8318966100874
 20
68.052068251256145
 30
0.0
 40
2.0069999999999428
 50
23.956611115624892
 51
69.584182493115193
  0
ARC
  5
45BC
  8
0
 10
95.168103389912631
 20
68.052068251256145
 30
0.0
 40
2.0069999999999411
 50
110.41581750688481
 51
156.0433888843751
  0
ARC
  5
45BE
  8
0
 10
133.49976902722571
 20
69.682683857133114
 30
0.0
 40
2.0070000000000232
 50
203.98010846715729
 51
249.56390492501311
  0
ARC
  5
45BF
  8
0
 10
91.500230972774261
 20
69.682683857133114
 30
0.0
 40
2.007000000000025
 50
290.43609507498678
 51
336.01989153284268
  0
LINE
  5
45C0
  8
0
 10
93.333999999969194
 20
68.86699999993067
 30
0.0
 11
131.66600000003081
 21
68.86699999993067
 31
0.0
  0
LINE
  5
45C3
  8
0
 10
92.200999999999908
 20
67.801999999999936
 30
0.0
 11
89.426857210401863
 21
66.0
 31
0.0
  0
LINE
  5
45C4
  8
0
 10
136.05499999999989
 20
65.687000000000083
 30
0.0
 11
132.79900000000009
 21
67.801999999999936
 31
0.0
  0
LINE
  5
45C7
  8
0
 10
55.348999999873932
 20
64.701999999747301
 30
0.0
 11
137.151000000126
 21
64.701999999747301
 31
0.0
  0
ARC
  5
45CB
  8
0
 10
135.35511269838699
 20
63.80598783495671
 30
0.0
 40
2.006999999999985
 50
26.515732446535718
 51
69.590764700536198
  0
ARC
  5
45CF
  8
0
 10
138.9471154500047
 20
65.597554738837715
 30
0.0
 40
2.0070000000000281
 50
206.50113971722459
 51
249.5533506553885
  0
LINE
  5
45D1
  8
0
 10
55.5
 20
50.0
 30
0.0
 11
138.5
 21
50.0
 31
0.0
  0
LINE
  5
45D2
  8
0
 10
138.5
 20
50.0
 30
0.0
 11
138.5
 21
52.0
 31
0.0
  0
LINE
  5
45D6
  8
0
 10
140.74600000000001
 20
62.090000000000003
 30
0.0
 11
138.24599999999981
 21
63.717000000000127
 31
0.0
  0
LINE
  5
45D9
  8
0
 10
50.434999999999938
 20
60.304000000000002
 30
0.0
 11
142.065
 21
60.304000000000002
 31
0.0
  0
ARC
  5
45DB
  8
0
 10
140.06727230764679
 20
60.208689626979918
 30
0.0
 40
2.0000000000000151
 50
2.7314755961230262
 51
70.161879109752221
  0
LINE
  5
45DC
  8
0
 10
50.0
 20
52.0
 30
0.0
 11
142.5
 21
52.0
 31
0.0
  0
LINE
  5
45DF
  8
0
 10
142.5
 20
52.0
 30
0.0
 11
142.065
 21
60.304000000000002
 31
0.0
  0
LINE
  5
4682
  8
1
 10
272.5
 20
156.0
 30
0.0
 11
272.5
 21
45.0
 31
0.0
  0
LINE
  5
4683
  8
0
 10
277.7490350169669
 20
74.0
 30
0.0
 11
277.7490350169669
 21
76.0
 31
0.0
  0
LINE
  5
4684
  8
0
 10
267.2509649830331
 20
76.0
 30
0.0
 11
267.2509649830331
 21
74.0
 31
0.0
  0
LINE
  5
4685
  8
0
 10
267.2509649830331
 20
74.0
 30
0.0
 11
277.7490350169669
 21
74.0
 31
0.0
  0
ARC
  5
4686
  8
0
 10
272.50050380932362
 20
69.630999981416053
 30
0.0
 40
6.8289999999993816
 50
29.560165772321071
 51
39.774787798922553
  0
ARC
  5
4687
  8
0
 10
272.49949619067712
 20
69.630999981415641
 30
0.0
 40
6.8290000000001134
 50
140.22521220108001
 51
150.43983422767829
  0
LINE
  5
4688
  8
0
 10
266.5
 20
83.000000000000014
 30
0.0
 11
264.5
 21
83.000000000000014
 31
0.0
  0
LINE
  5
4689
  8
0
 10
266.5
 20
76.0
 30
0.0
 11
266.5
 21
83.000000000000014
 31
0.0
  0
LINE
  5
468A
  8
0
 10
267.2084973778708
 20
83.0
 30
0.0
 11
267.2084973778708
 21
76.0
 31
0.0
  0
LINE
  5
468B
  8
0
 10
277.7915026221292
 20
83.000000000000014
 30
0.0
 11
267.2084973778708
 21
83.0
 31
0.0
  0
LINE
  5
468C
  8
0
 10
277.7915026221292
 20
76.0
 30
0.0
 11
277.7915026221292
 21
83.000000000000014
 31
0.0
  0
LINE
  5
468D
  8
0
 10
266.5
 20
76.0
 30
0.0
 11
278.5
 21
76.0
 31
0.0
  0
LINE
  5
468E
  8
0
 10
278.5
 20
83.000000000000014
 30
0.0
 11
278.5
 21
76.0
 31
0.0
  0
LINE
  5
468F
  8
0
 10
280.5
 20
83.000000000000014
 30
0.0
 11
280.50000000000011
 21
107.9999999999866
 31
0.0
  0
LINE
  5
4690
  8
0
 10
264.5
 20
149.773
 30
0.0
 11
264.5
 21
121.0000000000115
 31
0.0
  0
LINE
  5
4691
  8
0
 10
280.5
 20
83.000000000000014
 30
0.0
 11
278.5
 21
83.000000000000014
 31
0.0
  0
LINE
  5
4692
  8
0
 10
265.72699999999998
 20
151.0
 30
0.0
 11
264.5
 21
149.773
 31
0.0
  0
LINE
  5
4693
  8
0
 10
280.5
 20
149.773
 30
0.0
 11
279.27300000000002
 21
151.0
 31
0.0
  0
LINE
  5
4694
  8
0
 10
280.5
 20
149.773
 30
0.0
 11
264.5
 21
149.773
 31
0.0
  0
LINE
  5
4695
  8
0
 10
279.27300000000002
 20
151.0
 30
0.0
 11
265.72699999999998
 21
151.0
 31
0.0
  0
LINE
  5
4696
  8
3
 10
265.72699999999998
 20
151.0
 30
0.0
 11
265.72699999999998
 21
121.0000000000136
 31
0.0
  0
LINE
  5
4697
  8
3
 10
264.5
 20
83.000000000000014
 30
0.0
 11
265.72699999999998
 21
85.0
 31
0.0
  0
LINE
  5
4698
  8
0
 10
264.5
 20
85.0
 30
0.0
 11
280.5
 21
85.0
 31
0.0
  0
LINE
  5
4699
  8
3
 10
279.27300000000002
 20
151.0
 30
0.0
 11
279.27300000000002
 21
121.0000000000362
 31
0.0
  0
LINE
  5
469A
  8
3
 10
280.5
 20
83.000000000000014
 30
0.0
 11
279.27300000000002
 21
85.0
 31
0.0
  0
LINE
  5
469B
  8
0
 10
258.18799999999999
 20
73.0
 30
0.0
 11
254.46799999999999
 21
69.932999999999964
 31
0.0
  0
LINE
  5
469C
  8
0
 10
290.5320000000001
 20
69.932999999999964
 30
0.0
 11
286.81200000000001
 21
73.0
 31
0.0
  0
LINE
  5
469D
  8
0
 10
258.18799999999999
 20
73.0
 30
0.0
 11
286.81200000000001
 21
73.0
 31
0.0
  0
ARC
  5
469E
  8
0
 10
289.83189661008743
 20
68.052068251256145
 30
0.0
 40
2.0069999999999428
 50
23.956611115625961
 51
69.584182493118718
  0
ARC
  5
469F
  8
0
 10
255.1681033899126
 20
68.052068251256145
 30
0.0
 40
2.0069999999999411
 50
110.4158175068812
 51
156.0433888843736
  0
ARC
  5
46A1
  8
0
 10
293.4997690272258
 20
69.682683857133114
 30
0.0
 40
2.0070000000000232
 50
203.98010846715829
 51
249.56390492501311
  0
ARC
  5
46A2
  8
0
 10
251.5002309727742
 20
69.682683857133114
 30
0.0
 40
2.007000000000025
 50
290.43609507498689
 51
336.01989153284148
  0
LINE
  5
46A3
  8
0
 10
253.33399999996911
 20
68.86699999993067
 30
0.0
 11
291.66600000003092
 21
68.86699999993067
 31
0.0
  0
LINE
  5
46A4
  8
0
 10
252.20099999999991
 20
67.801999999999936
 30
0.0
 11
248.94500000000011
 21
65.687000000000083
 31
0.0
  0
LINE
  5
46A5
  8
0
 10
296.05499999999978
 20
65.687000000000083
 30
0.0
 11
292.79900000000009
 21
67.801999999999936
 31
0.0
  0
ARC
  5
46A7
  8
0
 10
295.35511269838707
 20
63.80598783495671
 30
0.0
 40
2.006999999999985
 50
26.515732446535711
 51
69.590764700536155
  0
ARC
  5
46A8
  8
0
 10
249.6448873016129
 20
63.80598783495671
 30
0.0
 40
2.0069999999999859
 50
110.4092352994638
 51
153.48426755346421
  0
ARC
  5
46AA
  8
0
 10
298.94711545000467
 20
65.597554738837715
 30
0.0
 40
2.0070000000000281
 50
206.50113971722419
 51
249.55335065538841
  0
ARC
  5
46AB
  8
0
 10
246.0528845499953
 20
65.597554738837715
 30
0.0
 40
2.0070000000000321
 50
290.44664934461161
 51
333.49886028277569
  0
LINE
  5
46AC
  8
0
 10
247.84899999987391
 20
64.701999999747301
 30
0.0
 11
297.15100000012598
 21
64.701999999747301
 31
0.0
  0
LINE
  5
46AD
  8
0
 10
298.5
 20
50.0
 30
0.0
 11
298.5
 21
52.0
 31
0.0
  0
LINE
  5
46AE
  8
0
 10
246.5
 20
52.0
 30
0.0
 11
246.5
 21
50.0
 31
0.0
  0
LINE
  5
46AF
  8
0
 10
246.5
 20
50.0
 30
0.0
 11
298.5
 21
50.0
 31
0.0
  0
LINE
  5
46B0
  8
0
 10
246.7540000000003
 20
63.717000000000127
 30
0.0
 11
244.25399999999999
 21
62.090000000000003
 31
0.0
  0
LINE
  5
46B1
  8
0
 10
300.74599999999998
 20
62.090000000000003
 30
0.0
 11
298.24599999999992
 21
63.717000000000127
 31
0.0
  0
ARC
  5
46B3
  8
0
 10
300.06727230764682
 20
60.208689626979918
 30
0.0
 40
2.0000000000000151
 50
2.7314755961230288
 51
70.161879109748739
  0
ARC
  5
46B4
  8
0
 10
244.93272769235321
 20
60.208689626979918
 30
0.0
 40
2.0000000000000151
 50
109.8381208902512
 51
177.26852440387691
  0
LINE
  5
46B6
  8
0
 10
242.93499999999989
 20
60.304000000000002
 30
0.0
 11
242.5
 21
52.0
 31
0.0
  0
LINE
  5
46B7
  8
0
 10
302.5
 20
52.0
 30
0.0
 11
302.06500000000011
 21
60.304000000000002
 31
0.0
  0
LINE
  5
46B8
  8
0
 10
242.93499999999989
 20
60.304000000000002
 30
0.0
 11
302.06500000000011
 21
60.304000000000002
 31
0.0
  0
LINE
  5
46B9
  8
0
 10
242.5
 20
52.0
 30
0.0
 11
302.5
 21
52.0
 31
0.0
  0
CIRCLE
  5
4790
  8
2
 10
62.5
 20
331.0
 30
0.0
 40
4.2499999999999947
  0
CIRCLE
  5
4791
  8
2
 10
80.5
 20
331.0
 30
0.0
 40
4.2499999999999947
  0
LINE
  5
4795
  8
1
 10
62.5
 20
338.25000000000011
 30
0.0
 11
62.5
 21
323.75000000000011
 31
0.0
  0
LINE
  5
4796
  8
1
 10
80.5
 20
338.25000000000011
 30
0.0
 11
80.5
 21
323.75000000000011
 31
0.0
  0
LINE
  5
4797
  8
1
 10
112.5000000000001
 20
366.0
 30
0.0
 11
112.5
 21
296.0
 31
0.0
  0
LINE
  5
4798
  8
1
 10
147.5
 20
331.0
 30
0.0
 11
45.0
 21
331.0
 31
0.0
  0
CIRCLE
  5
479A
  8
0
 10
112.5
 20
331.0
 30
0.0
 40
8.0
  0
CIRCLE
  5
479B
  8
3
 10
112.5
 20
331.0
 30
0.0
 40
6.7729999999999988
  0
LINE
  5
479C
  8
0
 10
67.117109940223713
 20
313.5041892099245
 30
0.0
 11
103.7288488583179
 21
302.31085732110898
 31
0.0
  0
LINE
  5
479D
  8
0
 10
67.117109940223827
 20
348.49581079007561
 30
0.0
 11
103.7288488583179
 21
359.68914267889107
 31
0.0
  0
ARC
  5
479E
  8
0
 10
67.5
 20
331.0
 30
0.0
 40
17.500000000000011
 50
91.253699150875306
 51
268.74630084912468
  0
ARC
  5
479F
  8
0
 10
112.5
 20
331.0
 30
0.0
 40
30.0
 50
252.9999999999981
 51
107.0000000000019
  0
LINE
  5
47A0
  8
0
 10
67.186397571236384
 20
313.93788176935021
 30
0.0
 11
103.8560305498723
 21
302.72684988995292
 31
0.0
  0
ARC
  5
47A1
  8
0
 10
67.5
 20
331.0
 30
0.0
 40
17.065000000000001
 50
91.052980199626376
 51
268.9470198003736
  0
LINE
  5
47A2
  8
0
 10
67.186397571236512
 20
348.0621182306499
 30
0.0
 11
103.8560305498723
 21
359.27315011004708
 31
0.0
  0
ARC
  5
47A3
  8
0
 10
112.5
 20
331.0
 30
0.0
 40
29.565000000000001
 50
252.9999999999981
 51
107.0000000000019
  0
LINE
  5
47AE
  8
0
 10
67.907832960282505
 20
343.14415387252529
 30
0.0
 11
105.292745106843
 21
354.57386853936538
 31
0.0
  0
LINE
  5
47AF
  8
0
 10
67.907832960282576
 20
318.85584612747482
 30
0.0
 11
105.2927451068429
 21
307.42613146063468
 31
0.0
  0
ARC
  5
47B0
  8
0
 10
67.5
 20
331.0
 30
0.0
 40
12.151000000126039
 50
88.076578317397846
 51
271.92342168259557
  0
ARC
  5
47B1
  8
0
 10
112.5
 20
331.0
 30
0.0
 40
24.651000000126061
 50
252.9999999999981
 51
107.0000000000019
  0
CIRCLE
  5
47BF
  8
0
 10
112.5
 20
331.0
 30
0.0
 40
19.166000000030792
  0
CIRCLE
  5
47C1
  8
0
 10
112.5
 20
331.0
 30
0.0
 40
14.311999999999999
  0
CIRCLE
  5
47C2
  8
0
 10
80.5
 20
331.0
 30
0.0
 40
1.0
  0
CIRCLE
  5
47C3
  8
0
 10
62.5
 20
331.0
 30
0.0
 40
1.0
  0
LINE
  5
4B8E
  8
0
 10
123.9999999998922
 20
108.0
 30
0.0
 11
101.0000000001078
 21
108.0
 31
0.0
  0
LINE
  5
4B8F
  8
0
 10
101.0
 20
120.9999999999864
 30
0.0
 11
123.9999999998922
 21
120.9999999999864
 31
0.0
  0
ARC
  5
4B90
  8
0
 10
122.89230484541351
 20
114.5773502697005
 30
0.0
 40
6.1339745957208196
 50
64.384247469848944
 51
124.3842474712113
  0
LINE
  5
4B91
  8
0
 10
126.3564064605728
 20
119.6395280955922
 30
0.0
 11
123.9999999998922
 21
120.9999999999864
 31
0.0
  0
LINE
  5
4B92
  8
0
 10
126.3564064605728
 20
109.3604719043942
 30
0.0
 11
123.9999999998922
 21
108.0
 31
0.0
  0
ARC
  5
4B93
  8
0
 10
122.89230484541351
 20
114.4226497302857
 30
0.0
 40
6.1339745957208196
 50
235.6157525287887
 51
295.61575253015098
  0
LINE
  5
4B94
  8
0
 10
126.3564064605509
 20
119.6395280955922
 30
0.0
 11
126.3564064605509
 21
109.3604719043814
 31
0.0
  0
LINE
  5
4B95
  8
0
 10
119.4282032302751
 20
119.6395280955922
 30
0.0
 11
119.4282032302751
 21
109.3604719043942
 31
0.0
  0
LINE
  5
4B96
  8
0
 10
105.5717967697246
 20
119.6395280955922
 30
0.0
 11
105.5717967697246
 21
109.3604719043942
 31
0.0
  0
LINE
  5
4B97
  8
0
 10
98.643593539448844
 20
119.6395280955922
 30
0.0
 11
98.643593539448844
 21
109.3604719043814
 31
0.0
  0
ARC
  5
4B98
  8
0
 10
112.5
 20
131.21687836270431
 30
0.0
 40
22.928203228139491
 50
252.41204622431439
 51
287.58795377568561
  0
ARC
  5
4B99
  8
0
 10
102.10769515458649
 20
114.4226497302857
 30
0.0
 40
6.1339745957208196
 50
244.3842474698489
 51
304.38424747121132
  0
LINE
  5
4B9A
  8
0
 10
98.643593539427016
 20
109.3604719043942
 30
0.0
 11
101.0000000001078
 21
108.0
 31
0.0
  0
LINE
  5
4B9B
  8
0
 10
98.643593539427016
 20
119.6395280955922
 30
0.0
 11
101.0000000001078
 21
120.9999999999864
 31
0.0
  0
ARC
  5
4B9C
  8
0
 10
102.10769515458649
 20
114.5773502697005
 30
0.0
 40
6.1339745957208196
 50
55.615752528788661
 51
115.615752530151
  0
ARC
  5
4B9D
  8
0
 10
112.5
 20
97.783121637281866
 30
0.0
 40
22.928203228139491
 50
72.412046224314381
 51
107.58795377568561
  0
LINE
  5
4B9E
  8
0
 10
284.0000000000332
 20
107.9999999999808
 30
0.0
 11
260.9999999999668
 21
108.0000000000192
 31
0.0
  0
LINE
  5
4B9F
  8
0
 10
260.9999999999668
 20
121.0000000000057
 30
0.0
 11
284.0000000000332
 21
121.000000000044
 31
0.0
  0
ARC
  5
4BA0
  8
0
 10
266.5000000000332
 20
103.38119784810731
 30
0.0
 40
17.330127017333279
 50
69.743841997639095
 51
110.25615800236091
  0
LINE
  5
4BA1
  8
0
 10
260.50000000001819
 20
120.7113248654406
 30
0.0
 11
261.0000000000332
 21
121.000000000044
 31
0.0
  0
LINE
  5
4BA2
  8
0
 10
260.50000000001819
 20
108.2886751345842
 30
0.0
 11
261.0000000000332
 21
107.9999999999808
 31
0.0
  0
ARC
  5
4BA3
  8
0
 10
266.5000000000332
 20
125.61880215191739
 30
0.0
 40
17.330127017333279
 50
249.74384199763909
 51
290.25615800236091
  0
LINE
  5
4BA4
  8
0
 10
260.50000000001819
 20
120.7113248654406
 30
0.0
 11
260.5000000000332
 21
108.2886751345755
 31
0.0
  0
LINE
  5
4BA5
  8
0
 10
272.5000000000332
 20
109.3604719044134
 30
0.0
 11
272.5000000000332
 21
119.6395280956114
 31
0.0
  0
LINE
  5
4BA6
  8
0
 10
284.5000000000482
 20
120.7113248654406
 30
0.0
 11
284.5000000000332
 21
108.2886751345755
 31
0.0
  0
ARC
  5
4BA7
  8
0
 10
278.5000000000332
 20
125.61880215191739
 30
0.0
 40
17.330127017333279
 50
249.74384199763909
 51
290.25615800236091
  0
LINE
  5
4BA8
  8
0
 10
284.5000000000482
 20
108.2886751345842
 30
0.0
 11
284.0000000000332
 21
107.9999999999808
 31
0.0
  0
LINE
  5
4BA9
  8
0
 10
284.5000000000482
 20
120.7113248654406
 30
0.0
 11
284.0000000000332
 21
121.000000000044
 31
0.0
  0
ARC
  5
4BAA
  8
0
 10
278.5000000000332
 20
103.38119784810731
 30
0.0
 40
17.330127017333279
 50
69.743841997639095
 51
110.25615800236091
  0
CIRCLE
  5
4C09
  8
0
 10
112.5
 20
331.0
 30
0.0
 40
11.5
  0
LINE
  5
4C0A
  8
0
 10
126.3564064605509
 20
331.0
 30
0.0
 11
119.4282032302756
 21
343.0
 31
0.0
  0
LINE
  5
4C0B
  8
0
 10
119.4282032302756
 20
319.00000000000011
 30
0.0
 11
126.3564064605509
 21
331.0
 31
0.0
  0
LINE
  5
4C0C
  8
0
 10
105.5717967697246
 20
319.00000000000011
 30
0.0
 11
119.4282032302756
 21
319.00000000000011
 31
0.0
  0
LINE
  5
4C0D
  8
0
 10
98.643593539449057
 20
331.0
 30
0.0
 11
105.5717967697246
 21
319.00000000000011
 31
0.0
  0
LINE
  5
4C0E
  8
0
 10
105.5717967697246
 20
343.0
 30
0.0
 11
98.643593539449057
 21
331.0
 31
0.0
  0
LINE
  5
4C0F
  8
0
 10
119.4282032302756
 20
343.0
 30
0.0
 11
105.5717967697246
 21
343.0
 31
0.0
  0
LINE
  5
4C10
  8
0
 10
120.5
 20
120.9999999999864
 30
0.0
 11
120.5
 21
149.773
 31
0.0
  0
LINE
  5
4C11
  8
3
 10
119.273
 20
108.0
 30
0.0
 11
119.273
 21
85.0
 31
0.0
  0
LINE
  5
4C12
  8
3
 10
105.7269999999999
 20
108.0
 30
0.0
 11
105.7269999999999
 21
85.0
 31
0.0
  0
LINE
  5
4C13
  8
0
 10
104.4999999999999
 20
108.0
 30
0.0
 11
104.5
 21
83.000000000000014
 31
0.0
  0
LINE
  5
4C14
  8
0
 10
280.50000000000011
 20
121.0000000000382
 30
0.0
 11
280.5
 21
149.773
 31
0.0
  0
LINE
  5
4C15
  8
3
 10
279.27300000000002
 20
107.9999999999887
 30
0.0
 11
279.27300000000002
 21
85.0
 31
0.0
  0
LINE
  5
4C16
  8
3
 10
265.72699999999998
 20
108.0000000000113
 30
0.0
 11
265.72699999999998
 21
85.0
 31
0.0
  0
LINE
  5
4C17
  8
0
 10
264.5
 20
108.0000000000133
 30
0.0
 11
264.5
 21
83.000000000000014
 31
0.0
  0
LINE
  5
4D68
  8
3
 10
107.2084973778708
 20
83.000000000000014
 30
0.0
 11
117.7915026221292
 21
76.0
 31
0.0
  0
LINE
  5
4D69
  8
3
 10
107.2084973778708
 20
76.0
 30
0.0
 11
117.7915026221292
 21
83.000000000000014
 31
0.0
  0
LINE
  5
4D6A
  8
3
 10
267.2084973778708
 20
83.0
 30
0.0
 11
277.7915026221292
 21
76.0
 31
0.0
  0
LINE
  5
4D6B
  8
3
 10
277.7915026221292
 20
83.000000000000014
 30
0.0
 11
267.2084973778708
 21
76.0
 31
0.0
  0
ENDSEC
  0
EOF
