  0
SECTION
  2
HEADER
  9
$ACADVER
  1
AC1009
  9
$INSBASE
 10
0.0
 20
0.0
 30
0.0
  9
$EXTMIN
 10
0.0
 20
-2.960436562073669
 30
0.0
  9
$EXTMAX
 10
355.47872340425528
 20
434.00000000000011
 30
0.0
  9
$LIMMIN
 10
0.0
 20
0.0
  9
$LIMMAX
 10
375.0
 20
270.0
  9
$ORTHOMODE
 70
     1
  9
$REGENMODE
 70
     1
  9
$FILLMODE
 70
     1
  9
$QTEXTMODE
 70
     0
  9
$MIRRTEXT
 70
     0
  9
$DRAGMODE
 70
     2
  9
$LTSCALE
 40
5.0
  9
$OSMODE
 70
    37
  9
$ATTMODE
 70
     1
  9
$TEXTSIZE
 40
0.2
  9
$TRACEWID
 40
0.05
  9
$TEXTSTYLE
  7
STANDARD
  9
$CLAYER
  8
0
  9
$CELTYPE
  6
BYLAYER
  9
$CECOLOR
 62
     4
  9
$DIMSCALE
 40
1.0
  9
$DIMASZ
 40
3.0
  9
$DIMEXO
 40
1.0
  9
$DIMDLI
 40
6.0
  9
$DIMRND
 40
0.0
  9
$DIMDLE
 40
0.0
  9
$DIMEXE
 40
1.0
  9
$DIMTP
 40
495.0
  9
$DIMTM
 40
0.0
  9
$DIMTXT
 40
3.0
  9
$DIMCEN
 40
0.0
  9
$DIMTSZ
 40
0.0
  9
$DIMTOL
 70
     0
  9
$DIMLIM
 70
     0
  9
$DIMTIH
 70
     0
  9
$DIMTOH
 70
     0
  9
$DIMSE1
 70
     0
  9
$DIMSE2
 70
     0
  9
$DIMTAD
 70
     1
  9
$DIMZIN
 70
     8
  9
$DIMBLK
  1

  9
$DIMASO
 70
     0
  9
$DIMSHO
 70
     0
  9
$DIMPOST
  1

  9
$DIMAPOST
  1

  9
$DIMALT
 70
     0
  9
$DIMALTD
 70
     2
  9
$DIMALTF
 40
25.399999999999999
  9
$DIMLFAC
 40
1.0
  9
$DIMTOFL
 70
     1
  9
$DIMTVP
 40
0.0
  9
$DIMTIX
 70
     1
  9
$DIMSOXD
 70
     0
  9
$DIMSAH
 70
     0
  9
$DIMBLK1
  1

  9
$DIMBLK2
  1

  9
$DIMSTYLE
  2
STANDARD
  9
$DIMCLRD
 70
     0
  9
$DIMCLRE
 70
     0
  9
$DIMCLRT
 70
     0
  9
$DIMTFAC
 40
1.0
  9
$DIMGAP
 40
1.0
  9
$LUNITS
 70
     2
  9
$LUPREC
 70
     1
  9
$SKETCHINC
 40
0.1
  9
$FILLETRAD
 40
2.0
  9
$AUNITS
 70
     0
  9
$AUPREC
 70
     1
  9
$MENU
  1
C:\R13\WIN\SUPPORT\ACAD-I
  9
$ELEVATION
 40
0.0
  9
$PELEVATION
 40
0.0
  9
$THICKNESS
 40
0.0
  9
$LIMCHECK
 70
     0
  9
$BLIPMODE
 70
     0
  9
$CHAMFERA
 40
0.0
  9
$CHAMFERB
 40
0.0
  9
$SKPOLY
 70
     0
  9
$TDCREATE
 40
2451962.4112634258
  9
$TDUPDATE
 40
2457893.4195693401
  9
$TDINDWG
 40
0.4922189699
  9
$TDUSRTIMER
 40
2456555.418586378
  9
$USRTIMER
 70
     1
  9
$ANGBASE
 50
0.0
  9
$ANGDIR
 70
     0
  9
$PDMODE
 70
     0
  9
$PDSIZE
 40
0.0
  9
$PLINEWID
 40
0.0
  9
$COORDS
 70
     1
  9
$SPLFRAME
 70
     0
  9
$SPLINETYPE
 70
     6
  9
$SPLINESEGS
 70
     8
  9
$ATTDIA
 70
     0
  9
$ATTREQ
 70
     1
  9
$HANDLING
 70
     1
  9
$HANDSEED
  5
7ABF
  9
$SURFTAB1
 70
     6
  9
$SURFTAB2
 70
     6
  9
$SURFTYPE
 70
     6
  9
$SURFU
 70
     6
  9
$SURFV
 70
     6
  9
$UCSNAME
  2

  9
$UCSORG
 10
0.0
 20
0.0
 30
0.0
  9
$UCSXDIR
 10
1.0
 20
0.0
 30
0.0
  9
$UCSYDIR
 10
0.0
 20
1.0
 30
0.0
  9
$PUCSNAME
  2

  9
$PUCSORG
 10
0.0
 20
0.0
 30
0.0
  9
$PUCSXDIR
 10
1.0
 20
0.0
 30
0.0
  9
$PUCSYDIR
 10
0.0
 20
1.0
 30
0.0
  9
$USERI1
 70
     4
  9
$USERI2
 70
     1
  9
$USERI3
 70
     0
  9
$USERI4
 70
     0
  9
$USERI5
 70
     0
  9
$USERR1
 40
1.0
  9
$USERR2
 40
3.0
  9
$USERR3
 40
3.0
  9
$USERR4
 40
3.0
  9
$USERR5
 40
10.0
  9
$WORLDVIEW
 70
     1
  9
$SHADEDGE
 70
     3
  9
$SHADEDIF
 70
    70
  9
$TILEMODE
 70
     1
  9
$MAXACTVP
 70
    16
  9
$PLIMCHECK
 70
     0
  9
$PEXTMIN
 10
1.0000000000000000E+020
 20
1.0000000000000000E+020
 30
1.0000000000000000E+020
  9
$PEXTMAX
 10
-1.0000000000000000E+020
 20
-1.0000000000000000E+020
 30
-1.0000000000000000E+020
  9
$PLIMMIN
 10
0.0
 20
0.0
  9
$PLIMMAX
 10
12.0
 20
9.0
  9
$UNITMODE
 70
     0
  9
$VISRETAIN
 70
     0
  9
$PLINEGEN
 70
     0
  9
$PSLTSCALE
 70
     0
  0
ENDSEC
  0
SECTION
  2
TABLES
  0
TABLE
  2
VPORT
 70
     1
  0
VPORT
  2
*ACTIVE
 70
     0
 10
0.0
 20
0.0
 11
1.0
 21
1.0
 12
454.05982905982899
 22
250.0
 13
0.0
 23
0.0
 14
10.0
 24
10.0
 15
10.0
 25
10.0
 16
0.0
 26
0.0
 36
1.0
 17
0.0
 27
0.0
 37
0.0
 40
500.0
 41
1.816239316239316
 42
50.0
 43
0.0
 44
0.0
 50
0.0
 51
0.0
 71
    16
 72
   100
 73
     1
 74
     0
 75
     0
 76
     1
 77
     0
 78
     0
  0
ENDTAB
  0
TABLE
  2
LTYPE
 70
     4
  0
LTYPE
  2
CONTINUOUS
 70
     0
  3
Solid Line
 72
    65
 73
     0
 40
0.0
  0
LTYPE
  2
PHANTOM2
 70
     0
  3
___ _ _ ___ _ _ ___ _ _ ___ _ _
 72
    65
 73
     6
 40
1.25
 49
0.625
 49
-0.125
 49
0.125
 49
-0.125
 49
0.125
 49
-0.125
  0
LTYPE
  2
CENTER
 70
     0
  3
____ _ ____ _ ____ _ ____ _ ____ _ ____ _ ____
 72
    65
 73
     4
 40
2.0
 49
1.25
 49
-0.25
 49
0.25
 49
-0.25
  0
LTYPE
  2
HIDDEN
 70
     0
  3
_ _ _ _ _ _ _ _ _ _ _ _ _ _ _ _ _ _ _ _ _ _ _
 72
    65
 73
     2
 40
0.375
 49
0.25
 49
-0.125
  0
ENDTAB
  0
TABLE
  2
LAYER
 70
     5
  0
LAYER
  2
0
 70
     0
 62
     7
  6
CONTINUOUS
  0
LAYER
  2
1
 70
     0
 62
     1
  6
CENTER
  0
LAYER
  2
3
 70
     0
 62
     3
  6
CONTINUOUS
  0
LAYER
  2
2
 70
     0
 62
     2
  6
HIDDEN
  0
LAYER
  2
DEFPOINTS
 70
     0
 62
     7
  6
CONTINUOUS
  0
ENDTAB
  0
TABLE
  2
STYLE
 70
     2
  0
STYLE
  2
STANDARD
 70
     0
 40
0.0
 41
1.0
 50
0.0
 71
     0
 42
0.2
  3
SIMPLEX
  4
BIGFONT
  0
STYLE
  2
STANDARD1
 70
     0
 40
0.0
 41
1.0
 50
0.0
 71
     0
 42
3.0
  3
txt
  4

  0
ENDTAB
  0
TABLE
  2
VIEW
 70
     0
  0
ENDTAB
  0
TABLE
  2
UCS
 70
     0
  0
ENDTAB
  0
TABLE
  2
APPID
 70
    32
  0
APPID
  2
ACAD
 70
     0
  0
APPID
  2
ACADANNOTATIVE
 70
     0
  0
APPID
  2
GENIUS_GENOREF_13
 70
     0
  0
APPID
  2
GENIUS_GENOENT_13
 70
     0
  0
APPID
  2
GENIUS_GENBH_13
 70
     0
  0
APPID
  2
GENIUS_GENOBJ_13
 70
     0
  0
APPID
  2
GENIUS_GENODEF_13
 70
     0
  0
APPID
  2
GENIUS_GENOLIS_13
 70
     0
  0
APPID
  2
GENIUS_GENOBJ-NBEHI-BHF_13
 70
     0
  0
APPID
  2
GENIUS_GENOBJ-NBEHI-BHB_13
 70
     0
  0
APPID
  2
GENIUS_GENOBJ-F-PART_13
 70
     0
  0
APPID
  2
GENIUS_GEFSTDP_13
 70
     0
  0
APPID
  2
GENIUS_GENOBJ-N-RSSYM_13
 70
     0
  0
APPID
  2
GENIUS_GENSYMENT_13
 70
     0
  0
APPID
  2
GENIUS_GENOBJ-N-TIT_13
 70
     0
  0
APPID
  2
GENIUS_GENTITLE_13
 70
     0
  0
APPID
  2
GENIUS_GENZVEED_13
 70
     0
  0
APPID
  2
GENIUS_GENOBJ-N-LEADER_13
 70
     0
  0
APPID
  2
GENIUS_GENOBJ-N-FIL_13
 70
     0
  0
APPID
  2
GENIUS_GENOBJ-N-SEC_13
 70
     0
  0
APPID
  2
GENIUS_GENOBJ-N-CRS_13
 70
     0
  0
APPID
  2
GENIUS_GENOBJ-N-ZOO_13
 70
     0
  0
APPID
  2
GENIUS_GENZOO_13
 70
     0
  0
APPID
  2
GENIUS_GENOBJ-F-TOL_13
 70
     0
  0
APPID
  2
GENIUS_GENFIL_13
 70
     0
  0
APPID
  2
GENIUS_GENOBJ-N-CHA_13
 70
     0
  0
APPID
  2
ACAD_EXEMPT_FROM_CAD_STANDARDS
 70
     0
  0
APPID
  2
ACAD_MLEADERVER
 70
     0
  0
APPID
  2
ACAD_NAV_VCDISPLAY
 70
     0
  0
APPID
  2
ACAD_DSTYLE_DIMJAG
 70
     0
  0
APPID
  2
ACAD_DSTYLE_DIMTALN
 70
     0
  0
APPID
  2
ACAD_DSTYLE_DIMRADIAL_EXTENSION
 70
     0
  0
ENDTAB
  0
TABLE
  2
DIMSTYLE
 70
     1
  0
DIMSTYLE
  2
STANDARD
 70
     0
  3

  4

  5

  6

  7

 40
1.0
 41
0.18
 42
0.0625
 43
0.38
 44
0.18
 45
0.0
 46
0.0
 47
0.0
 48
0.0
140
0.18
141
0.09
142
0.0
143
25.399999999999999
144
1.0
145
0.0
146
1.0
147
0.09
 71
     0
 72
     0
 73
     1
 74
     1
 75
     0
 76
     0
 77
     0
 78
     0
170
     0
171
     2
172
     0
173
     0
174
     0
175
     0
176
     0
177
     0
178
     0
  0
ENDTAB
  0
ENDSEC
  0
SECTION
  2
BLOCKS
  0
BLOCK
  8
0
  2
$MODEL_SPACE
 70
     0
 10
0.0
 20
0.0
 30
0.0
  3
$MODEL_SPACE
  1

  0
ENDBLK
  5
439E
  8
0
  0
BLOCK
 67
     1
  8
0
  2
$PAPER_SPACE
 70
     0
 10
0.0
 20
0.0
 30
0.0
  3
$PAPER_SPACE
  1

  0
ENDBLK
  5
439A
 67
     1
  8
0
  0
ENDSEC
  0
SECTION
  2
ENTITIES
  0
TEXT
  5
441E
  8
0
 62
     3
 10
0.0
 20
0.0
 30
0.0
 40
10.0
  1
LQFDR80S20A-SUS
  7
STANDARD1
  0
LINE
  5
730B
  8
1
 10
315.47872340425539
 20
203.99999999999989
 30
0.0
 11
315.47872340425539
 21
44.999999999999879
 31
0.0
  0
LINE
  5
730D
  8
0
 10
320.74417274270581
 20
74.999999999999886
 30
0.0
 11
320.74417274270581
 21
76.999999999999886
 31
0.0
  0
LINE
  5
730E
  8
0
 10
310.21327406580491
 20
76.999999999999886
 30
0.0
 11
310.21327406580491
 21
74.999999999999886
 31
0.0
  0
LINE
  5
730F
  8
0
 10
310.21327406580491
 20
74.999999999999886
 30
0.0
 11
320.74417274270581
 21
74.999999999999886
 31
0.0
  0
ARC
  5
7310
  8
0
 10
315.47905736609931
 20
70.650999991833601
 30
0.0
 40
6.8290000000007094
 50
29.367438111594101
 51
39.556801623380117
  0
ARC
  5
7311
  8
0
 10
315.4783894424109
 20
70.650999991834055
 30
0.0
 40
6.8289999999999704
 50
140.4431983766184
 51
150.63256188840961
  0
LINE
  5
7312
  8
0
 10
322.09310168191678
 20
88.999999999999886
 30
0.0
 11
308.86434512659389
 21
88.999999999999886
 31
0.0
  0
LINE
  5
7313
  8
0
 10
307.97872340425528
 20
88.999999999999886
 30
0.0
 11
305.47872340425528
 21
88.999999999999886
 31
0.0
  0
LINE
  5
7314
  8
0
 10
307.97872340425528
 20
76.999999999999886
 30
0.0
 11
307.97872340425528
 21
88.999999999999886
 31
0.0
  0
LINE
  5
7315
  8
0
 10
308.86434512659389
 20
88.999999999999886
 30
0.0
 11
308.86434512659389
 21
76.999999999999886
 31
0.0
  0
LINE
  5
7316
  8
0
 10
322.09310168191678
 20
76.999999999999886
 30
0.0
 11
322.09310168191678
 21
88.999999999999886
 31
0.0
  0
LINE
  5
7317
  8
0
 10
307.97872340425528
 20
76.999999999999886
 30
0.0
 11
322.97872340425528
 21
76.999999999999886
 31
0.0
  0
LINE
  5
7318
  8
0
 10
322.97872340425528
 20
88.999999999999886
 30
0.0
 11
322.97872340425528
 21
76.999999999999886
 31
0.0
  0
LINE
  5
7319
  8
0
 10
325.47872340425528
 20
88.999999999999886
 30
0.0
 11
325.47872340425528
 21
114.0
 31
0.0
  0
LINE
  5
731A
  8
0
 10
305.47872340425528
 20
197.46649999999991
 30
0.0
 11
305.47872340425528
 21
129.9999999999992
 31
0.0
  0
LINE
  5
731B
  8
0
 10
325.47872340425528
 20
88.999999999999886
 30
0.0
 11
322.97872340425528
 21
88.999999999999886
 31
0.0
  0
LINE
  5
731C
  8
0
 10
307.01222340425528
 20
198.99999999999989
 30
0.0
 11
305.47872340425528
 21
197.46649999999991
 31
0.0
  0
LINE
  5
731D
  8
0
 10
325.47872340425528
 20
197.46649999999991
 30
0.0
 11
323.94522340425527
 21
198.99999999999989
 31
0.0
  0
LINE
  5
731E
  8
0
 10
325.47872340425528
 20
197.46649999999991
 30
0.0
 11
305.47872340425528
 21
197.46649999999991
 31
0.0
  0
LINE
  5
731F
  8
0
 10
323.94522340425527
 20
198.99999999999989
 30
0.0
 11
307.01222340425528
 21
198.99999999999989
 31
0.0
  0
LINE
  5
7320
  8
3
 10
307.01222340425528
 20
198.99999999999989
 30
0.0
 11
307.01222340425528
 21
129.99999999999929
 31
0.0
  0
LINE
  5
7321
  8
3
 10
305.47872340425528
 20
88.999999999999886
 30
0.0
 11
307.01222340425528
 21
90.999999999999886
 31
0.0
  0
LINE
  5
7322
  8
0
 10
305.47872340425528
 20
90.999999999999886
 30
0.0
 11
325.47872340425528
 21
90.999999999999886
 31
0.0
  0
LINE
  5
7323
  8
3
 10
323.94522340425527
 20
198.99999999999989
 30
0.0
 11
323.94522340425527
 21
129.99999999999929
 31
0.0
  0
LINE
  5
7324
  8
3
 10
325.47872340425528
 20
88.999999999999886
 30
0.0
 11
323.94522340425527
 21
90.999999999999886
 31
0.0
  0
ARC
  5
7325
  8
0
 10
330.95618245828223
 20
71.435000411927376
 30
0.0
 40
2.5839999999995351
 50
69.604003289079145
 51
83.047526200487312
  0
ARC
  5
7326
  8
0
 10
300.00126435022838
 20
71.435000411927376
 30
0.0
 40
2.5839999999995351
 50
96.952473799512674
 51
110.3959967109203
  0
LINE
  5
7327
  8
0
 10
299.68848149714142
 20
73.999999999999886
 30
0.0
 11
331.2689653113693
 21
73.999999999999886
 31
0.0
  0
LINE
  5
7328
  8
0
 10
299.10072340425529
 20
73.856999999999843
 30
0.0
 11
295.62437257112299
 21
72.561869295481301
 31
0.0
  0
LINE
  5
7329
  8
0
 10
335.33307423738768
 20
72.561869295481301
 30
0.0
 11
331.85672340425538
 21
73.856999999999843
 31
0.0
  0
ARC
  5
732B
  8
0
 10
334.63240314617531
 20
70.681148948928239
 30
0.0
 40
2.0069999999999601
 50
25.90602552754072
 51
69.56688855554637
  0
ARC
  5
732C
  8
0
 10
296.32504366233542
 20
70.681148948928239
 30
0.0
 40
2.006999999999953
 50
110.4331114444536
 51
154.09397447245931
  0
ARC
  5
732E
  8
0
 10
338.24363595837661
 20
72.433630542447645
 30
0.0
 40
2.007000000000021
 50
205.8672963722847
 51
249.58247883989699
  0
ARC
  5
732F
  8
0
 10
292.71381085013411
 20
72.433630542447645
 30
0.0
 40
2.0070000000000201
 50
290.41752116010292
 51
334.13270362771522
  0
LINE
  5
7330
  8
0
 10
294.5197234042883
 20
71.55800000006775
 30
0.0
 11
336.43772340422242
 21
71.55800000006775
 31
0.0
  0
LINE
  5
7331
  8
0
 10
293.41397016803529
 20
70.552719611659995
 30
0.0
 11
289.7397234042553
 21
69.184999999999832
 31
0.0
  0
LINE
  5
7332
  8
0
 10
341.21772340425542
 20
69.184999999999832
 30
0.0
 11
337.54347664047532
 21
70.552719611659995
 31
0.0
  0
ARC
  5
7334
  8
0
 10
340.51642170886367
 20
67.304514708368856
 30
0.0
 40
2.0069999999999961
 50
23.942664941349779
 51
69.54767612147252
  0
ARC
  5
7335
  8
0
 10
290.44102509964688
 20
67.304514708368856
 30
0.0
 40
2.0069999999999948
 50
110.45232387852499
 51
156.05733505865021
  0
ARC
  5
7337
  8
0
 10
344.18429391336281
 20
68.935130006880627
 30
0.0
 40
2.0069999999999859
 50
203.9940490894206
 51
249.6004139230599
  0
ARC
  5
7338
  8
0
 10
286.77315289514792
 20
68.935130006880627
 30
0.0
 40
2.006999999999985
 50
290.39958607694012
 51
336.00595091057937
  0
LINE
  5
7339
  8
0
 10
288.60672340422337
 20
68.118999999927951
 30
0.0
 11
342.35072340428718
 21
68.118999999927951
 31
0.0
  0
LINE
  5
733A
  8
0
 10
287.47272340425519
 20
67.05399999999986
 30
0.0
 11
283.64016861606649
 21
65.626165865501093
 31
0.0
  0
LINE
  5
733B
  8
0
 10
347.31727819244418
 20
65.626165865501093
 30
0.0
 11
343.48472340425542
 21
67.05399999999986
 31
0.0
  0
ARC
  5
733D
  8
0
 10
346.61660799099832
 20
63.745445187461542
 30
0.0
 40
2.0069999999999579
 50
26.501142073273339
 51
69.566915662102687
  0
ARC
  5
733E
  8
0
 10
284.34083881751241
 20
63.745445187461542
 30
0.0
 40
2.0069999999999539
 50
110.4330843378973
 51
153.4988579267266
  0
ARC
  5
7340
  8
0
 10
350.20861062134998
 20
65.537012334444171
 30
0.0
 40
2.007000000000053
 50
206.51573784607729
 51
249.5702064840219
  0
ARC
  5
7341
  8
0
 10
280.74883618716058
 20
65.537012334444171
 30
0.0
 40
2.007000000000053
 50
290.42979351597558
 51
333.48426215392271
  0
LINE
  5
7342
  8
0
 10
282.54472340445977
 20
64.64100000040969
 30
0.0
 11
348.41272340405101
 21
64.64100000040969
 31
0.0
  0
LINE
  5
7343
  8
0
 10
351.47872340425528
 20
49.999999999999893
 30
0.0
 11
351.47872340425528
 21
51.999999999999879
 31
0.0
  0
LINE
  5
7344
  8
0
 10
279.47872340425528
 20
51.999999999999879
 30
0.0
 11
279.47872340425528
 21
49.999999999999893
 31
0.0
  0
LINE
  5
7345
  8
0
 10
279.47872340425528
 20
49.999999999999893
 30
0.0
 11
351.47872340425528
 21
49.999999999999893
 31
0.0
  0
LINE
  5
7346
  8
0
 10
281.44939836698438
 20
63.656251416038913
 30
0.0
 11
277.21741917339301
 21
62.079886677419147
 31
0.0
  0
LINE
  5
7347
  8
0
 10
353.74002763511771
 20
62.079886677419147
 30
0.0
 11
349.50804844152628
 21
63.656251416038913
 31
0.0
  0
ARC
  5
7349
  8
0
 10
353.03946533281089
 20
60.199125804637447
 30
0.0
 40
2.006999999999985
 50
2.9986645112338781
 51
69.570202752685034
  0
ARC
  5
734A
  8
0
 10
277.91798147569972
 20
60.199125804637447
 30
0.0
 40
2.0069999999999841
 50
110.42979724731489
 51
177.0013354887661
  0
LINE
  5
734C
  8
0
 10
275.9137295516889
 20
60.30411735238669
 30
0.0
 11
275.47872340425528
 21
51.999999999999879
 31
0.0
  0
LINE
  5
734D
  8
0
 10
355.47872340425528
 20
51.999999999999879
 30
0.0
 11
355.04371725682182
 21
60.30411735238669
 31
0.0
  0
LINE
  5
734E
  8
0
 10
275.9137295516889
 20
60.30411735238669
 30
0.0
 11
355.04371725682182
 21
60.30411735238669
 31
0.0
  0
LINE
  5
734F
  8
0
 10
275.47872340425528
 20
51.999999999999879
 30
0.0
 11
355.47872340425528
 21
51.999999999999879
 31
0.0
  0
LINE
  5
73CA
  8
2
 10
70.728723404255334
 20
64.0
 30
0.0
 11
60.228723404255327
 21
64.0
 31
0.0
  0
LINE
  5
73CB
  8
2
 10
60.228723404255327
 20
64.0
 30
0.0
 11
60.228723404255327
 21
52.0
 31
0.0
  0
LINE
  5
73CC
  8
2
 10
70.728723404255334
 20
52.0
 30
0.0
 11
70.728723404255334
 21
64.0
 31
0.0
  0
LINE
  5
73CD
  8
2
 10
95.728723404255334
 20
64.0
 30
0.0
 11
85.228723404255334
 21
64.0
 31
0.0
  0
LINE
  5
73CE
  8
2
 10
85.228723404255334
 20
64.0
 30
0.0
 11
85.228723404255334
 21
52.0
 31
0.0
  0
LINE
  5
73CF
  8
2
 10
95.728723404255334
 20
52.0
 30
0.0
 11
95.728723404255334
 21
64.0
 31
0.0
  0
LINE
  5
73D8
  8
1
 10
135.47872340425531
 20
204.00000000000011
 30
0.0
 11
135.47872340425531
 21
44.999999999999879
 31
0.0
  0
LINE
  5
73DA
  8
1
 10
65.478723404255334
 20
67.0
 30
0.0
 11
65.478723404255334
 21
49.0
 31
0.0
  0
LINE
  5
73DB
  8
1
 10
90.478723404255334
 20
67.0
 30
0.0
 11
90.478723404255334
 21
49.0
 31
0.0
  0
LINE
  5
73DF
  8
0
 10
140.74417274270581
 20
75.0
 30
0.0
 11
140.74417274270581
 21
77.0
 31
0.0
  0
LINE
  5
73E0
  8
0
 10
130.2132740658048
 20
77.0
 30
0.0
 11
130.2132740658048
 21
75.0
 31
0.0
  0
ARC
  5
73E1
  8
0
 10
135.4790573660992
 20
70.650999991833714
 30
0.0
 40
6.8290000000007094
 50
29.367438111590928
 51
39.556801623380622
  0
ARC
  5
73E2
  8
0
 10
135.47838944241079
 20
70.650999991834055
 30
0.0
 40
6.8289999999999704
 50
140.44319837661931
 51
150.63256188840899
  0
LINE
  5
73E3
  8
0
 10
130.2132740658048
 20
75.0
 30
0.0
 11
140.74417274270581
 21
75.0
 31
0.0
  0
LINE
  5
73E4
  8
0
 10
127.97872340425531
 20
89.0
 30
0.0
 11
125.47872340425531
 21
89.0
 31
0.0
  0
LINE
  5
73E5
  8
0
 10
127.97872340425531
 20
77.0
 30
0.0
 11
127.97872340425531
 21
89.0
 31
0.0
  0
LINE
  5
73E6
  8
0
 10
128.8643451265938
 20
89.0
 30
0.0
 11
128.8643451265938
 21
77.0
 31
0.0
  0
LINE
  5
73E7
  8
0
 10
142.09310168191681
 20
89.0
 30
0.0
 11
128.8643451265938
 21
89.0
 31
0.0
  0
LINE
  5
73E8
  8
0
 10
142.09310168191681
 20
77.0
 30
0.0
 11
142.09310168191681
 21
89.0
 31
0.0
  0
LINE
  5
73E9
  8
0
 10
127.97872340425531
 20
77.0
 30
0.0
 11
142.97872340425531
 21
77.0
 31
0.0
  0
LINE
  5
73EA
  8
0
 10
142.97872340425531
 20
89.0
 30
0.0
 11
142.97872340425531
 21
77.0
 31
0.0
  0
LINE
  5
73EB
  8
0
 10
145.47872340425531
 20
89.0
 30
0.0
 11
145.47872340425539
 21
114.0000000000001
 31
0.0
  0
LINE
  5
73EC
  8
0
 10
125.47872340425531
 20
197.4665
 30
0.0
 11
125.47872340425531
 21
130.00000000000011
 31
0.0
  0
LINE
  5
73ED
  8
0
 10
145.47872340425531
 20
89.0
 30
0.0
 11
142.97872340425531
 21
89.0
 31
0.0
  0
LINE
  5
73EE
  8
0
 10
145.47872340425531
 20
197.4665
 30
0.0
 11
125.47872340425531
 21
197.4665
 31
0.0
  0
LINE
  5
73EF
  8
0
 10
143.9452234042553
 20
199.0
 30
0.0
 11
127.01222340425529
 21
199.0
 31
0.0
  0
LINE
  5
73F0
  8
0
 10
127.01222340425529
 20
199.0
 30
0.0
 11
125.47872340425531
 21
197.4665
 31
0.0
  0
LINE
  5
73F1
  8
0
 10
145.47872340425531
 20
197.4665
 30
0.0
 11
143.9452234042553
 21
199.0
 31
0.0
  0
LINE
  5
73F2
  8
3
 10
127.01222340425529
 20
199.0
 30
0.0
 11
127.01222340425539
 21
130.0
 31
0.0
  0
LINE
  5
73F3
  8
3
 10
125.47872340425531
 20
89.0
 30
0.0
 11
127.01222340425529
 21
91.0
 31
0.0
  0
LINE
  5
73F4
  8
0
 10
125.47872340425531
 20
91.0
 30
0.0
 11
145.47872340425531
 21
91.0
 31
0.0
  0
LINE
  5
73F5
  8
3
 10
143.9452234042553
 20
199.0
 30
0.0
 11
143.9452234042553
 21
129.9999999999998
 31
0.0
  0
LINE
  5
73F6
  8
3
 10
145.47872340425531
 20
89.0
 30
0.0
 11
143.9452234042553
 21
91.0
 31
0.0
  0
LINE
  5
73F7
  8
0
 10
59.16488095238094
 20
66.0
 30
0.0
 11
58.161445211811149
 21
65.626165865501207
 31
0.0
  0
LINE
  5
73F8
  8
0
 10
59.16488095238094
 20
66.0
 30
0.0
 11
104.6436043566362
 21
65.999999999999886
 31
0.0
  0
LINE
  5
73F9
  8
0
 10
54.478723404255327
 20
52.0
 30
0.0
 11
54.478723404255327
 21
50.0
 31
0.0
  0
ARC
  5
73FA
  8
0
 10
58.862115413257243
 20
63.745445187461542
 30
0.0
 40
2.00700000000014
 50
110.4330843378973
 51
153.4988579267262
  0
ARC
  5
73FB
  8
0
 10
150.95618245828231
 20
71.43500041192749
 30
0.0
 40
2.5839999999995351
 50
69.604003289079145
 51
83.047526200487312
  0
ARC
  5
73FC
  8
0
 10
120.0012643502283
 20
71.43500041192749
 30
0.0
 40
2.5839999999995351
 50
96.952473799512674
 51
110.3959967109208
  0
LINE
  5
73FD
  8
0
 10
119.6884814971413
 20
74.0
 30
0.0
 11
151.2689653113693
 21
74.0
 31
0.0
  0
ARC
  5
73FE
  8
0
 10
55.270112782905407
 20
65.537012334444171
 30
0.0
 40
2.0069999999999109
 50
290.42979351597381
 51
333.48426215392999
  0
LINE
  5
7400
  8
0
 10
119.10072340425531
 20
73.856999999999971
 30
0.0
 11
115.6243725711229
 21
72.561869295481415
 31
0.0
  0
LINE
  5
7401
  8
0
 10
155.33307423738771
 20
72.561869295481415
 30
0.0
 11
151.85672340425529
 21
73.856999999999971
 31
0.0
  0
ARC
  5
7403
  8
0
 10
154.63240314617531
 20
70.681148948928353
 30
0.0
 40
2.0069999999999601
 50
25.906025527540439
 51
69.566888555543201
  0
ARC
  5
7404
  8
0
 10
116.3250436623353
 20
70.681148948928353
 30
0.0
 40
2.006999999999953
 50
110.4331114444568
 51
154.09397447245951
  0
LINE
  5
7406
  8
0
 10
55.970674962729099
 20
63.656251416039026
 30
0.0
 11
51.738695769137678
 21
62.07988667741926
 31
0.0
  0
ARC
  5
7407
  8
0
 10
158.2436359583765
 20
72.433630542447759
 30
0.0
 40
2.007000000000021
 50
205.8672963722847
 51
249.5824788398927
  0
ARC
  5
7408
  8
0
 10
112.7138108501341
 20
72.433630542447759
 30
0.0
 40
2.0070000000000201
 50
290.4175211601073
 51
334.13270362771522
  0
LINE
  5
7409
  8
0
 10
114.5197234042882
 20
71.558000000067864
 30
0.0
 11
156.43772340422231
 21
71.558000000067864
 31
0.0
  0
ARC
  5
740A
  8
0
 10
52.439258071444442
 20
60.199125804637561
 30
0.0
 40
2.0069999999999841
 50
110.42979724731489
 51
177.0013354887661
  0
LINE
  5
740B
  8
0
 10
50.435006147433569
 20
60.304117352386811
 30
0.0
 11
50.0
 21
52.0
 31
0.0
  0
LINE
  5
740C
  8
0
 10
113.41397016803531
 20
70.552719611660109
 30
0.0
 11
109.7397234042553
 21
69.184999999999945
 31
0.0
  0
LINE
  5
740D
  8
0
 10
161.21772340425531
 20
69.184999999999945
 30
0.0
 11
157.54347664047529
 21
70.552719611660109
 31
0.0
  0
ARC
  5
740F
  8
0
 10
160.5164217088637
 20
67.304514708368856
 30
0.0
 40
2.0069999999999961
 50
23.942664941349779
 51
69.547676121476329
  0
ARC
  5
7410
  8
0
 10
110.44102509964689
 20
67.304514708368856
 30
0.0
 40
2.0069999999999948
 50
110.4523238785236
 51
156.05733505865021
  0
ARC
  5
7412
  8
0
 10
164.18429391336281
 20
68.93513000688074
 30
0.0
 40
2.0069999999999859
 50
203.9940490894206
 51
249.60041392306309
  0
ARC
  5
7413
  8
0
 10
106.7731528951478
 20
68.93513000688074
 30
0.0
 40
2.006999999999985
 50
290.39958607693688
 51
336.00595091057937
  0
LINE
  5
7414
  8
0
 10
108.6067234042233
 20
68.118999999928064
 30
0.0
 11
162.35072340428729
 21
68.118999999928064
 31
0.0
  0
LINE
  5
7418
  8
0
 10
107.47272340425531
 20
67.053999999999974
 30
0.0
 11
104.6436043566362
 21
66.0
 31
0.0
  0
LINE
  5
7419
  8
0
 10
167.31727819244421
 20
65.626165865501207
 30
0.0
 11
163.48472340425531
 21
67.053999999999974
 31
0.0
  0
ARC
  5
741F
  8
0
 10
166.6166079909982
 20
63.745445187461662
 30
0.0
 40
2.0069999999999579
 50
26.50114207327378
 51
69.56691566210452
  0
LINE
  5
7420
  8
0
 10
57.066000000204497
 20
64.641000000409804
 30
0.0
 11
168.41272340405089
 21
64.641000000409804
 31
0.0
  0
ARC
  5
7422
  8
0
 10
170.20861062135
 20
65.537012334444285
 30
0.0
 40
2.007000000000053
 50
206.51573784607689
 51
249.57020648402619
  0
LINE
  5
7424
  8
0
 10
54.478723404255327
 20
50.0
 30
0.0
 11
171.47872340425531
 21
50.0
 31
0.0
  0
LINE
  5
7426
  8
0
 10
171.47872340425531
 20
50.0
 30
0.0
 11
171.47872340425531
 21
52.0
 31
0.0
  0
LINE
  5
742C
  8
0
 10
173.7400276351176
 20
62.07988667741926
 30
0.0
 11
169.50804844152631
 21
63.656251416039026
 31
0.0
  0
ARC
  5
742F
  8
0
 10
173.03946533281089
 20
60.199125804637561
 30
0.0
 40
2.006999999999985
 50
2.9986645112338781
 51
69.570202752685034
  0
LINE
  5
7430
  8
0
 10
50.0
 20
52.0
 30
0.0
 11
175.47872340425531
 21
52.0
 31
0.0
  0
LINE
  5
7431
  8
0
 10
50.435006147433569
 20
60.304117352386811
 30
0.0
 11
175.04371725682179
 21
60.304117352386811
 31
0.0
  0
LINE
  5
7433
  8
0
 10
175.47872340425531
 20
52.0
 30
0.0
 11
175.04371725682179
 21
60.304117352386811
 31
0.0
  0
CIRCLE
  5
7488
  8
2
 10
65.478723404255334
 20
389.00000000000011
 30
0.0
 40
5.2499999999999911
  0
CIRCLE
  5
7489
  8
2
 10
90.478723404255334
 20
389.00000000000011
 30
0.0
 40
5.2500000000000044
  0
LINE
  5
748D
  8
1
 10
65.478723404255334
 20
397.25000000000011
 30
0.0
 11
65.478723404255334
 21
380.75
 31
0.0
  0
LINE
  5
748E
  8
1
 10
90.478723404255334
 20
397.25000000000011
 30
0.0
 11
90.478723404255334
 21
380.75
 31
0.0
  0
LINE
  5
748F
  8
1
 10
180.47872340425531
 20
389.00000000000011
 30
0.0
 11
45.0
 21
389.00000000000011
 31
0.0
  0
LINE
  5
7490
  8
1
 10
135.47872340425531
 20
434.00000000000011
 30
0.0
 11
135.47872340425531
 21
344.0
 31
0.0
  0
CIRCLE
  5
7492
  8
0
 10
135.47872340425531
 20
389.00000000000011
 30
0.0
 40
10.0
  0
CIRCLE
  5
7493
  8
3
 10
135.47872340425531
 20
389.00000000000011
 30
0.0
 40
8.4664999999999981
  0
ARC
  5
7494
  8
0
 10
135.47872340425531
 20
389.00000000000011
 30
0.0
 40
40.0
 50
252.99999999999639
 51
106.9999999999965
  0
LINE
  5
7495
  8
0
 10
73.780796269840323
 20
411.96472095209452
 30
0.0
 11
123.7838552153458
 21
427.25219023852122
 31
0.0
  0
LINE
  5
7496
  8
0
 10
73.780796269840152
 20
366.03527904790559
 30
0.0
 11
123.7838552153458
 21
350.74780976147849
 31
0.0
  0
ARC
  5
7497
  8
0
 10
72.978723404255334
 20
389.00000000000011
 30
0.0
 40
22.978723404255341
 50
87.999683181801998
 51
272.00031681819149
  0
LINE
  5
7498
  8
0
 10
73.838022278403912
 20
411.52733435629722
 30
0.0
 11
123.91103870423581
 21
426.83619179085741
 31
0.0
  0
ARC
  5
7499
  8
0
 10
135.47872340425531
 20
389.00000000000011
 30
0.0
 40
39.564993852566452
 50
252.99999999999639
 51
107.0000000000035
  0
LINE
  5
749A
  8
0
 10
73.838022278403912
 20
366.47266564370261
 30
0.0
 11
123.91103870423581
 21
351.1638082091423
 31
0.0
  0
ARC
  5
749B
  8
0
 10
72.978723404255334
 20
389.00000000000011
 30
0.0
 40
22.543717256821761
 50
87.815527573492304
 51
272.18447242650763
  0
ARC
  5
74A6
  8
0
 10
135.47872340425531
 20
389.00000000000011
 30
0.0
 40
32.93399999979561
 50
252.99999999999639
 51
107.0000000000035
  0
LINE
  5
74A7
  8
0
 10
74.608806639356203
 20
404.82901117506941
 30
0.0
 11
125.84975368097651
 21
420.4949408326911
 31
0.0
  0
LINE
  5
74A8
  8
0
 10
74.608806639356203
 20
373.17098882493042
 30
0.0
 11
125.84975368097651
 21
357.50505916730867
 31
0.0
  0
ARC
  5
74A9
  8
0
 10
72.978723404255334
 20
389.00000000000011
 30
0.0
 40
15.91272340405094
 50
84.120364524662463
 51
275.87963547533752
  0
CIRCLE
  5
74B7
  8
0
 10
135.47872340425531
 20
389.00000000000011
 30
0.0
 40
26.872000000031949
  0
CIRCLE
  5
74BA
  8
0
 10
135.47872340425531
 20
389.00000000000011
 30
0.0
 40
20.958999999967059
  0
ARC
  5
74BD
  8
0
 10
135.47872340425531
 20
389.00000000000011
 30
0.0
 40
15.79024190711395
 50
311.79664866111102
 51
348.20335133888932
  0
CIRCLE
  5
74BE
  8
0
 10
65.478723404255334
 20
389.00000000000011
 30
0.0
 40
1.0
  0
CIRCLE
  5
74BF
  8
0
 10
90.478723404255334
 20
389.00000000000011
 30
0.0
 40
1.0
  0
LINE
  5
74C4
  8
3
 10
308.86434512659389
 20
88.999999999999886
 30
0.0
 11
322.09310168191678
 21
76.999999999999886
 31
0.0
  0
LINE
  5
74C5
  8
3
 10
322.09310168191678
 20
88.999999999999886
 30
0.0
 11
308.86434512659389
 21
76.999999999999886
 31
0.0
  0
LINE
  5
74D2
  8
3
 10
128.8643451265938
 20
89.0
 30
0.0
 11
142.09310168191681
 21
77.0
 31
0.0
  0
LINE
  5
74D3
  8
3
 10
142.09310168191681
 20
89.0
 30
0.0
 11
128.8643451265938
 21
77.0
 31
0.0
  0
LINE
  5
764D
  8
0
 10
315.47872340425459
 20
128.3715789032492
 30
0.0
 11
315.47872340425459
 21
115.6284210967451
 31
0.0
  0
LINE
  5
764E
  8
0
 10
329.97872340425459
 20
114.0
 30
0.0
 11
300.97872340425607
 21
114.0
 31
0.0
  0
LINE
  5
764F
  8
0
 10
300.97872340425607
 20
129.99999999999929
 30
0.0
 11
329.978723404253
 21
129.99999999999929
 31
0.0
  0
ARC
  5
7650
  8
0
 10
307.97872340425448
 20
108.0486660917354
 30
0.0
 40
21.662658773668529
 50
69.743841999596924
 51
110.256158000403
  0
LINE
  5
7651
  8
0
 10
300.97872340425607
 20
129.99999999999929
 30
0.0
 11
300.47872340425488
 21
129.71132486540381
 31
0.0
  0
LINE
  5
7652
  8
0
 10
300.97872340425607
 20
114.0
 30
0.0
 11
300.47872340425488
 21
114.28867513459539
 31
0.0
  0
ARC
  5
7653
  8
0
 10
307.97872340425448
 20
135.95133390826371
 30
0.0
 40
21.662658773668529
 50
249.7438419995969
 51
290.2561580003956
  0
LINE
  5
7654
  8
0
 10
300.47872340425459
 20
129.71132486540381
 30
0.0
 11
300.47872340425488
 21
114.28867513459539
 31
0.0
  0
LINE
  5
7655
  8
0
 10
330.47872340425448
 20
129.71132486540381
 30
0.0
 11
330.47872340425431
 21
114.28867513459539
 31
0.0
  0
ARC
  5
7656
  8
0
 10
322.97872340425448
 20
135.95133390826371
 30
0.0
 40
21.662658773668529
 50
249.7438419995969
 51
290.2561580003956
  0
LINE
  5
7657
  8
0
 10
329.978723404253
 20
114.0
 30
0.0
 11
330.47872340425431
 21
114.28867513459539
 31
0.0
  0
LINE
  5
7658
  8
0
 10
329.978723404253
 20
129.99999999999929
 30
0.0
 11
330.47872340425431
 21
129.71132486540381
 31
0.0
  0
ARC
  5
7659
  8
0
 10
322.97872340425448
 20
108.0486660917354
 30
0.0
 40
21.662658773668529
 50
69.743841999596924
 51
110.256158000403
  0
LINE
  5
765A
  8
0
 10
149.9787234042555
 20
114.0000000000001
 30
0.0
 11
120.97872340425511
 21
113.9999999999999
 31
0.0
  0
LINE
  5
765B
  8
0
 10
120.97872340425511
 20
130.00000000000011
 30
0.0
 11
149.97872340425579
 21
129.9999999999996
 31
0.0
  0
LINE
  5
765C
  8
0
 10
149.97872340425511
 20
130.00000000000011
 30
0.0
 11
152.7992314799437
 21
128.37157890324971
 31
0.0
  0
ARC
  5
765D
  8
0
 10
148.46910446102129
 20
122.04385662012881
 30
0.0
 40
7.6674682452751766
 50
64.384247470462171
 51
124.38424746800639
  0
ARC
  5
765E
  8
0
 10
148.46910446102129
 20
122.04385662012881
 30
0.0
 40
7.6674682452751766
 50
55.615752531993621
 51
55.615752531993621
  0
ARC
  5
765F
  8
0
 10
148.46910446102129
 20
121.95614337987109
 30
0.0
 40
7.6674682452751766
 50
304.38424746800638
 51
304.38424746800638
  0
ARC
  5
7660
  8
0
 10
148.46910446102129
 20
121.95614337987109
 30
0.0
 40
7.6674682452751766
 50
235.61575253199359
 51
295.61575252953782
  0
LINE
  5
7661
  8
0
 10
149.97872340425511
 20
113.9999999999999
 30
0.0
 11
152.7992314799437
 21
115.6284210967502
 31
0.0
  0
LINE
  5
7662
  8
0
 10
152.7992314799435
 20
128.37157890324971
 30
0.0
 11
152.79923148022721
 21
115.6284210969139
 31
0.0
  0
LINE
  5
7663
  8
0
 10
144.1389774420993
 20
115.62842109677359
 30
0.0
 11
144.13897744194529
 21
128.37157890324971
 31
0.0
  0
ARC
  5
7664
  8
0
 10
135.47872340432849
 20
142.9489291719884
 30
0.0
 40
28.660254037392811
 50
252.41204622556469
 51
287.5879537741273
  0
LINE
  5
7665
  8
0
 10
126.81846936641089
 20
115.62842109677359
 30
0.0
 11
126.8184693665648
 21
128.37157890324971
 31
0.0
  0
LINE
  5
7666
  8
0
 10
118.1582153285667
 20
128.37157890324971
 30
0.0
 11
118.15821532828291
 21
115.6284210969139
 31
0.0
  0
LINE
  5
7667
  8
0
 10
120.97872340425511
 20
113.9999999999999
 30
0.0
 11
118.1582153285665
 21
115.6284210967502
 31
0.0
  0
ARC
  5
7668
  8
0
 10
122.4883423474889
 20
121.95614337987109
 30
0.0
 40
7.6674682452751766
 50
244.3842474704621
 51
304.38424746800638
  0
ARC
  5
7669
  8
0
 10
122.4883423474889
 20
121.95614337987109
 30
0.0
 40
7.6674682452751766
 50
235.61575253199359
 51
235.61575253199359
  0
ARC
  5
766A
  8
0
 10
135.47872340432849
 20
101.05107082801131
 30
0.0
 40
28.660254037392811
 50
72.412046225872729
 51
107.58795377443521
  0
ARC
  5
766B
  8
0
 10
122.4883423474889
 20
122.04385662012881
 30
0.0
 40
7.6674682452751766
 50
124.38424746800639
 51
124.38424746800639
  0
ARC
  5
766C
  8
0
 10
122.4883423474889
 20
122.04385662012881
 30
0.0
 40
7.6674682452751766
 50
55.615752531993621
 51
115.6157525295378
  0
LINE
  5
766D
  8
0
 10
120.97872340425511
 20
130.00000000000011
 30
0.0
 11
118.1582153285665
 21
128.37157890324971
 31
0.0
  0
CIRCLE
  5
766E
  8
0
 10
135.47872340425531
 20
389.00000000000011
 30
0.0
 40
14.5
  0
LINE
  5
766F
  8
0
 10
118.1582153285666
 20
389.00000000000011
 30
0.0
 11
126.81846936641099
 21
374.0
 31
0.0
  0
LINE
  5
7670
  8
0
 10
126.81846936641119
 20
404.0
 30
0.0
 11
118.1582153285666
 21
389.00000000000011
 31
0.0
  0
LINE
  5
7671
  8
0
 10
144.13897744209959
 20
404.0
 30
0.0
 11
126.81846936641119
 21
404.0
 31
0.0
  0
LINE
  5
7672
  8
0
 10
152.7992314799443
 20
389.00000000000011
 30
0.0
 11
144.13897744209959
 21
404.0
 31
0.0
  0
LINE
  5
7673
  8
0
 10
144.13897744209979
 20
374.0
 30
0.0
 11
152.7992314799443
 21
389.00000000000011
 31
0.0
  0
LINE
  5
7674
  8
0
 10
126.81846936641099
 20
374.0
 30
0.0
 11
144.13897744209979
 21
374.0
 31
0.0
  0
ARC
  5
7713
  8
0
 10
135.47872340425531
 20
389.00000000000011
 30
0.0
 40
15.79024190711395
 50
251.79664866110869
 51
288.20335133889131
  0
ARC
  5
7714
  8
0
 10
135.47872340425531
 20
389.00000000000011
 30
0.0
 40
15.79024190711395
 50
191.79664866110741
 51
228.2033513388902
  0
ARC
  5
7715
  8
0
 10
135.47872340425531
 20
389.00000000000011
 30
0.0
 40
15.79024190711395
 50
131.7966486611063
 51
168.20335133889259
  0
ARC
  5
7716
  8
0
 10
135.47872340425531
 20
389.00000000000011
 30
0.0
 40
15.79024190711395
 50
71.796648661108705
 51
108.2033513388912
  0
ARC
  5
7717
  8
0
 10
135.47872340425531
 20
389.00000000000011
 30
0.0
 40
15.79024190711395
 50
11.7966486611107
 51
48.203351338890243
  0
LINE
  5
771D
  8
0
 10
145.47872340425519
 20
129.9999999999998
 30
0.0
 11
145.47872340425531
 21
197.4665
 31
0.0
  0
LINE
  5
771E
  8
3
 10
143.94522340425539
 20
114.0
 30
0.0
 11
143.9452234042553
 21
91.0
 31
0.0
  0
LINE
  5
771F
  8
3
 10
127.01222340425529
 20
113.9999999999999
 30
0.0
 11
127.01222340425529
 21
91.0
 31
0.0
  0
LINE
  5
7720
  8
0
 10
125.47872340425531
 20
114.0
 30
0.0
 11
125.47872340425531
 21
89.0
 31
0.0
  0
LINE
  5
7764
  8
0
 10
325.47872340425528
 20
129.9999999999992
 30
0.0
 11
325.47872340425528
 21
197.46649999999991
 31
0.0
  0
LINE
  5
7765
  8
3
 10
323.94522340425527
 20
114.0
 30
0.0
 11
323.94522340425527
 21
90.999999999999886
 31
0.0
  0
LINE
  5
7766
  8
3
 10
307.01222340425528
 20
114.0
 30
0.0
 11
307.01222340425528
 21
90.999999999999886
 31
0.0
  0
LINE
  5
7767
  8
0
 10
305.47872340425528
 20
114.0
 30
0.0
 11
305.47872340425528
 21
88.999999999999886
 31
0.0
  0
ENDSEC
  0
EOF
