  0
SECTION
  2
HEADER
  9
$ACADVER
  1
AC1009
  9
$INSBASE
 10
0.0
 20
0.0
 30
0.0
  9
$EXTMIN
 10
0.0
 20
-2.960436562073669
 30
0.0
  9
$EXTMAX
 10
355.47872340425528
 20
433.99999999999977
 30
0.0
  9
$LIMMIN
 10
0.0
 20
0.0
  9
$LIMMAX
 10
375.0
 20
270.0
  9
$ORTHOMODE
 70
     1
  9
$REGENMODE
 70
     1
  9
$FILLMODE
 70
     1
  9
$QTEXTMODE
 70
     0
  9
$MIRRTEXT
 70
     0
  9
$DRAGMODE
 70
     2
  9
$LTSCALE
 40
5.0
  9
$OSMODE
 70
    37
  9
$ATTMODE
 70
     1
  9
$TEXTSIZE
 40
0.2
  9
$TRACEWID
 40
0.05
  9
$TEXTSTYLE
  7
STANDARD
  9
$CLAYER
  8
0
  9
$CELTYPE
  6
BYLAYER
  9
$CECOLOR
 62
     4
  9
$DIMSCALE
 40
1.0
  9
$DIMASZ
 40
3.0
  9
$DIMEXO
 40
1.0
  9
$DIMDLI
 40
6.0
  9
$DIMRND
 40
0.0
  9
$DIMDLE
 40
0.0
  9
$DIMEXE
 40
1.0
  9
$DIMTP
 40
495.0
  9
$DIMTM
 40
0.0
  9
$DIMTXT
 40
3.0
  9
$DIMCEN
 40
0.0
  9
$DIMTSZ
 40
0.0
  9
$DIMTOL
 70
     0
  9
$DIMLIM
 70
     0
  9
$DIMTIH
 70
     0
  9
$DIMTOH
 70
     0
  9
$DIMSE1
 70
     0
  9
$DIMSE2
 70
     0
  9
$DIMTAD
 70
     1
  9
$DIMZIN
 70
     8
  9
$DIMBLK
  1

  9
$DIMASO
 70
     0
  9
$DIMSHO
 70
     0
  9
$DIMPOST
  1

  9
$DIMAPOST
  1

  9
$DIMALT
 70
     0
  9
$DIMALTD
 70
     2
  9
$DIMALTF
 40
25.399999999999999
  9
$DIMLFAC
 40
1.0
  9
$DIMTOFL
 70
     1
  9
$DIMTVP
 40
0.0
  9
$DIMTIX
 70
     1
  9
$DIMSOXD
 70
     0
  9
$DIMSAH
 70
     0
  9
$DIMBLK1
  1

  9
$DIMBLK2
  1

  9
$DIMSTYLE
  2
STANDARD
  9
$DIMCLRD
 70
     0
  9
$DIMCLRE
 70
     0
  9
$DIMCLRT
 70
     0
  9
$DIMTFAC
 40
1.0
  9
$DIMGAP
 40
1.0
  9
$LUNITS
 70
     2
  9
$LUPREC
 70
     1
  9
$SKETCHINC
 40
0.1
  9
$FILLETRAD
 40
2.0
  9
$AUNITS
 70
     0
  9
$AUPREC
 70
     1
  9
$MENU
  1
C:\R13\WIN\SUPPORT\ACAD-I
  9
$ELEVATION
 40
0.0
  9
$PELEVATION
 40
0.0
  9
$THICKNESS
 40
0.0
  9
$LIMCHECK
 70
     0
  9
$BLIPMODE
 70
     0
  9
$CHAMFERA
 40
0.0
  9
$CHAMFERB
 40
0.0
  9
$SKPOLY
 70
     0
  9
$TDCREATE
 40
2451962.4112634258
  9
$TDUPDATE
 40
2457893.419597894
  9
$TDINDWG
 40
0.5378908333
  9
$TDUSRTIMER
 40
2456555.464258241
  9
$USRTIMER
 70
     1
  9
$ANGBASE
 50
0.0
  9
$ANGDIR
 70
     0
  9
$PDMODE
 70
     0
  9
$PDSIZE
 40
0.0
  9
$PLINEWID
 40
0.0
  9
$COORDS
 70
     1
  9
$SPLFRAME
 70
     0
  9
$SPLINETYPE
 70
     6
  9
$SPLINESEGS
 70
     8
  9
$ATTDIA
 70
     0
  9
$ATTREQ
 70
     1
  9
$HANDLING
 70
     1
  9
$HANDSEED
  5
85C8
  9
$SURFTAB1
 70
     6
  9
$SURFTAB2
 70
     6
  9
$SURFTYPE
 70
     6
  9
$SURFU
 70
     6
  9
$SURFV
 70
     6
  9
$UCSNAME
  2

  9
$UCSORG
 10
0.0
 20
0.0
 30
0.0
  9
$UCSXDIR
 10
1.0
 20
0.0
 30
0.0
  9
$UCSYDIR
 10
0.0
 20
1.0
 30
0.0
  9
$PUCSNAME
  2

  9
$PUCSORG
 10
0.0
 20
0.0
 30
0.0
  9
$PUCSXDIR
 10
1.0
 20
0.0
 30
0.0
  9
$PUCSYDIR
 10
0.0
 20
1.0
 30
0.0
  9
$USERI1
 70
     4
  9
$USERI2
 70
     1
  9
$USERI3
 70
     0
  9
$USERI4
 70
     0
  9
$USERI5
 70
     0
  9
$USERR1
 40
1.0
  9
$USERR2
 40
3.0
  9
$USERR3
 40
3.0
  9
$USERR4
 40
3.0
  9
$USERR5
 40
10.0
  9
$WORLDVIEW
 70
     1
  9
$SHADEDGE
 70
     3
  9
$SHADEDIF
 70
    70
  9
$TILEMODE
 70
     1
  9
$MAXACTVP
 70
    16
  9
$PLIMCHECK
 70
     0
  9
$PEXTMIN
 10
1.0000000000000000E+020
 20
1.0000000000000000E+020
 30
1.0000000000000000E+020
  9
$PEXTMAX
 10
-1.0000000000000000E+020
 20
-1.0000000000000000E+020
 30
-1.0000000000000000E+020
  9
$PLIMMIN
 10
0.0
 20
0.0
  9
$PLIMMAX
 10
12.0
 20
9.0
  9
$UNITMODE
 70
     0
  9
$VISRETAIN
 70
     0
  9
$PLINEGEN
 70
     0
  9
$PSLTSCALE
 70
     0
  0
ENDSEC
  0
SECTION
  2
TABLES
  0
TABLE
  2
VPORT
 70
     1
  0
VPORT
  2
*ACTIVE
 70
     0
 10
0.0
 20
0.0
 11
1.0
 21
1.0
 12
454.05982905982899
 22
250.0
 13
0.0
 23
0.0
 14
10.0
 24
10.0
 15
10.0
 25
10.0
 16
0.0
 26
0.0
 36
1.0
 17
0.0
 27
0.0
 37
0.0
 40
500.0
 41
1.816239316239316
 42
50.0
 43
0.0
 44
0.0
 50
0.0
 51
0.0
 71
    16
 72
   100
 73
     1
 74
     0
 75
     0
 76
     1
 77
     0
 78
     0
  0
ENDTAB
  0
TABLE
  2
LTYPE
 70
     4
  0
LTYPE
  2
CONTINUOUS
 70
     0
  3
Solid Line
 72
    65
 73
     0
 40
0.0
  0
LTYPE
  2
PHANTOM2
 70
     0
  3
___ _ _ ___ _ _ ___ _ _ ___ _ _
 72
    65
 73
     6
 40
1.25
 49
0.625
 49
-0.125
 49
0.125
 49
-0.125
 49
0.125
 49
-0.125
  0
LTYPE
  2
CENTER
 70
     0
  3
____ _ ____ _ ____ _ ____ _ ____ _ ____ _ ____
 72
    65
 73
     4
 40
2.0
 49
1.25
 49
-0.25
 49
0.25
 49
-0.25
  0
LTYPE
  2
HIDDEN
 70
     0
  3
_ _ _ _ _ _ _ _ _ _ _ _ _ _ _ _ _ _ _ _ _ _ _
 72
    65
 73
     2
 40
0.375
 49
0.25
 49
-0.125
  0
ENDTAB
  0
TABLE
  2
LAYER
 70
     5
  0
LAYER
  2
0
 70
     0
 62
     7
  6
CONTINUOUS
  0
LAYER
  2
1
 70
     0
 62
     1
  6
CENTER
  0
LAYER
  2
3
 70
     0
 62
     3
  6
CONTINUOUS
  0
LAYER
  2
2
 70
     0
 62
     2
  6
HIDDEN
  0
LAYER
  2
DEFPOINTS
 70
     0
 62
     7
  6
CONTINUOUS
  0
ENDTAB
  0
TABLE
  2
STYLE
 70
     2
  0
STYLE
  2
STANDARD
 70
     0
 40
0.0
 41
1.0
 50
0.0
 71
     0
 42
0.2
  3
SIMPLEX
  4
BIGFONT
  0
STYLE
  2
STANDARD1
 70
     0
 40
0.0
 41
1.0
 50
0.0
 71
     0
 42
3.0
  3
txt
  4

  0
ENDTAB
  0
TABLE
  2
VIEW
 70
     0
  0
ENDTAB
  0
TABLE
  2
UCS
 70
     0
  0
ENDTAB
  0
TABLE
  2
APPID
 70
    32
  0
APPID
  2
ACAD
 70
     0
  0
APPID
  2
ACADANNOTATIVE
 70
     0
  0
APPID
  2
GENIUS_GENOREF_13
 70
     0
  0
APPID
  2
GENIUS_GENOENT_13
 70
     0
  0
APPID
  2
GENIUS_GENBH_13
 70
     0
  0
APPID
  2
GENIUS_GENOBJ_13
 70
     0
  0
APPID
  2
GENIUS_GENODEF_13
 70
     0
  0
APPID
  2
GENIUS_GENOLIS_13
 70
     0
  0
APPID
  2
GENIUS_GENOBJ-NBEHI-BHF_13
 70
     0
  0
APPID
  2
GENIUS_GENOBJ-NBEHI-BHB_13
 70
     0
  0
APPID
  2
GENIUS_GENOBJ-F-PART_13
 70
     0
  0
APPID
  2
GENIUS_GEFSTDP_13
 70
     0
  0
APPID
  2
GENIUS_GENOBJ-N-RSSYM_13
 70
     0
  0
APPID
  2
GENIUS_GENSYMENT_13
 70
     0
  0
APPID
  2
GENIUS_GENOBJ-N-TIT_13
 70
     0
  0
APPID
  2
GENIUS_GENTITLE_13
 70
     0
  0
APPID
  2
GENIUS_GENZVEED_13
 70
     0
  0
APPID
  2
GENIUS_GENOBJ-N-LEADER_13
 70
     0
  0
APPID
  2
GENIUS_GENOBJ-N-FIL_13
 70
     0
  0
APPID
  2
GENIUS_GENOBJ-N-SEC_13
 70
     0
  0
APPID
  2
GENIUS_GENOBJ-N-CRS_13
 70
     0
  0
APPID
  2
GENIUS_GENOBJ-N-ZOO_13
 70
     0
  0
APPID
  2
GENIUS_GENZOO_13
 70
     0
  0
APPID
  2
GENIUS_GENOBJ-F-TOL_13
 70
     0
  0
APPID
  2
GENIUS_GENFIL_13
 70
     0
  0
APPID
  2
GENIUS_GENOBJ-N-CHA_13
 70
     0
  0
APPID
  2
ACAD_EXEMPT_FROM_CAD_STANDARDS
 70
     0
  0
APPID
  2
ACAD_MLEADERVER
 70
     0
  0
APPID
  2
ACAD_NAV_VCDISPLAY
 70
     0
  0
APPID
  2
ACAD_DSTYLE_DIMJAG
 70
     0
  0
APPID
  2
ACAD_DSTYLE_DIMTALN
 70
     0
  0
APPID
  2
ACAD_DSTYLE_DIMRADIAL_EXTENSION
 70
     0
  0
ENDTAB
  0
TABLE
  2
DIMSTYLE
 70
     1
  0
DIMSTYLE
  2
STANDARD
 70
     0
  3

  4

  5

  6

  7

 40
1.0
 41
0.18
 42
0.0625
 43
0.38
 44
0.18
 45
0.0
 46
0.0
 47
0.0
 48
0.0
140
0.18
141
0.09
142
0.0
143
25.399999999999999
144
1.0
145
0.0
146
1.0
147
0.09
 71
     0
 72
     0
 73
     1
 74
     1
 75
     0
 76
     0
 77
     0
 78
     0
170
     0
171
     2
172
     0
173
     0
174
     0
175
     0
176
     0
177
     0
178
     0
  0
ENDTAB
  0
ENDSEC
  0
SECTION
  2
BLOCKS
  0
BLOCK
  8
0
  2
$MODEL_SPACE
 70
     0
 10
0.0
 20
0.0
 30
0.0
  3
$MODEL_SPACE
  1

  0
ENDBLK
  5
439E
  8
0
  0
BLOCK
 67
     1
  8
0
  2
$PAPER_SPACE
 70
     0
 10
0.0
 20
0.0
 30
0.0
  3
$PAPER_SPACE
  1

  0
ENDBLK
  5
439A
 67
     1
  8
0
  0
ENDSEC
  0
SECTION
  2
ENTITIES
  0
TEXT
  5
441E
  8
0
 62
     3
 10
0.0
 20
0.0
 30
0.0
 40
10.0
  1
LQFDR80S24B-SUS
  7
STANDARD1
  0
LINE
  5
7C28
  8
1
 10
315.47872340425539
 20
264.00000000000011
 30
0.0
 11
315.47872340425539
 21
44.999999999999879
 31
0.0
  0
LINE
  5
7C2A
  8
0
 10
320.74417274270581
 20
75.0
 30
0.0
 11
320.74417274270581
 21
77.0
 31
0.0
  0
LINE
  5
7C2B
  8
0
 10
310.21327406580491
 20
77.0
 30
0.0
 11
310.21327406580491
 21
75.0
 31
0.0
  0
LINE
  5
7C2C
  8
0
 10
310.21327406580491
 20
75.0
 30
0.0
 11
320.74417274270581
 21
75.0
 31
0.0
  0
ARC
  5
7C2D
  8
0
 10
315.47905736609948
 20
70.650999991833828
 30
0.0
 40
6.8290000000004332
 50
29.367438111590928
 51
39.55680162337709
  0
ARC
  5
7C2E
  8
0
 10
315.47838944241118
 20
70.650999991833828
 30
0.0
 40
6.8290000000004341
 50
140.44319837662289
 51
150.63256188840899
  0
LINE
  5
7C2F
  8
0
 10
323.41597733744919
 20
89.0
 30
0.0
 11
307.54146947106159
 21
89.0
 31
0.0
  0
LINE
  5
7C30
  8
0
 10
306.47872340425528
 20
89.0
 30
0.0
 11
303.47872340425528
 21
89.0
 31
0.0
  0
LINE
  5
7C31
  8
0
 10
306.47872340425528
 20
77.0
 30
0.0
 11
306.47872340425528
 21
89.0
 31
0.0
  0
LINE
  5
7C32
  8
0
 10
307.54146947106159
 20
89.0
 30
0.0
 11
307.54146947106159
 21
77.0
 31
0.0
  0
LINE
  5
7C33
  8
0
 10
323.41597733744919
 20
77.0
 30
0.0
 11
323.41597733744919
 21
89.0
 31
0.0
  0
LINE
  5
7C34
  8
0
 10
306.47872340425528
 20
77.0
 30
0.0
 11
324.47872340425528
 21
77.0
 31
0.0
  0
LINE
  5
7C35
  8
0
 10
324.47872340425528
 20
89.0
 30
0.0
 11
324.47872340425528
 21
77.0
 31
0.0
  0
LINE
  5
7C36
  8
0
 10
327.47872340425528
 20
89.0
 30
0.0
 11
327.4787234042555
 21
113.9999999999999
 31
0.0
  0
LINE
  5
7C37
  8
0
 10
303.47872340425528
 20
257.15949999999998
 30
0.0
 11
303.47872340425528
 21
132.99999999999989
 31
0.0
  0
LINE
  5
7C38
  8
0
 10
327.47872340425528
 20
89.0
 30
0.0
 11
324.47872340425528
 21
89.0
 31
0.0
  0
LINE
  5
7C39
  8
0
 10
305.3192234042553
 20
259.0
 30
0.0
 11
303.47872340425528
 21
257.15949999999998
 31
0.0
  0
LINE
  5
7C3A
  8
0
 10
327.47872340425528
 20
257.15949999999998
 30
0.0
 11
325.63822340425531
 21
259.0
 31
0.0
  0
LINE
  5
7C3B
  8
0
 10
327.47872340425528
 20
257.15949999999998
 30
0.0
 11
303.47872340425528
 21
257.15949999999998
 31
0.0
  0
LINE
  5
7C3C
  8
0
 10
325.63822340425531
 20
259.0
 30
0.0
 11
305.3192234042553
 21
259.0
 31
0.0
  0
LINE
  5
7C3D
  8
3
 10
305.3192234042553
 20
259.0
 30
0.0
 11
305.3192234042553
 21
132.99999999999989
 31
0.0
  0
LINE
  5
7C3E
  8
3
 10
303.47872340425528
 20
89.0
 30
0.0
 11
305.3192234042553
 21
91.0
 31
0.0
  0
LINE
  5
7C3F
  8
0
 10
303.47872340425528
 20
91.0
 30
0.0
 11
327.47872340425528
 21
91.0
 31
0.0
  0
LINE
  5
7C40
  8
3
 10
325.63822340425531
 20
259.0
 30
0.0
 11
325.6382234042552
 21
132.99999999999989
 31
0.0
  0
LINE
  5
7C41
  8
3
 10
327.47872340425528
 20
89.0
 30
0.0
 11
325.63822340425531
 21
91.0
 31
0.0
  0
ARC
  5
7C42
  8
0
 10
330.95618245828223
 20
71.43500041192749
 30
0.0
 40
2.5839999999995351
 50
69.604003289079117
 51
83.047526200487312
  0
ARC
  5
7C43
  8
0
 10
300.00126435022838
 20
71.43500041192749
 30
0.0
 40
2.5839999999995351
 50
96.952473799512674
 51
110.3959967109209
  0
LINE
  5
7C44
  8
0
 10
299.68848149714142
 20
74.0
 30
0.0
 11
331.2689653113693
 21
74.0
 31
0.0
  0
LINE
  5
7C45
  8
0
 10
299.10072340425529
 20
73.856999999999971
 30
0.0
 11
295.62437257112299
 21
72.561869295481415
 31
0.0
  0
LINE
  5
7C46
  8
0
 10
335.33307423738768
 20
72.561869295481415
 30
0.0
 11
331.85672340425538
 21
73.856999999999971
 31
0.0
  0
ARC
  5
7C48
  8
0
 10
334.63240314617531
 20
70.681148948928353
 30
0.0
 40
2.0069999999999601
 50
25.906025527540439
 51
69.56688855554637
  0
ARC
  5
7C49
  8
0
 10
296.32504366233542
 20
70.681148948928353
 30
0.0
 40
2.006999999999953
 50
110.4331114444536
 51
154.09397447245951
  0
ARC
  5
7C4B
  8
0
 10
338.24363595837661
 20
72.433630542447759
 30
0.0
 40
2.007000000000021
 50
205.8672963722849
 51
249.58247883989699
  0
ARC
  5
7C4C
  8
0
 10
292.71381085013411
 20
72.433630542447759
 30
0.0
 40
2.0070000000000201
 50
290.41752116010292
 51
334.13270362771522
  0
LINE
  5
7C4D
  8
0
 10
294.5197234042883
 20
71.558000000067864
 30
0.0
 11
336.43772340422242
 21
71.558000000067864
 31
0.0
  0
LINE
  5
7C4E
  8
0
 10
293.41397016803529
 20
70.552719611660109
 30
0.0
 11
289.7397234042553
 21
69.185000000000059
 31
0.0
  0
LINE
  5
7C4F
  8
0
 10
341.21772340425542
 20
69.185000000000059
 30
0.0
 11
337.54347664047532
 21
70.552719611660109
 31
0.0
  0
ARC
  5
7C51
  8
0
 10
340.51642170886367
 20
67.304514708368856
 30
0.0
 40
2.0069999999999961
 50
23.942664941349889
 51
69.547676121472577
  0
ARC
  5
7C52
  8
0
 10
290.44102509964688
 20
67.304514708368856
 30
0.0
 40
2.0069999999999948
 50
110.45232387852739
 51
156.0573350586501
  0
ARC
  5
7C54
  8
0
 10
344.18429391336281
 20
68.93513000688074
 30
0.0
 40
2.0069999999999859
 50
203.99404908942051
 51
249.6004139230599
  0
ARC
  5
7C55
  8
0
 10
286.77315289514792
 20
68.93513000688074
 30
0.0
 40
2.006999999999985
 50
290.39958607694012
 51
336.00595091057949
  0
LINE
  5
7C56
  8
0
 10
288.60672340422337
 20
68.118999999928064
 30
0.0
 11
342.35072340428718
 21
68.118999999928064
 31
0.0
  0
LINE
  5
7C57
  8
0
 10
287.47272340425519
 20
67.053999999999974
 30
0.0
 11
283.64016861606649
 21
65.626165865501207
 31
0.0
  0
LINE
  5
7C58
  8
0
 10
347.31727819244418
 20
65.626165865501207
 30
0.0
 11
343.48472340425542
 21
67.053999999999974
 31
0.0
  0
ARC
  5
7C5A
  8
0
 10
346.61660799099832
 20
63.745445187461662
 30
0.0
 40
2.0069999999999579
 50
26.50114207327378
 51
69.566915662101337
  0
ARC
  5
7C5B
  8
0
 10
284.34083881751241
 20
63.745445187461662
 30
0.0
 40
2.0069999999999539
 50
110.43308433789861
 51
153.4988579267262
  0
ARC
  5
7C5D
  8
0
 10
350.20861062134998
 20
65.537012334444285
 30
0.0
 40
2.007000000000053
 50
206.51573784607729
 51
249.57020648402431
  0
ARC
  5
7C5E
  8
0
 10
280.74883618716058
 20
65.537012334444285
 30
0.0
 40
2.007000000000053
 50
290.42979351597558
 51
333.48426215392271
  0
LINE
  5
7C5F
  8
0
 10
282.54472340445977
 20
64.641000000409804
 30
0.0
 11
348.41272340405101
 21
64.641000000409804
 31
0.0
  0
LINE
  5
7C60
  8
0
 10
351.47872340425528
 20
50.0
 30
0.0
 11
351.47872340425528
 21
52.0
 31
0.0
  0
LINE
  5
7C61
  8
0
 10
279.47872340425528
 20
52.0
 30
0.0
 11
279.47872340425528
 21
50.0
 31
0.0
  0
LINE
  5
7C62
  8
0
 10
279.47872340425528
 20
50.0
 30
0.0
 11
351.47872340425528
 21
50.0
 31
0.0
  0
LINE
  5
7C63
  8
0
 10
281.44939836698438
 20
63.656251416039026
 30
0.0
 11
277.21741917339301
 21
62.07988667741926
 31
0.0
  0
LINE
  5
7C64
  8
0
 10
353.74002763511771
 20
62.07988667741926
 30
0.0
 11
349.50804844152628
 21
63.656251416039026
 31
0.0
  0
ARC
  5
7C66
  8
0
 10
353.03946533281089
 20
60.199125804637561
 30
0.0
 40
2.006999999999985
 50
2.9986645112338781
 51
69.570202752684963
  0
ARC
  5
7C67
  8
0
 10
277.91798147569978
 20
60.199125804637561
 30
0.0
 40
2.0069999999999841
 50
110.42979724731499
 51
177.0013354887661
  0
LINE
  5
7C69
  8
0
 10
275.9137295516889
 20
60.304117352386811
 30
0.0
 11
275.47872340425528
 21
52.0
 31
0.0
  0
LINE
  5
7C6A
  8
0
 10
355.47872340425528
 20
52.0
 30
0.0
 11
355.04371725682182
 21
60.304117352386811
 31
0.0
  0
LINE
  5
7C6B
  8
0
 10
275.9137295516889
 20
60.304117352386811
 30
0.0
 11
355.04371725682182
 21
60.304117352386811
 31
0.0
  0
LINE
  5
7C6C
  8
0
 10
275.47872340425528
 20
52.0
 30
0.0
 11
355.47872340425528
 21
52.0
 31
0.0
  0
LINE
  5
7CE7
  8
2
 10
70.728723404255334
 20
63.999999999999879
 30
0.0
 11
60.228723404255327
 21
63.999999999999879
 31
0.0
  0
LINE
  5
7CE8
  8
2
 10
60.228723404255327
 20
63.999999999999879
 30
0.0
 11
60.228723404255327
 21
51.999999999999879
 31
0.0
  0
LINE
  5
7CE9
  8
2
 10
70.728723404255334
 20
51.999999999999879
 30
0.0
 11
70.728723404255334
 21
63.999999999999879
 31
0.0
  0
LINE
  5
7CEA
  8
2
 10
95.728723404255334
 20
63.999999999999879
 30
0.0
 11
85.228723404255334
 21
63.999999999999879
 31
0.0
  0
LINE
  5
7CEB
  8
2
 10
85.228723404255334
 20
63.999999999999879
 30
0.0
 11
85.228723404255334
 21
51.999999999999879
 31
0.0
  0
LINE
  5
7CEC
  8
2
 10
95.728723404255334
 20
51.999999999999879
 30
0.0
 11
95.728723404255334
 21
63.999999999999879
 31
0.0
  0
LINE
  5
7CF5
  8
1
 10
135.47872340425519
 20
263.99999999999972
 30
0.0
 11
135.47872340425539
 21
44.999999999999879
 31
0.0
  0
LINE
  5
7CF7
  8
1
 10
65.478723404255334
 20
66.999999999999886
 30
0.0
 11
65.478723404255334
 21
48.999999999999879
 31
0.0
  0
LINE
  5
7CF8
  8
1
 10
90.478723404255334
 20
66.999999999999886
 30
0.0
 11
90.478723404255334
 21
48.999999999999879
 31
0.0
  0
LINE
  5
7CFC
  8
0
 10
140.74417274270581
 20
74.999999999999886
 30
0.0
 11
140.74417274270581
 21
76.999999999999886
 31
0.0
  0
LINE
  5
7CFD
  8
0
 10
130.2132740658048
 20
76.999999999999886
 30
0.0
 11
130.2132740658048
 21
74.999999999999886
 31
0.0
  0
ARC
  5
7CFE
  8
0
 10
135.47905736609951
 20
70.650999991833714
 30
0.0
 40
6.8290000000004332
 50
29.367438111590928
 51
39.55680162337709
  0
ARC
  5
7CFF
  8
0
 10
135.47838944241121
 20
70.650999991833714
 30
0.0
 40
6.8290000000004341
 50
140.44319837662289
 51
150.63256188840899
  0
LINE
  5
7D00
  8
0
 10
130.2132740658048
 20
74.999999999999886
 30
0.0
 11
140.74417274270581
 21
74.999999999999886
 31
0.0
  0
LINE
  5
7D01
  8
0
 10
145.63822340425531
 20
258.99999999999989
 30
0.0
 11
125.3192234042553
 21
258.99999999999989
 31
0.0
  0
LINE
  5
7D02
  8
0
 10
125.3192234042553
 20
258.99999999999989
 30
0.0
 11
123.47872340425531
 21
257.15949999999981
 31
0.0
  0
LINE
  5
7D03
  8
0
 10
147.47872340425531
 20
257.15949999999981
 30
0.0
 11
145.63822340425531
 21
258.99999999999989
 31
0.0
  0
LINE
  5
7D04
  8
0
 10
143.41597733744911
 20
88.999999999999886
 30
0.0
 11
127.5414694710615
 21
88.999999999999886
 31
0.0
  0
LINE
  5
7D05
  8
0
 10
126.47872340425531
 20
88.999999999999886
 30
0.0
 11
123.47872340425531
 21
88.999999999999886
 31
0.0
  0
LINE
  5
7D06
  8
0
 10
126.47872340425531
 20
76.999999999999886
 30
0.0
 11
126.47872340425531
 21
88.999999999999886
 31
0.0
  0
LINE
  5
7D07
  8
0
 10
127.5414694710615
 20
88.999999999999886
 30
0.0
 11
127.5414694710615
 21
76.999999999999886
 31
0.0
  0
LINE
  5
7D08
  8
0
 10
143.41597733744911
 20
76.999999999999886
 30
0.0
 11
143.41597733744911
 21
88.999999999999886
 31
0.0
  0
LINE
  5
7D09
  8
0
 10
126.47872340425531
 20
76.999999999999886
 30
0.0
 11
144.47872340425531
 21
76.999999999999886
 31
0.0
  0
LINE
  5
7D0A
  8
0
 10
144.47872340425531
 20
88.999999999999886
 30
0.0
 11
144.47872340425531
 21
76.999999999999886
 31
0.0
  0
LINE
  5
7D0B
  8
0
 10
147.47872340425531
 20
257.15949999999981
 30
0.0
 11
123.47872340425531
 21
257.15949999999981
 31
0.0
  0
LINE
  5
7D0C
  8
0
 10
147.47872340425531
 20
88.999999999999886
 30
0.0
 11
147.47872340425531
 21
113.9999999999999
 31
0.0
  0
LINE
  5
7D0D
  8
0
 10
123.47872340425531
 20
257.15949999999981
 30
0.0
 11
123.47872340425531
 21
132.99999999999989
 31
0.0
  0
LINE
  5
7D0E
  8
0
 10
147.47872340425531
 20
88.999999999999886
 30
0.0
 11
144.47872340425531
 21
88.999999999999886
 31
0.0
  0
LINE
  5
7D0F
  8
3
 10
125.3192234042553
 20
258.99999999999989
 30
0.0
 11
125.3192234042553
 21
132.99999999999989
 31
0.0
  0
LINE
  5
7D10
  8
3
 10
123.47872340425531
 20
88.999999999999886
 30
0.0
 11
125.3192234042553
 21
90.999999999999886
 31
0.0
  0
LINE
  5
7D11
  8
0
 10
123.47872340425531
 20
90.999999999999886
 30
0.0
 11
147.47872340425531
 21
90.999999999999886
 31
0.0
  0
LINE
  5
7D12
  8
3
 10
145.63822340425531
 20
258.99999999999989
 30
0.0
 11
145.63822340425531
 21
132.99999999999989
 31
0.0
  0
LINE
  5
7D13
  8
3
 10
147.47872340425531
 20
88.999999999999886
 30
0.0
 11
145.63822340425531
 21
90.999999999999886
 31
0.0
  0
LINE
  5
7D14
  8
0
 10
59.16488095238094
 20
65.999999999999886
 30
0.0
 11
58.161445211811149
 21
65.626165865501093
 31
0.0
  0
LINE
  5
7D15
  8
0
 10
59.16488095238094
 20
65.999999999999886
 30
0.0
 11
104.6436043566365
 21
65.999999999999886
 31
0.0
  0
LINE
  5
7D16
  8
0
 10
54.478723404255327
 20
51.999999999999879
 30
0.0
 11
54.478723404255327
 21
49.999999999999893
 31
0.0
  0
ARC
  5
7D17
  8
0
 10
58.862115413257243
 20
63.745445187461428
 30
0.0
 40
2.00700000000014
 50
110.43308433789861
 51
153.4988579267262
  0
ARC
  5
7D18
  8
0
 10
150.9561824582822
 20
71.435000411927376
 30
0.0
 40
2.5839999999995351
 50
69.604003289079117
 51
83.047526200487312
  0
ARC
  5
7D19
  8
0
 10
120.0012643502283
 20
71.435000411927376
 30
0.0
 40
2.5839999999995351
 50
96.952473799512674
 51
110.3959967109209
  0
LINE
  5
7D1A
  8
0
 10
119.6884814971413
 20
73.999999999999886
 30
0.0
 11
151.26896531136919
 21
73.999999999999886
 31
0.0
  0
ARC
  5
7D1B
  8
0
 10
55.270112782905407
 20
65.537012334444057
 30
0.0
 40
2.0069999999999109
 50
290.42979351597558
 51
333.48426215392652
  0
LINE
  5
7D1D
  8
0
 10
119.10072340425531
 20
73.856999999999843
 30
0.0
 11
115.6243725711229
 21
72.561869295481301
 31
0.0
  0
LINE
  5
7D1E
  8
0
 10
155.33307423738771
 20
72.561869295481301
 30
0.0
 11
151.8567234042554
 21
73.856999999999843
 31
0.0
  0
ARC
  5
7D20
  8
0
 10
154.63240314617531
 20
70.681148948928239
 30
0.0
 40
2.0069999999999601
 50
25.906025527540439
 51
69.56688855554637
  0
ARC
  5
7D21
  8
0
 10
116.3250436623353
 20
70.681148948928239
 30
0.0
 40
2.006999999999953
 50
110.4331114444536
 51
154.09397447245951
  0
LINE
  5
7D23
  8
0
 10
55.970674962729099
 20
63.656251416038913
 30
0.0
 11
51.738695769137678
 21
62.079886677419147
 31
0.0
  0
ARC
  5
7D24
  8
0
 10
158.2436359583765
 20
72.433630542447645
 30
0.0
 40
2.007000000000021
 50
205.8672963722849
 51
249.58247883989699
  0
ARC
  5
7D25
  8
0
 10
112.7138108501341
 20
72.433630542447645
 30
0.0
 40
2.0070000000000201
 50
290.41752116010292
 51
334.13270362771522
  0
LINE
  5
7D26
  8
0
 10
114.5197234042883
 20
71.55800000006775
 30
0.0
 11
156.4377234042224
 21
71.55800000006775
 31
0.0
  0
ARC
  5
7D27
  8
0
 10
52.439258071444442
 20
60.199125804637447
 30
0.0
 40
2.0069999999999841
 50
110.42979724731499
 51
177.0013354887661
  0
LINE
  5
7D28
  8
0
 10
50.435006147433569
 20
60.30411735238669
 30
0.0
 11
50.0
 21
51.999999999999879
 31
0.0
  0
LINE
  5
7D29
  8
0
 10
113.41397016803531
 20
70.552719611659995
 30
0.0
 11
109.7397234042553
 21
69.184999999999945
 31
0.0
  0
LINE
  5
7D2A
  8
0
 10
161.21772340425539
 20
69.184999999999945
 30
0.0
 11
157.54347664047529
 21
70.552719611659995
 31
0.0
  0
ARC
  5
7D2C
  8
0
 10
160.5164217088637
 20
67.304514708368743
 30
0.0
 40
2.0069999999999961
 50
23.942664941349889
 51
69.547676121472577
  0
ARC
  5
7D2D
  8
0
 10
110.44102509964689
 20
67.304514708368743
 30
0.0
 40
2.0069999999999948
 50
110.45232387852739
 51
156.0573350586501
  0
ARC
  5
7D2F
  8
0
 10
164.18429391336281
 20
68.935130006880627
 30
0.0
 40
2.0069999999999859
 50
203.99404908942051
 51
249.6004139230599
  0
ARC
  5
7D30
  8
0
 10
106.7731528951478
 20
68.935130006880627
 30
0.0
 40
2.006999999999985
 50
290.39958607694012
 51
336.00595091057949
  0
LINE
  5
7D31
  8
0
 10
108.6067234042233
 20
68.118999999927951
 30
0.0
 11
162.35072340428721
 21
68.118999999927951
 31
0.0
  0
LINE
  5
7D35
  8
0
 10
107.47272340425531
 20
67.05399999999986
 30
0.0
 11
104.6436043566362
 21
65.999999999999886
 31
0.0
  0
LINE
  5
7D36
  8
0
 10
167.31727819244409
 20
65.626165865501093
 30
0.0
 11
163.48472340425539
 21
67.05399999999986
 31
0.0
  0
ARC
  5
7D3C
  8
0
 10
166.61660799099829
 20
63.745445187461542
 30
0.0
 40
2.0069999999999579
 50
26.50114207327378
 51
69.566915662101337
  0
LINE
  5
7D3D
  8
0
 10
57.066000000204433
 20
64.64100000040969
 30
0.0
 11
168.41272340405101
 21
64.64100000040969
 31
0.0
  0
ARC
  5
7D3F
  8
0
 10
170.20861062134989
 20
65.537012334444171
 30
0.0
 40
2.007000000000053
 50
206.51573784607729
 51
249.57020648402431
  0
LINE
  5
7D41
  8
0
 10
54.478723404255327
 20
49.999999999999893
 30
0.0
 11
171.47872340425531
 21
49.999999999999893
 31
0.0
  0
LINE
  5
7D43
  8
0
 10
171.47872340425531
 20
49.999999999999893
 30
0.0
 11
171.47872340425531
 21
51.999999999999879
 31
0.0
  0
LINE
  5
7D49
  8
0
 10
173.74002763511771
 20
62.079886677419147
 30
0.0
 11
169.50804844152631
 21
63.656251416038913
 31
0.0
  0
ARC
  5
7D4C
  8
0
 10
173.03946533281089
 20
60.199125804637447
 30
0.0
 40
2.006999999999985
 50
2.9986645112338781
 51
69.570202752684963
  0
LINE
  5
7D4D
  8
0
 10
50.0
 20
51.999999999999879
 30
0.0
 11
175.47872340425531
 21
51.999999999999879
 31
0.0
  0
LINE
  5
7D4E
  8
0
 10
50.435006147433569
 20
60.30411735238669
 30
0.0
 11
175.04371725682179
 21
60.30411735238669
 31
0.0
  0
LINE
  5
7D50
  8
0
 10
175.47872340425531
 20
51.999999999999879
 30
0.0
 11
175.04371725682179
 21
60.30411735238669
 31
0.0
  0
CIRCLE
  5
7DA5
  8
2
 10
65.478723404255334
 20
388.99999999999989
 30
0.0
 40
5.2499999999999911
  0
CIRCLE
  5
7DA6
  8
2
 10
90.478723404255334
 20
388.99999999999989
 30
0.0
 40
5.2500000000000044
  0
LINE
  5
7DAA
  8
1
 10
65.478723404255334
 20
397.24999999999989
 30
0.0
 11
65.478723404255334
 21
380.74999999999989
 31
0.0
  0
LINE
  5
7DAB
  8
1
 10
90.478723404255334
 20
397.24999999999989
 30
0.0
 11
90.478723404255334
 21
380.74999999999989
 31
0.0
  0
LINE
  5
7DAC
  8
1
 10
180.47872340425531
 20
388.99999999999977
 30
0.0
 11
45.0
 21
388.99999999999977
 31
0.0
  0
LINE
  5
7DAD
  8
1
 10
135.47872340425531
 20
433.99999999999977
 30
0.0
 11
135.47872340425531
 21
343.99999999999989
 31
0.0
  0
CIRCLE
  5
7DAF
  8
0
 10
135.47872340425531
 20
388.99999999999989
 30
0.0
 40
12.0
  0
CIRCLE
  5
7DB0
  8
3
 10
135.47872340425531
 20
388.99999999999977
 30
0.0
 40
10.1595
  0
ARC
  5
7DB1
  8
0
 10
135.47872340425531
 20
388.99999999999989
 30
0.0
 40
40.0
 50
252.9999999999979
 51
107.0000000000021
  0
LINE
  5
7DB2
  8
0
 10
73.780796269840266
 20
411.96472095209418
 30
0.0
 11
123.7838552153458
 21
427.25219023852128
 31
0.0
  0
LINE
  5
7DB3
  8
0
 10
73.780796269840152
 20
366.03527904790559
 30
0.0
 11
123.7838552153458
 21
350.74780976147849
 31
0.0
  0
ARC
  5
7DB4
  8
0
 10
72.978723404255334
 20
388.99999999999989
 30
0.0
 40
22.978723404255341
 50
87.999683181801998
 51
272.00031681819149
  0
LINE
  5
7DB5
  8
0
 10
73.838022278403855
 20
411.52733435629722
 30
0.0
 11
123.91103870423581
 21
426.83619179085758
 31
0.0
  0
ARC
  5
7DB6
  8
0
 10
135.47872340425531
 20
388.99999999999989
 30
0.0
 40
39.564993852566452
 50
252.9999999999979
 51
107.0000000000021
  0
LINE
  5
7DB7
  8
0
 10
73.838022278403969
 20
366.47266564370261
 30
0.0
 11
123.91103870423581
 21
351.1638082091423
 31
0.0
  0
ARC
  5
7DB8
  8
0
 10
72.978723404255334
 20
388.99999999999989
 30
0.0
 40
22.543717256821761
 50
87.815527573485696
 51
272.18447242651428
  0
ARC
  5
7DC3
  8
0
 10
135.47872340425531
 20
388.99999999999989
 30
0.0
 40
32.93399999979561
 50
252.9999999999979
 51
107.0000000000021
  0
LINE
  5
7DC4
  8
0
 10
74.608806639356203
 20
404.8290111750693
 30
0.0
 11
125.84975368097651
 21
420.49494083269087
 31
0.0
  0
LINE
  5
7DC5
  8
0
 10
74.608806639356203
 20
373.17098882493042
 30
0.0
 11
125.84975368097651
 21
357.50505916730879
 31
0.0
  0
ARC
  5
7DC6
  8
0
 10
72.978723404255334
 20
388.99999999999989
 30
0.0
 40
15.91272340405094
 50
84.120364524656054
 51
275.87963547534389
  0
CIRCLE
  5
7DD4
  8
0
 10
135.47872340425531
 20
388.99999999999989
 30
0.0
 40
26.872000000031949
  0
CIRCLE
  5
7DD7
  8
0
 10
135.47872340425531
 20
388.99999999999989
 30
0.0
 40
20.958999999967059
  0
CIRCLE
  5
7DDB
  8
0
 10
65.478723404255334
 20
388.99999999999989
 30
0.0
 40
1.0
  0
CIRCLE
  5
7DDC
  8
0
 10
90.478723404255334
 20
388.99999999999989
 30
0.0
 40
1.0
  0
LINE
  5
7DE1
  8
3
 10
307.54146947106159
 20
89.0
 30
0.0
 11
323.41597733744919
 21
77.0
 31
0.0
  0
LINE
  5
7DE2
  8
3
 10
323.41597733744919
 20
89.0
 30
0.0
 11
307.54146947106159
 21
77.0
 31
0.0
  0
LINE
  5
7E2D
  8
3
 10
127.5414694710615
 20
88.999999999999886
 30
0.0
 11
143.41597733744911
 21
76.999999999999886
 31
0.0
  0
LINE
  5
7E2E
  8
3
 10
143.41597733744911
 20
88.999999999999886
 30
0.0
 11
127.5414694710615
 21
76.999999999999886
 31
0.0
  0
LINE
  5
8120
  8
0
 10
297.4787234189061
 20
132.42264973926871
 30
0.0
 11
297.4787234189061
 21
114.5773502607308
 31
0.0
  0
LINE
  5
8121
  8
0
 10
298.47872340425528
 20
132.99999999999989
 30
0.0
 11
297.4787234189061
 21
132.42264973926871
 31
0.0
  0
ARC
  5
8122
  8
0
 10
306.47872341158057
 20
106.4274592319566
 30
0.0
 40
25.995190507312159
 50
69.743841999652673
 51
110.2561580003473
  0
ARC
  5
8123
  8
0
 10
306.47872341158057
 20
140.5725407680429
 30
0.0
 40
25.995190507312159
 50
249.74384199965269
 51
290.25615800034728
  0
LINE
  5
8124
  8
0
 10
298.47872340425528
 20
113.9999999999999
 30
0.0
 11
297.4787234189061
 21
114.5773502607308
 31
0.0
  0
LINE
  5
8125
  8
0
 10
332.47872340425511
 20
113.9999999999999
 30
0.0
 11
333.47872338960428
 21
114.5773502607308
 31
0.0
  0
ARC
  5
8126
  8
0
 10
324.47872339692981
 20
140.5725407680429
 30
0.0
 40
25.995190507312159
 50
249.74384199965269
 51
290.25615800034728
  0
ARC
  5
8127
  8
0
 10
324.47872339692981
 20
106.4274592319566
 30
0.0
 40
25.995190507312159
 50
69.743841999652673
 51
110.2561580003473
  0
LINE
  5
8128
  8
0
 10
332.47872340425511
 20
132.99999999999989
 30
0.0
 11
333.47872338960428
 21
132.42264973926871
 31
0.0
  0
LINE
  5
8129
  8
0
 10
298.47872340425528
 20
132.99999999999989
 30
0.0
 11
332.47872340425511
 21
132.99999999999989
 31
0.0
  0
LINE
  5
812A
  8
0
 10
333.47872338960428
 20
132.42264973926871
 30
0.0
 11
333.47872338960428
 21
114.5773502607308
 31
0.0
  0
LINE
  5
812B
  8
0
 10
298.47872340425528
 20
113.9999999999999
 30
0.0
 11
332.47872340425511
 21
113.9999999999999
 31
0.0
  0
LINE
  5
812C
  8
0
 10
315.47872340425539
 20
130.8149545859965
 30
0.0
 11
315.47872340425539
 21
116.185045414003
 31
0.0
  0
CIRCLE
  5
812D
  8
0
 10
135.47872340425531
 20
388.99999999999977
 30
0.0
 40
17.0
  0
LINE
  5
812E
  8
0
 10
125.0864185672951
 20
406.99999998534872
 30
0.0
 11
145.8710282581203
 21
406.99999998534872
 31
0.0
  0
LINE
  5
812F
  8
0
 10
145.8710282412128
 20
406.99999998533411
 30
0.0
 11
156.26333308662899
 21
388.99999998534872
 31
0.0
  0
LINE
  5
8130
  8
0
 10
156.26333307815611
 20
389.0000000000025
 30
0.0
 11
145.87102823274719
 21
371.0000000000025
 31
0.0
  0
LINE
  5
8131
  8
0
 10
145.87102824120191
 20
371.00000001465628
 30
0.0
 11
125.08641855037661
 21
371.00000001465628
 31
0.0
  0
LINE
  5
8132
  8
0
 10
125.0864185672969
 20
371.00000001465628
 30
0.0
 11
114.6941137218807
 21
389.00000001465628
 31
0.0
  0
LINE
  5
8133
  8
0
 10
114.69411373035361
 20
389.0000000000025
 30
0.0
 11
125.08641857576249
 21
407.0000000000025
 31
0.0
  0
LINE
  5
8134
  8
0
 10
156.2633330781546
 20
130.8149545859969
 30
0.0
 11
156.2633330781546
 21
116.18504541400399
 31
0.0
  0
LINE
  5
8135
  8
0
 10
152.47872340425531
 20
132.99999999999989
 30
0.0
 11
156.2633330781546
 21
130.8149545859969
 31
0.0
  0
ARC
  5
8136
  8
0
 10
151.06718065967959
 20
123.2216878524159
 30
0.0
 40
9.2009618868538041
 50
64.38424746792316
 51
124.3842474679434
  0
ARC
  5
8137
  8
0
 10
151.06718065967959
 20
123.778312147585
 30
0.0
 40
9.2009618868538041
 50
235.6157525320566
 51
295.61575253207678
  0
LINE
  5
8138
  8
0
 10
152.47872340425531
 20
113.9999999999999
 30
0.0
 11
156.2633330781546
 21
116.18504541400399
 31
0.0
  0
LINE
  5
8139
  8
0
 10
118.4787234042554
 20
113.9999999999999
 30
0.0
 11
114.69411373035619
 21
116.18504541400399
 31
0.0
  0
ARC
  5
813A
  8
0
 10
119.8902661488312
 20
123.778312147585
 30
0.0
 40
9.2009618868538041
 50
244.3842474679231
 51
304.38424746794249
  0
ARC
  5
813B
  8
0
 10
135.47872340425729
 20
148.96965507824819
 30
0.0
 40
34.392304817516766
 50
252.41204622606401
 51
287.58795377394023
  0
ARC
  5
813C
  8
0
 10
119.8902661488312
 20
123.2216878524159
 30
0.0
 40
9.2009618868538041
 50
55.615752532056632
 51
115.6157525320768
  0
ARC
  5
813D
  8
0
 10
135.47872340425729
 20
98.030344921752658
 30
0.0
 40
34.392304817516766
 50
72.412046226059815
 51
107.5879537739402
  0
LINE
  5
813E
  8
0
 10
145.87102824120859
 20
130.8149545859969
 30
0.0
 11
145.87102824120859
 21
116.18504541400399
 31
0.0
  0
LINE
  5
813F
  8
0
 10
125.0864185673063
 20
130.8149545859969
 30
0.0
 11
125.0864185673063
 21
116.18504541400399
 31
0.0
  0
LINE
  5
8140
  8
0
 10
118.4787234042554
 20
132.99999999999989
 30
0.0
 11
114.69411373035619
 21
130.8149545859969
 31
0.0
  0
LINE
  5
8141
  8
0
 10
114.69411373035619
 20
130.8149545859969
 30
0.0
 11
114.69411373035619
 21
116.18504541400399
 31
0.0
  0
LINE
  5
8142
  8
0
 10
118.47872340425531
 20
113.9999999999999
 30
0.0
 11
152.47872340425531
 21
113.9999999999999
 31
0.0
  0
LINE
  5
8143
  8
0
 10
118.4787234042555
 20
132.99999999999989
 30
0.0
 11
152.47872340425531
 21
132.99999999999989
 31
0.0
  0
LINE
  5
818B
  8
0
 10
147.47872340425531
 20
132.99999999999989
 30
0.0
 11
147.47872340425531
 21
257.15949999999981
 31
0.0
  0
LINE
  5
818C
  8
3
 10
145.63822340425531
 20
113.9999999999997
 30
0.0
 11
145.63822340425531
 21
90.999999999999886
 31
0.0
  0
LINE
  5
818D
  8
3
 10
125.3192234042553
 20
113.9999999999997
 30
0.0
 11
125.3192234042553
 21
90.999999999999886
 31
0.0
  0
LINE
  5
818E
  8
0
 10
123.47872340425531
 20
113.9999999999999
 30
0.0
 11
123.47872340425531
 21
88.999999999999886
 31
0.0
  0
LINE
  5
818F
  8
0
 10
327.4787234042555
 20
132.99999999999989
 30
0.0
 11
327.47872340425528
 21
257.15949999999998
 31
0.0
  0
LINE
  5
8190
  8
3
 10
325.6382234042552
 20
113.9999999999999
 30
0.0
 11
325.63822340425531
 21
91.0
 31
0.0
  0
LINE
  5
8191
  8
3
 10
305.3192234042553
 20
113.9999999999999
 30
0.0
 11
305.3192234042553
 21
91.0
 31
0.0
  0
LINE
  5
8192
  8
0
 10
303.47872340425528
 20
113.9999999999999
 30
0.0
 11
303.47872340425528
 21
89.0
 31
0.0
  0
ENDSEC
  0
EOF
