  0
SECTION
  2
HEADER
  9
$ACADVER
  1
AC1009
  9
$INSBASE
 10
0.0
 20
0.0
 30
0.0
  9
$EXTMIN
 10
0.0
 20
-2.960436562073669
 30
0.0
  9
$EXTMAX
 10
264.40137889688259
 20
222.67016460493781
 30
0.0
  9
$LIMMIN
 10
0.0
 20
0.0
  9
$LIMMAX
 10
375.0
 20
270.0
  9
$ORTHOMODE
 70
     1
  9
$REGENMODE
 70
     1
  9
$FILLMODE
 70
     1
  9
$QTEXTMODE
 70
     0
  9
$MIRRTEXT
 70
     0
  9
$DRAGMODE
 70
     2
  9
$LTSCALE
 40
10.0
  9
$OSMODE
 70
  3071
  9
$ATTMODE
 70
     1
  9
$TEXTSIZE
 40
5.0
  9
$TRACEWID
 40
0.05
  9
$TEXTSTYLE
  7
STANDARD
  9
$CLAYER
  8
0
  9
$CELTYPE
  6
BYLAYER
  9
$CECOLOR
 62
   256
  9
$DIMSCALE
 40
1.0
  9
$DIMASZ
 40
3.0
  9
$DIMEXO
 40
2.0
  9
$DIMDLI
 40
0.38
  9
$DIMRND
 40
0.0
  9
$DIMDLE
 40
0.0
  9
$DIMEXE
 40
2.0
  9
$DIMTP
 40
0.0
  9
$DIMTM
 40
0.0
  9
$DIMTXT
 40
3.2000000000000002
  9
$DIMCEN
 40
0.0
  9
$DIMTSZ
 40
0.0
  9
$DIMTOL
 70
     0
  9
$DIMLIM
 70
     0
  9
$DIMTIH
 70
     0
  9
$DIMTOH
 70
     0
  9
$DIMSE1
 70
     0
  9
$DIMSE2
 70
     0
  9
$DIMTAD
 70
     1
  9
$DIMZIN
 70
     0
  9
$DIMBLK
  1

  9
$DIMASO
 70
     1
  9
$DIMSHO
 70
     0
  9
$DIMPOST
  1

  9
$DIMAPOST
  1

  9
$DIMALT
 70
     0
  9
$DIMALTD
 70
     2
  9
$DIMALTF
 40
25.399999999999999
  9
$DIMLFAC
 40
1.0
  9
$DIMTOFL
 70
     1
  9
$DIMTVP
 40
1.6000000000000001
  9
$DIMTIX
 70
     1
  9
$DIMSOXD
 70
     0
  9
$DIMSAH
 70
     0
  9
$DIMBLK1
  1

  9
$DIMBLK2
  1

  9
$DIMSTYLE
  2
STANDARD
  9
$DIMCLRD
 70
     0
  9
$DIMCLRE
 70
     0
  9
$DIMCLRT
 70
     0
  9
$DIMTFAC
 40
1.0
  9
$DIMGAP
 40
0.09
  9
$LUNITS
 70
     2
  9
$LUPREC
 70
     4
  9
$SKETCHINC
 40
0.1
  9
$FILLETRAD
 40
0.0
  9
$AUNITS
 70
     0
  9
$AUPREC
 70
     4
  9
$MENU
  1
E:\r13\win\SUPPORT\ACAD
  9
$ELEVATION
 40
0.0
  9
$PELEVATION
 40
0.0
  9
$THICKNESS
 40
0.0
  9
$LIMCHECK
 70
     0
  9
$BLIPMODE
 70
     0
  9
$CHAMFERA
 40
0.0
  9
$CHAMFERB
 40
0.0
  9
$SKPOLY
 70
     0
  9
$TDCREATE
 40
2449839.7939004628
  9
$TDUPDATE
 40
2456597.5880866661
  9
$TDINDWG
 40
0.0004402546
  9
$TDUSRTIMER
 40
0.0004402546
  9
$USRTIMER
 70
     1
  9
$ANGBASE
 50
0.0
  9
$ANGDIR
 70
     0
  9
$PDMODE
 70
     0
  9
$PDSIZE
 40
0.0
  9
$PLINEWID
 40
0.0
  9
$COORDS
 70
     1
  9
$SPLFRAME
 70
     0
  9
$SPLINETYPE
 70
     6
  9
$SPLINESEGS
 70
     8
  9
$ATTDIA
 70
     0
  9
$ATTREQ
 70
     1
  9
$HANDLING
 70
     1
  9
$HANDSEED
  5
2D5
  9
$SURFTAB1
 70
     6
  9
$SURFTAB2
 70
     6
  9
$SURFTYPE
 70
     6
  9
$SURFU
 70
     6
  9
$SURFV
 70
     6
  9
$UCSNAME
  2

  9
$UCSORG
 10
0.0
 20
0.0
 30
0.0
  9
$UCSXDIR
 10
1.0
 20
0.0
 30
0.0
  9
$UCSYDIR
 10
0.0
 20
1.0
 30
0.0
  9
$PUCSNAME
  2

  9
$PUCSORG
 10
0.0
 20
0.0
 30
0.0
  9
$PUCSXDIR
 10
1.0
 20
0.0
 30
0.0
  9
$PUCSYDIR
 10
0.0
 20
1.0
 30
0.0
  9
$USERI1
 70
     0
  9
$USERI2
 70
     1
  9
$USERI3
 70
     1
  9
$USERI4
 70
     0
  9
$USERI5
 70
     0
  9
$USERR1
 40
0.0
  9
$USERR2
 40
0.0
  9
$USERR3
 40
0.0
  9
$USERR4
 40
0.0
  9
$USERR5
 40
0.0
  9
$WORLDVIEW
 70
     1
  9
$SHADEDGE
 70
     3
  9
$SHADEDIF
 70
    70
  9
$TILEMODE
 70
     1
  9
$MAXACTVP
 70
    16
  9
$PLIMCHECK
 70
     0
  9
$PEXTMIN
 10
1.0000000000000000E+020
 20
1.0000000000000000E+020
 30
1.0000000000000000E+020
  9
$PEXTMAX
 10
-1.0000000000000000E+020
 20
-1.0000000000000000E+020
 30
-1.0000000000000000E+020
  9
$PLIMMIN
 10
0.0
 20
0.0
  9
$PLIMMAX
 10
12.0
 20
9.0
  9
$UNITMODE
 70
     0
  9
$VISRETAIN
 70
     0
  9
$PLINEGEN
 70
     0
  9
$PSLTSCALE
 70
     0
  0
ENDSEC
  0
SECTION
  2
TABLES
  0
TABLE
  2
VPORT
 70
     1
  0
VPORT
  2
*ACTIVE
 70
     0
 10
0.0
 20
0.0
 11
1.0
 21
1.0
 12
187.49427839065231
 22
134.10366293909439
 13
0.0
 23
0.0
 14
10.0
 24
10.0
 15
10.0
 25
10.0
 16
0.0
 26
0.0
 36
1.0
 17
0.0
 27
0.0
 37
0.0
 40
277.29405978699532
 41
2.304913294797688
 42
50.0
 43
0.0
 44
0.0
 50
0.0
 51
0.0
 71
     0
 72
   500
 73
     1
 74
     0
 75
     0
 76
     0
 77
     0
 78
     2
  0
ENDTAB
  0
TABLE
  2
LTYPE
 70
     4
  0
LTYPE
  2
CONTINUOUS
 70
     0
  3
Solid Line
 72
    65
 73
     0
 40
0.0
  0
LTYPE
  2
CENTER
 70
     0
  3
____ _ ____ _ ____ _ ____ _ ____ _ ____ _ ____
 72
    65
 73
     4
 40
2.0
 49
1.25
 49
-0.25
 49
0.25
 49
-0.25
  0
LTYPE
  2
HIDDEN
 70
     0
  3
_ _ _ _ _ _ _ _ _ _ _ _ _ _ _ _ _ _ _ _ _ _ _
 72
    65
 73
     2
 40
0.375
 49
0.25
 49
-0.125
  0
LTYPE
  2
PHANTOM2
 70
     0
  3
___ _ _ ___ _ _ ___ _ _ ___ _ _
 72
    65
 73
     6
 40
1.25
 49
0.625
 49
-0.125
 49
0.125
 49
-0.125
 49
0.125
 49
-0.125
  0
ENDTAB
  0
TABLE
  2
LAYER
 70
     4
  0
LAYER
  2
0
 70
     0
 62
     7
  6
CONTINUOUS
  0
LAYER
  2
1
 70
     0
 62
     1
  6
CENTER
  0
LAYER
  2
2
 70
     0
 62
     2
  6
HIDDEN
  0
LAYER
  2
3
 70
     0
 62
     3
  6
CONTINUOUS
  0
ENDTAB
  0
TABLE
  2
STYLE
 70
     4
  0
STYLE
  2
STANDARD
 70
     0
 40
0.0
 41
1.0
 50
0.0
 71
     0
 42
5.0
  3
TXT
  4
BIGFONT
  0
STYLE
  2
SIM300
 70
     0
 40
0.0
 41
3.0
 50
0.0
 71
     0
 42
1.0
  3
SIMPLEX
  4

  0
STYLE
  2
SIM110
 70
     0
 40
0.0
 41
1.1000000000000001
 50
0.0
 71
     0
 42
1.3
  3
SIMPLEX
  4

  0
STYLE
  2
STANDARD1
 70
     0
 40
0.0
 41
1.0
 50
0.0
 71
     0
 42
3.0
  3
txt
  4

  0
ENDTAB
  0
TABLE
  2
VIEW
 70
     1
  0
VIEW
  2
ALL
 70
     0
 40
270.0
 10
220.99159663865549
 20
135.0
 41
0.0
 11
0.0
 21
0.0
 31
1.0
 12
0.0
 22
0.0
 32
0.0
 42
0.0
 43
0.0
 44
0.0
 50
0.0
 71
     0
  0
ENDTAB
  0
TABLE
  2
UCS
 70
     0
  0
ENDTAB
  0
TABLE
  2
APPID
 70
     3
  0
APPID
  2
ACAD
 70
     0
  0
APPID
  2
ACAD_MLEADERVER
 70
     0
  0
APPID
  2
ACAD_NAV_VCDISPLAY
 70
     0
  0
ENDTAB
  0
TABLE
  2
DIMSTYLE
 70
     1
  0
DIMSTYLE
  2
STANDARD
 70
     0
  3

  4

  5

  6

  7

 40
1.0
 41
0.18
 42
0.0625
 43
0.38
 44
0.18
 45
0.0
 46
0.0
 47
0.0
 48
0.0
140
0.18
141
0.09
142
0.0
143
25.399999999999999
144
1.0
145
0.0
146
1.0
147
0.09
 71
     0
 72
     0
 73
     1
 74
     1
 75
     0
 76
     0
 77
     0
 78
     0
170
     0
171
     2
172
     0
173
     0
174
     0
175
     0
176
     0
177
     0
178
     0
  0
ENDTAB
  0
ENDSEC
  0
SECTION
  2
BLOCKS
  0
BLOCK
  8
0
  2
$MODEL_SPACE
 70
     0
 10
0.0
 20
0.0
 30
0.0
  3
$MODEL_SPACE
  1

  0
ENDBLK
  5
163
  8
0
  0
BLOCK
 67
     1
  8
0
  2
$PAPER_SPACE
 70
     0
 10
0.0
 20
0.0
 30
0.0
  3
$PAPER_SPACE
  1

  0
ENDBLK
  5
161
 67
     1
  8
0
  0
ENDSEC
  0
SECTION
  2
ENTITIES
  0
LINE
  5
38
  8
0
 10
249.40137889688259
 20
207.1701646049377
 30
0.0
 11
257.90137889688282
 21
207.1701646049377
 31
0.0
  0
LINE
  5
39
  8
3
 10
249.40137889688259
 20
206.3581646049378
 30
0.0
 11
258.71337889688272
 21
206.3581646049378
 31
0.0
  0
LINE
  5
3A
  8
3
 10
249.40137889688259
 20
197.98216460493751
 30
0.0
 11
258.71337889688249
 21
197.98216460493759
 31
0.0
  0
LINE
  5
3B
  8
0
 10
249.40137889688251
 20
197.1701646049377
 30
0.0
 11
257.90137889688259
 21
197.1701646049377
 31
0.0
  0
LINE
  5
3C
  8
0
 10
241.40137889688259
 20
211.17016460493781
 30
0.0
 11
241.40137889688259
 21
193.17016460493781
 31
0.0
  0
LINE
  5
3D
  8
0
 10
240.4013788968827
 20
211.17016460493781
 30
0.0
 11
241.40137889688259
 21
211.17016460493781
 31
0.0
  0
LINE
  5
3E
  8
0
 10
240.4013788968827
 20
193.17016460493781
 30
0.0
 11
240.4013788968827
 21
211.17016460493781
 31
0.0
  0
LINE
  5
3F
  8
0
 10
241.40137889688259
 20
193.17016460493781
 30
0.0
 11
240.4013788968827
 21
193.17016460493781
 31
0.0
  0
LINE
  5
40
  8
0
 10
249.40137889688259
 20
193.9201646049377
 30
0.0
 11
249.40137889688259
 21
210.42016460493781
 31
0.0
  0
ARC
  5
41
  8
0
 10
253.82122310259709
 20
197.92016460493781
 30
0.0
 40
12.275506638416489
 50
159.7438419996065
 51
200.2561580003935
  0
LINE
  5
42
  8
0
 10
241.5457164641806
 20
193.6701646049377
 30
0.0
 11
241.40137889688259
 21
193.9201646049388
 31
0.0
  0
ARC
  5
43
  8
0
 10
236.98153469116869
 20
197.92016460493781
 30
0.0
 40
12.275506638416489
 50
339.7438419996065
 51
20.256158000393501
  0
LINE
  5
44
  8
0
 10
249.25704132958521
 20
193.6701646049377
 30
0.0
 11
249.40137889688319
 21
193.9201646049388
 31
0.0
  0
LINE
  5
45
  8
0
 10
241.5457164641806
 20
193.6701646049377
 30
0.0
 11
249.25704132958521
 21
193.6701646049377
 31
0.0
  0
LINE
  5
46
  8
0
 10
242.304905842735
 20
202.17016460493781
 30
0.0
 11
248.49785195103109
 21
202.17016460493781
 31
0.0
  0
LINE
  5
47
  8
0
 10
241.5457164641806
 20
210.6701646049379
 30
0.0
 11
249.25704132958521
 21
210.67016460493781
 31
0.0
  0
ARC
  5
48
  8
0
 10
236.98153469116869
 20
206.42016460493781
 30
0.0
 40
12.275506638416489
 50
339.7438419996065
 51
20.256158000393501
  0
LINE
  5
49
  8
0
 10
249.25704132958521
 20
210.6701646049379
 30
0.0
 11
249.40137889688319
 21
210.4201646049367
 31
0.0
  0
LINE
  5
4A
  8
0
 10
241.5457164641806
 20
210.6701646049379
 30
0.0
 11
241.40137889688259
 21
210.4201646049367
 31
0.0
  0
ARC
  5
4B
  8
0
 10
253.82122310259709
 20
206.42016460493781
 30
0.0
 40
12.275506638416489
 50
159.7438419996065
 51
200.2561580003935
  0
LINE
  5
4C
  8
0
 10
237.40137889688259
 20
110.6701646049378
 30
0.0
 11
237.40137889688259
 21
217.67016460493781
 31
0.0
  0
LINE
  5
4D
  8
1
 10
216.40137889688259
 20
202.1701646049377
 30
0.0
 11
264.40137889688259
 21
202.17016460493781
 31
0.0
  0
ARC
  5
4E
  8
0
 10
234.4756604823485
 20
202.1701646049377
 30
0.0
 40
13.5
 50
151.64803730892271
 51
175.7519773332713
  0
LINE
  5
4F
  8
0
 10
221.0127484645121
 20
203.1701646049377
 30
0.0
 11
223.0867715934597
 21
203.1701646049377
 31
0.0
  0
LINE
  5
50
  8
0
 10
223.0867715934597
 20
203.1701646049377
 30
0.0
 11
223.0867715934597
 21
201.1701646049377
 31
0.0
  0
LINE
  5
51
  8
0
 10
221.0127484645119
 20
201.1701646049377
 30
0.0
 11
223.0867715934597
 21
201.1701646049377
 31
0.0
  0
ARC
  5
52
  8
0
 10
234.4756604823485
 20
202.1701646049377
 30
0.0
 40
13.5
 50
184.24802266672879
 51
208.3519626910707
  0
LINE
  5
53
  8
0
 10
259.4013788968827
 20
205.6701646049377
 30
0.0
 11
259.4013788968827
 21
198.6701646049377
 31
0.0
  0
LINE
  5
54
  8
0
 10
238.4013788968827
 20
197.1701646049377
 30
0.0
 11
240.4013788968827
 21
197.1701646049377
 31
0.0
  0
LINE
  5
55
  8
3
 10
238.4013788968827
 20
197.98216460493759
 30
0.0
 11
240.4013788968827
 21
197.98216460493751
 31
0.0
  0
LINE
  5
56
  8
3
 10
238.4013788968827
 20
206.3581646049378
 30
0.0
 11
240.4013788968827
 21
206.3581646049378
 31
0.0
  0
LINE
  5
57
  8
0
 10
238.4013788968827
 20
207.1701646049377
 30
0.0
 11
240.4013788968827
 21
207.17016460493761
 31
0.0
  0
LINE
  5
58
  8
0
 10
257.90137889688282
 20
207.1701646049377
 30
0.0
 11
259.4013788968827
 21
205.6701646049377
 31
0.0
  0
LINE
  5
59
  8
0
 10
259.4013788968827
 20
198.6701646049377
 30
0.0
 11
257.90137889688259
 21
197.1701646049377
 31
0.0
  0
LINE
  5
5A
  8
0
 10
257.90137889688282
 20
207.1701646049377
 30
0.0
 11
257.90137889688259
 21
197.1701646049377
 31
0.0
  0
LINE
  5
5B
  8
0
 10
238.4013788968827
 20
197.1701646049377
 30
0.0
 11
238.4013788968827
 21
207.1701646049377
 31
0.0
  0
LINE
  5
5C
  8
0
 10
238.4013788968827
 20
197.98216460493759
 30
0.0
 11
237.40137889688259
 21
197.98216460493771
 31
0.0
  0
LINE
  5
5D
  8
0
 10
238.4013788968827
 20
206.3581646049378
 30
0.0
 11
237.40137889688259
 21
206.3581646049378
 31
0.0
  0
CIRCLE
  5
5E
  8
0
 10
144.9400479616308
 20
202.17016460493781
 30
0.0
 40
8.0
  0
LINE
  5
5F
  8
0
 10
137.76068797089661
 20
201.17016460493781
 30
0.0
 11
152.11940795236461
 21
201.17016460493781
 31
0.0
  0
LINE
  5
60
  8
0
 10
137.76068797089661
 20
203.17016460493781
 30
0.0
 11
152.11940795236561
 21
203.17016460493781
 31
0.0
  0
ARC
  5
61
  8
0
 10
144.9400479616308
 20
202.17016460493781
 30
0.0
 40
7.248669524577962
 50
172.07039368118339
 51
187.92960631881661
  0
ARC
  5
62
  8
0
 10
144.9400479616308
 20
202.17016460493781
 30
0.0
 40
7.248669524577962
 50
352.07039368118348
 51
7.9296063188165826
  0
CIRCLE
  5
63
  8
0
 10
144.9400479616308
 20
126.1701646049377
 30
0.0
 40
8.0
  0
LINE
  5
64
  8
0
 10
137.76068797089661
 20
125.1701646049378
 30
0.0
 11
152.11940795236461
 21
125.1701646049378
 31
0.0
  0
LINE
  5
65
  8
0
 10
137.76068797089661
 20
127.1701646049377
 30
0.0
 11
152.11940795236561
 21
127.1701646049377
 31
0.0
  0
ARC
  5
66
  8
0
 10
144.9400479616308
 20
126.1701646049377
 30
0.0
 40
7.248669524577962
 50
172.07039368118339
 51
187.92960631881661
  0
ARC
  5
67
  8
0
 10
144.9400479616308
 20
126.1701646049377
 30
0.0
 40
7.248669524577962
 50
352.07039368118348
 51
7.9296063188165826
  0
LINE
  5
68
  8
0
 10
153.44004796163091
 20
143.42016460493761
 30
0.0
 11
136.440047961631
 21
143.42016460493761
 31
0.0
  0
LINE
  5
69
  8
0
 10
153.44004796163091
 20
144.92016460493761
 30
0.0
 11
136.440047961631
 21
144.92016460493761
 31
0.0
  0
LINE
  5
6A
  8
0
 10
153.44004796163091
 20
183.52016460493761
 30
0.0
 11
136.440047961631
 21
183.52016460493761
 31
0.0
  0
LINE
  5
6B
  8
0
 10
153.44004796163091
 20
184.8201646049377
 30
0.0
 11
136.440047961631
 21
184.8201646049377
 31
0.0
  0
TEXT
  5
6C
  8
0
 10
137.14004796163101
 20
185.3701646049376
 30
0.0
 40
1.1999999999999991
  1
ELESA
 50
360.0
 41
3.0
  7
SIM300
 72
     1
 11
144.940047961631
 21
185.3701646049376
 31
0.0
  0
TEXT
  5
6D
  8
0
 10
141.0245717711548
 20
140.17016460493761
 30
0.0
 40
1.3
  1
HCX 76
 50
360.0
 41
1.1000000000000001
  7
SIM110
 72
     1
 11
144.940047961631
 21
140.17016460493761
 31
0.0
  0
ARC
  5
6E
  8
0
 10
137.440047961631
 20
190.17016460493761
 30
0.0
 40
1.0
 50
89.999999999999986
 51
179.99999999999989
  0
LINE
  5
6F
  8
0
 10
137.440047961631
 20
191.17016460493761
 30
0.0
 11
152.44004796163111
 21
191.17016460493761
 31
0.0
  0
ARC
  5
70
  8
0
 10
152.44004796163111
 20
190.17016460493761
 30
0.0
 40
1.0
 50
359.99999999999989
 51
89.999999999999986
  0
LINE
  5
71
  8
0
 10
153.44004796163111
 20
190.17016460493761
 30
0.0
 11
153.44004796163091
 21
138.17016460493761
 31
0.0
  0
ARC
  5
72
  8
0
 10
152.440047961631
 20
138.17016460493761
 30
0.0
 40
1.0
 50
270.0
 51
360.0
  0
LINE
  5
73
  8
0
 10
136.440047961631
 20
138.17016460493761
 30
0.0
 11
136.440047961631
 21
190.17016460493761
 31
0.0
  0
LINE
  5
74
  8
0
 10
152.440047961631
 20
137.17016460493761
 30
0.0
 11
137.440047961631
 21
137.17016460493761
 31
0.0
  0
ARC
  5
75
  8
0
 10
137.440047961631
 20
138.17016460493761
 30
0.0
 40
1.0
 50
180.0
 51
270.0
  0
LINE
  5
76
  8
0
 10
235.40137889688259
 20
110.6701646049376
 30
0.0
 11
235.40137889688259
 21
217.67016460493781
 31
0.0
  0
LINE
  5
77
  8
1
 10
163.4400479616308
 20
164.17016460493781
 30
0.0
 11
126.4400479616308
 21
164.17016460493781
 31
0.0
  0
LINE
  5
78
  8
1
 10
242.4013788968827
 20
164.17016460493781
 30
0.0
 11
216.40137889688259
 21
164.17016460493781
 31
0.0
  0
LINE
  5
79
  8
0
 10
221.4013788968827
 20
134.42016460494091
 30
0.0
 11
221.40137889688259
 21
193.92016460493909
 31
0.0
  0
LINE
  5
7A
  8
0
 10
221.40137889688259
 20
210.42016460493909
 30
0.0
 11
221.4013788968827
 21
212.91887591090219
 31
0.0
  0
ARC
  5
7B
  8
0
 10
210.70424604981011
 20
202.17016460493909
 30
0.0
 40
13.50892857142782
 50
322.3593439814627
 51
37.640656018528169
  0
LINE
  5
7C
  8
0
 10
157.4400479616308
 20
110.6701646049378
 30
0.0
 11
132.4400479616308
 21
110.6701646049378
 31
0.0
  0
LINE
  5
7D
  8
0
 10
158.4400479616308
 20
111.6701646049378
 30
0.0
 11
157.4400479616308
 21
110.6701646049378
 31
0.0
  0
LINE
  5
7E
  8
0
 10
132.4400479616308
 20
110.6701646049378
 30
0.0
 11
131.4400479616308
 21
111.6701646049378
 31
0.0
  0
ARC
  5
7F
  8
0
 10
144.9400479616308
 20
89.254156820550733
 30
0.0
 40
26.167296478423221
 50
58.94162306163259
 51
121.0583769383674
  0
ARC
  5
80
  8
0
 10
144.9400479616308
 20
90.046842109457657
 30
0.0
 40
24.115792144413891
 50
58.779531534717798
 51
121.22046846528239
  0
CIRCLE
  5
81
  8
0
 10
144.9400479616308
 20
126.1701646049377
 30
0.0
 40
8.25
  0
LINE
  5
82
  8
1
 10
131.6900479616308
 20
126.1701646049377
 30
0.0
 11
158.1900479616308
 21
126.1701646049377
 31
0.0
  0
LINE
  5
83
  8
1
 10
144.9400479616308
 20
222.67016460493781
 30
0.0
 11
144.94004796163111
 21
105.6701646049376
 31
0.0
  0
LINE
  5
84
  8
1
 10
131.6900479616308
 20
202.17016460493781
 30
0.0
 11
158.1900479616308
 21
202.17016460493781
 31
0.0
  0
CIRCLE
  5
85
  8
0
 10
144.9400479616308
 20
202.17016460493781
 30
0.0
 40
8.25
  0
ARC
  5
86
  8
0
 10
144.9400479616308
 20
238.29348710041791
 30
0.0
 40
24.115792144413891
 50
238.77953153471759
 51
301.22046846528218
  0
ARC
  5
87
  8
0
 10
144.9400479616308
 20
239.08617238932479
 30
0.0
 40
26.167296478423221
 50
238.94162306163261
 51
301.05837693836742
  0
LINE
  5
88
  8
0
 10
235.40137889688259
 20
216.67016460493801
 30
0.0
 11
221.4013788968827
 21
212.9188759109021
 31
0.0
  0
LINE
  5
89
  8
0
 10
221.4013788968827
 20
212.91887591090219
 30
0.0
 11
222.36730472317171
 21
214.17769495600481
 31
0.0
  0
LINE
  5
8A
  8
0
 10
235.40137889688259
 20
217.6701646049379
 30
0.0
 11
222.36730472317171
 21
214.17769495600481
 31
0.0
  0
LINE
  5
8B
  8
0
 10
237.40137889688259
 20
216.67016460493781
 30
0.0
 11
235.40137889688259
 21
216.6701646049379
 31
0.0
  0
LINE
  5
8C
  8
0
 10
237.40137889688259
 20
217.67016460493781
 30
0.0
 11
235.40137889688259
 21
217.6701646049379
 31
0.0
  0
LINE
  5
8D
  8
0
 10
132.4400479616308
 20
217.67016460493781
 30
0.0
 11
131.4400479616308
 21
216.67016460493781
 31
0.0
  0
LINE
  5
8E
  8
0
 10
158.4400479616308
 20
216.67016460493781
 30
0.0
 11
157.4400479616308
 21
217.67016460493781
 31
0.0
  0
LINE
  5
8F
  8
0
 10
157.4400479616308
 20
217.67016460493781
 30
0.0
 11
132.4400479616308
 21
217.67016460493781
 31
0.0
  0
LINE
  5
90
  8
0
 10
131.4400479616308
 20
111.6701646049376
 30
0.0
 11
131.4400479616308
 21
216.67016460493781
 31
0.0
  0
LINE
  5
91
  8
0
 10
158.4400479616308
 20
111.6701646049376
 30
0.0
 11
158.4400479616308
 21
216.67016460493781
 31
0.0
  0
LINE
  5
92
  8
2
 10
156.4400479616329
 20
64.869259256339319
 30
0.0
 11
133.4400479616279
 21
64.869259256339205
 31
0.0
  0
ARC
  5
93
  8
2
 10
144.940047961631
 20
56.848425923010488
 30
0.0
 40
14.020833333330669
 50
34.894376846544631
 51
145.10562315345811
  0
LINE
  5
94
  8
2
 10
133.440047961631
 20
64.869259256339319
 30
0.0
 11
133.440047961631
 21
61.869259256339319
 31
0.0
  0
LINE
  5
95
  8
2
 10
156.440047961631
 20
64.869259256339319
 30
0.0
 11
156.440047961631
 21
61.869259256339319
 31
0.0
  0
LINE
  5
96
  8
0
 10
149.940047961631
 20
47.8692592563402
 30
0.0
 11
149.94004796163091
 21
39.3692592563402
 31
0.0
  0
LINE
  5
97
  8
3
 10
149.1280479616311
 20
47.8692592563402
 30
0.0
 11
149.12804796163101
 21
38.557259256340302
 31
0.0
  0
LINE
  5
98
  8
3
 10
140.75204796163089
 20
47.869259256340172
 30
0.0
 11
140.75204796163089
 21
38.557259256340423
 31
0.0
  0
LINE
  5
99
  8
0
 10
139.94004796163091
 20
47.869259256340172
 30
0.0
 11
139.94004796163091
 21
39.369259256340321
 31
0.0
  0
ARC
  5
9A
  8
0
 10
137.57883202946331
 20
51.380023016718781
 30
0.0
 40
4.3448986723233833
 50
55.615752531994922
 51
115.6157525321085
  0
ARC
  5
9B
  8
0
 10
144.94004796163051
 20
39.484111067575562
 30
0.0
 40
16.24081062146659
 50
72.412046226028323
 51
107.58795377397161
  0
LINE
  5
9C
  8
0
 10
135.1250933854075
 20
54.965732310488193
 30
0.0
 11
136.690047961631
 21
55.869259256340399
 31
0.0
  0
LINE
  5
9D
  8
0
 10
135.1250933854075
 20
48.772786202192151
 30
0.0
 11
136.690047961631
 21
47.869259256339937
 31
0.0
  0
ARC
  5
9E
  8
0
 10
137.57883202946331
 20
52.35849549596157
 30
0.0
 40
4.3448986723233833
 50
244.38424746789141
 51
304.38424746800513
  0
ARC
  5
9F
  8
0
 10
144.94004796163051
 20
64.254407445104789
 30
0.0
 40
16.24081062146659
 50
252.41204622602839
 51
287.58795377397172
  0
LINE
  5
A0
  8
0
 10
135.1250933854075
 20
54.965732310488129
 30
0.0
 11
135.1250933854075
 21
48.772786202192208
 31
0.0
  0
LINE
  5
A1
  8
0
 10
140.03257067351819
 20
54.965732310488193
 30
0.0
 11
140.03257067351879
 21
48.77278620219198
 31
0.0
  0
LINE
  5
A2
  8
0
 10
149.84752524974391
 20
54.965732310488193
 30
0.0
 11
149.8475252497432
 21
48.77278620219198
 31
0.0
  0
LINE
  5
A3
  8
0
 10
154.75500253785461
 20
54.965732310488129
 30
0.0
 11
154.75500253785461
 21
48.772786202192208
 31
0.0
  0
ARC
  5
A4
  8
0
 10
152.30126389379879
 20
52.35849549596157
 30
0.0
 40
4.3448986723233833
 50
235.6157525319949
 51
295.6157525321085
  0
LINE
  5
A5
  8
0
 10
154.75500253785461
 20
48.772786202192151
 30
0.0
 11
153.190047961631
 21
47.869259256339937
 31
0.0
  0
LINE
  5
A6
  8
0
 10
154.75500253785461
 20
54.965732310488193
 30
0.0
 11
153.190047961631
 21
55.869259256340399
 31
0.0
  0
ARC
  5
A7
  8
0
 10
152.30126389379879
 20
51.380023016718781
 30
0.0
 40
4.3448986723233833
 50
64.384247467891441
 51
124.384247468005
  0
LINE
  5
A8
  8
0
 10
153.19004796163139
 20
47.869259256340172
 30
0.0
 11
136.69004796163071
 21
47.869259256340172
 31
0.0
  0
LINE
  5
A9
  8
0
 10
153.940047961631
 20
55.869259256340278
 30
0.0
 11
135.94004796163111
 21
55.869259256340278
 31
0.0
  0
LINE
  5
AA
  8
0
 10
153.940047961631
 20
56.869259256340278
 30
0.0
 11
153.940047961631
 21
55.869259256340278
 31
0.0
  0
LINE
  5
AB
  8
0
 10
135.94004796163111
 20
55.869259256340278
 30
0.0
 11
135.94004796163111
 21
56.869259256340278
 31
0.0
  0
LINE
  5
AC
  8
0
 10
135.94004796163111
 20
56.869259256340278
 30
0.0
 11
153.940047961631
 21
56.869259256340278
 31
0.0
  0
LINE
  5
AD
  8
0
 10
152.32918090902641
 20
73.669259256340268
 30
0.0
 11
152.94004796163091
 21
73.669259256340268
 31
0.0
  0
LINE
  5
AE
  8
0
 10
136.94004796163091
 20
73.669259256340268
 30
0.0
 11
137.55091501423561
 21
73.669259256340268
 31
0.0
  0
LINE
  5
AF
  8
0
 10
136.94004796163091
 20
73.66925925634024
 30
0.0
 11
136.94004796163091
 21
73.245694764626975
 31
0.0
  0
LINE
  5
B0
  8
0
 10
152.94004796163091
 20
73.669259256340268
 30
0.0
 11
152.940047961631
 21
73.245694764627331
 31
0.0
  0
LINE
  5
B1
  8
0
 10
148.44004796163091
 20
37.869259256340257
 30
0.0
 11
141.44004796163091
 21
37.869259256340321
 31
0.0
  0
LINE
  5
B2
  8
0
 10
139.940047961631
 20
58.869259256340257
 30
0.0
 11
139.94004796163091
 21
56.869259256340278
 31
0.0
  0
LINE
  5
B3
  8
3
 10
140.75204796163089
 20
58.869259256340257
 30
0.0
 11
140.75204796163089
 21
56.869259256340321
 31
0.0
  0
LINE
  5
B4
  8
3
 10
149.12804796163101
 20
58.869259256340278
 30
0.0
 11
149.12804796163101
 21
56.869259256340321
 31
0.0
  0
LINE
  5
B5
  8
0
 10
149.94004796163091
 20
58.869259256340257
 30
0.0
 11
149.940047961631
 21
56.869259256340278
 31
0.0
  0
LINE
  5
B6
  8
0
 10
149.94004796163091
 20
39.3692592563402
 30
0.0
 11
148.44004796163091
 21
37.869259256340257
 31
0.0
  0
LINE
  5
B7
  8
0
 10
141.44004796163091
 20
37.869259256340321
 30
0.0
 11
139.94004796163091
 21
39.369259256340321
 31
0.0
  0
LINE
  5
B8
  8
0
 10
149.94004796163091
 20
39.3692592563402
 30
0.0
 11
139.94004796163091
 21
39.369259256340321
 31
0.0
  0
LINE
  5
B9
  8
0
 10
139.940047961631
 20
58.869259256340257
 30
0.0
 11
149.94004796163091
 21
58.869259256340257
 31
0.0
  0
LINE
  5
BA
  8
0
 10
140.75204796163089
 20
58.869259256340257
 30
0.0
 11
140.75204796163089
 21
59.869259256339319
 31
0.0
  0
LINE
  5
BB
  8
0
 10
149.12804796163101
 20
58.869259256340257
 30
0.0
 11
149.12804796163101
 21
59.869259256339319
 31
0.0
  0
ARC
  5
BC
  8
0
 10
144.940047961631
 20
62.794977670874481
 30
0.0
 40
13.5
 50
53.65879690621513
 51
126.3412030937849
  0
LINE
  5
BD
  8
1
 10
144.940047961631
 20
80.869259256341934
 30
0.0
 11
144.94004796163119
 21
32.869259256340257
 31
0.0
  0
ARC
  5
BE
  8
0
 10
144.940047961631
 20
62.392391524274672
 30
0.0
 40
12.51094190577809
 50
357.60353677282802
 51
182.39646322717201
  0
ARC
  5
BF
  8
0
 10
144.940047961631
 20
62.360330684912242
 30
0.0
 40
13.5089285714286
 50
357.9167466479737
 51
182.0832533520263
  0
LINE
  5
C0
  8
0
 10
132.440047961631
 20
59.869259256339319
 30
0.0
 11
132.440047961631
 21
61.869259256339319
 31
0.0
  0
LINE
  5
C1
  8
0
 10
157.440047961631
 20
61.869259256339319
 30
0.0
 11
157.440047961631
 21
59.869259256339319
 31
0.0
  0
LINE
  5
C2
  8
0
 10
131.440047961631
 20
61.869259256339319
 30
0.0
 11
158.44004796163091
 21
61.869259256339319
 31
0.0
  0
LINE
  5
C3
  8
0
 10
131.440047961631
 20
59.869259256339319
 30
0.0
 11
131.440047961631
 21
61.869259256339319
 31
0.0
  0
LINE
  5
C4
  8
0
 10
158.44004796163091
 20
59.869259256339319
 30
0.0
 11
131.440047961631
 21
59.869259256339319
 31
0.0
  0
LINE
  5
C5
  8
0
 10
158.44004796163091
 20
61.869259256339319
 30
0.0
 11
158.44004796163091
 21
59.869259256339319
 31
0.0
  0
LINE
  5
C6
  8
0
 10
237.40137889688259
 20
110.6701646049378
 30
0.0
 11
235.40137889688259
 21
110.6701646049376
 31
0.0
  0
LINE
  5
C7
  8
0
 10
237.40137889688259
 20
111.6701646049378
 30
0.0
 11
235.40137889688259
 21
111.6701646049376
 31
0.0
  0
LINE
  5
C8
  8
0
 10
235.40137889688259
 20
110.6701646049376
 30
0.0
 11
222.36730472317171
 21
114.16263425387081
 31
0.0
  0
LINE
  5
C9
  8
0
 10
221.4013788968827
 20
115.4214532989733
 30
0.0
 11
222.36730472317171
 21
114.16263425387081
 31
0.0
  0
LINE
  5
CA
  8
0
 10
235.40137889688259
 20
111.6701646049375
 30
0.0
 11
221.4013788968827
 21
115.4214532989734
 31
0.0
  0
ARC
  5
CB
  8
0
 10
210.70424604981011
 20
126.1701646049364
 30
0.0
 40
13.50892857142782
 50
322.35934398147191
 51
37.640656018537349
  0
LINE
  5
CC
  8
0
 10
221.40137889688259
 20
117.9201646049364
 30
0.0
 11
221.4013788968827
 21
115.4214532989733
 31
0.0
  0
LINE
  5
CD
  8
0
 10
238.4013788968827
 20
121.98216460493769
 30
0.0
 11
237.40137889688259
 21
121.98216460493769
 31
0.0
  0
LINE
  5
CE
  8
0
 10
238.4013788968827
 20
130.35816460493791
 30
0.0
 11
237.40137889688259
 21
130.3581646049378
 31
0.0
  0
LINE
  5
CF
  8
0
 10
238.4013788968827
 20
131.17016460493781
 30
0.0
 11
238.4013788968827
 21
121.1701646049378
 31
0.0
  0
LINE
  5
D0
  8
0
 10
257.90137889688282
 20
121.1701646049378
 30
0.0
 11
257.90137889688259
 21
131.17016460493781
 31
0.0
  0
LINE
  5
D1
  8
0
 10
259.4013788968827
 20
129.67016460493781
 30
0.0
 11
257.90137889688259
 21
131.17016460493781
 31
0.0
  0
LINE
  5
D2
  8
0
 10
257.90137889688282
 20
121.1701646049378
 30
0.0
 11
259.4013788968827
 21
122.6701646049378
 31
0.0
  0
LINE
  5
D3
  8
0
 10
238.4013788968827
 20
121.1701646049378
 30
0.0
 11
240.4013788968827
 21
121.1701646049379
 31
0.0
  0
LINE
  5
D4
  8
3
 10
238.4013788968827
 20
121.98216460493769
 30
0.0
 11
240.4013788968827
 21
121.98216460493779
 31
0.0
  0
LINE
  5
D5
  8
3
 10
238.4013788968827
 20
130.35816460493791
 30
0.0
 11
240.4013788968827
 21
130.358164604938
 31
0.0
  0
LINE
  5
D6
  8
0
 10
238.4013788968827
 20
131.17016460493781
 30
0.0
 11
240.4013788968827
 21
131.17016460493781
 31
0.0
  0
LINE
  5
D7
  8
0
 10
259.4013788968827
 20
122.6701646049378
 30
0.0
 11
259.4013788968827
 21
129.67016460493781
 31
0.0
  0
ARC
  5
D8
  8
0
 10
234.4756604823485
 20
126.1701646049378
 30
0.0
 40
13.5
 50
151.6480373089293
 51
175.75197733327121
  0
LINE
  5
D9
  8
0
 10
221.0127484645119
 20
127.1701646049378
 30
0.0
 11
223.0867715934597
 21
127.1701646049378
 31
0.0
  0
LINE
  5
DA
  8
0
 10
223.0867715934597
 20
125.1701646049378
 30
0.0
 11
223.0867715934597
 21
127.1701646049378
 31
0.0
  0
LINE
  5
DB
  8
0
 10
221.0127484645121
 20
125.1701646049378
 30
0.0
 11
223.0867715934597
 21
125.1701646049378
 31
0.0
  0
ARC
  5
DC
  8
0
 10
234.4756604823485
 20
126.1701646049378
 30
0.0
 40
13.5
 50
184.2480226667287
 51
208.35196269107729
  0
LINE
  5
DD
  8
1
 10
216.40137889688259
 20
126.1701646049378
 30
0.0
 11
264.40137889688259
 21
126.1701646049377
 31
0.0
  0
ARC
  5
DE
  8
0
 10
253.82122310259709
 20
121.9201646049377
 30
0.0
 40
12.275506638416489
 50
159.7438419996065
 51
200.2561580003935
  0
LINE
  5
DF
  8
0
 10
241.5457164641806
 20
117.6701646049377
 30
0.0
 11
241.40137889688259
 21
117.9201646049388
 31
0.0
  0
LINE
  5
E0
  8
0
 10
249.25704132958521
 20
117.6701646049377
 30
0.0
 11
249.40137889688319
 21
117.9201646049388
 31
0.0
  0
ARC
  5
E1
  8
0
 10
236.98153469116869
 20
121.9201646049377
 30
0.0
 40
12.275506638416489
 50
339.74384199960662
 51
20.256158000393519
  0
LINE
  5
E2
  8
0
 10
241.5457164641806
 20
117.6701646049377
 30
0.0
 11
249.25704132958521
 21
117.6701646049377
 31
0.0
  0
LINE
  5
E3
  8
0
 10
242.304905842735
 20
126.1701646049377
 30
0.0
 11
248.49785195103109
 21
126.1701646049377
 31
0.0
  0
LINE
  5
E4
  8
0
 10
241.5457164641806
 20
134.67016460493781
 30
0.0
 11
249.25704132958521
 21
134.67016460493781
 31
0.0
  0
LINE
  5
E5
  8
0
 10
249.25704132958521
 20
134.67016460493781
 30
0.0
 11
249.40137889688319
 21
134.4201646049367
 31
0.0
  0
ARC
  5
E6
  8
0
 10
236.98153469116869
 20
130.42016460493781
 30
0.0
 40
12.275506638416489
 50
339.74384199960662
 51
20.256158000393519
  0
LINE
  5
E7
  8
0
 10
241.5457164641806
 20
134.67016460493781
 30
0.0
 11
241.40137889688259
 21
134.4201646049367
 31
0.0
  0
ARC
  5
E8
  8
0
 10
253.82122310259709
 20
130.42016460493781
 30
0.0
 40
12.275506638416489
 50
159.7438419996065
 51
200.2561580003935
  0
LINE
  5
E9
  8
0
 10
249.40137889688259
 20
134.42016460493781
 30
0.0
 11
249.40137889688259
 21
117.9201646049378
 31
0.0
  0
LINE
  5
EA
  8
0
 10
241.40137889688259
 20
135.17016460493781
 30
0.0
 11
240.4013788968827
 21
135.17016460493781
 31
0.0
  0
LINE
  5
EB
  8
0
 10
240.4013788968827
 20
135.17016460493781
 30
0.0
 11
240.4013788968827
 21
117.1701646049378
 31
0.0
  0
LINE
  5
EC
  8
0
 10
240.4013788968827
 20
117.1701646049378
 30
0.0
 11
241.40137889688259
 21
117.1701646049378
 31
0.0
  0
LINE
  5
ED
  8
0
 10
241.40137889688259
 20
117.1701646049378
 30
0.0
 11
241.40137889688259
 21
135.17016460493781
 31
0.0
  0
LINE
  5
EE
  8
0
 10
249.40137889688251
 20
131.17016460493781
 30
0.0
 11
257.90137889688259
 21
131.17016460493781
 31
0.0
  0
LINE
  5
EF
  8
3
 10
249.40137889688259
 20
130.358164604938
 30
0.0
 11
258.71337889688249
 21
130.35816460493791
 31
0.0
  0
LINE
  5
F0
  8
3
 10
249.40137889688259
 20
121.98216460493779
 30
0.0
 11
258.71337889688272
 21
121.98216460493769
 31
0.0
  0
LINE
  5
F1
  8
0
 10
249.40137889688259
 20
121.1701646049379
 30
0.0
 11
257.90137889688282
 21
121.1701646049378
 31
0.0
  0
SOLID
  5
FB
  8
0
 10
136.440047961631
 20
184.8201646049377
 30
0.0
 11
136.440047961631
 21
183.52016460493769
 31
0.0
 12
153.44004796163111
 22
184.8201646049377
 32
0.0
 13
153.44004796163111
 23
183.52016460493769
 33
0.0
  0
SOLID
  5
FC
  8
0
 10
136.440047961631
 20
144.92016460493761
 30
0.0
 11
136.440047961631
 21
143.42016460493761
 31
0.0
 12
153.440047961631
 22
144.92016460493761
 32
0.0
 13
153.440047961631
 23
143.42016460493761
 33
0.0
  0
TEXT
  5
26F
  8
0
 62
     3
 10
0.0
 20
0.0
 30
0.0
 40
10.0
  1
LR-76
  7
STANDARD1
  0
ENDSEC
  0
EOF
