  0
SECTION
  2
HEADER
  9
$ACADVER
  1
AC1009
  9
$INSBASE
 10
0.0
 20
0.0
 30
0.0
  9
$EXTMIN
 10
0.0
 20
-2.960436562073669
 30
0.0
  9
$EXTMAX
 10
173.0
 20
251.0
 30
0.0
  9
$LIMMIN
 10
0.0
 20
0.0
  9
$LIMMAX
 10
750.0
 20
540.0
  9
$ORTHOMODE
 70
     1
  9
$REGENMODE
 70
     1
  9
$FILLMODE
 70
     1
  9
$QTEXTMODE
 70
     0
  9
$MIRRTEXT
 70
     0
  9
$DRAGMODE
 70
     2
  9
$LTSCALE
 40
10.0
  9
$OSMODE
 70
    37
  9
$ATTMODE
 70
     1
  9
$TEXTSIZE
 40
0.2
  9
$TRACEWID
 40
0.05
  9
$TEXTSTYLE
  7
STANDARD
  9
$CLAYER
  8
0
  9
$CELTYPE
  6
BYLAYER
  9
$CECOLOR
 62
   256
  9
$DIMSCALE
 40
2.0
  9
$DIMASZ
 40
3.0
  9
$DIMEXO
 40
2.0
  9
$DIMDLI
 40
0.38
  9
$DIMRND
 40
0.0
  9
$DIMDLE
 40
0.0
  9
$DIMEXE
 40
2.0
  9
$DIMTP
 40
0.0
  9
$DIMTM
 40
0.0
  9
$DIMTXT
 40
3.2000000000000002
  9
$DIMCEN
 40
0.0
  9
$DIMTSZ
 40
0.0
  9
$DIMTOL
 70
     0
  9
$DIMLIM
 70
     0
  9
$DIMTIH
 70
     0
  9
$DIMTOH
 70
     0
  9
$DIMSE1
 70
     0
  9
$DIMSE2
 70
     0
  9
$DIMTAD
 70
     1
  9
$DIMZIN
 70
     0
  9
$DIMBLK
  1

  9
$DIMASO
 70
     1
  9
$DIMSHO
 70
     0
  9
$DIMPOST
  1

  9
$DIMAPOST
  1

  9
$DIMALT
 70
     0
  9
$DIMALTD
 70
     2
  9
$DIMALTF
 40
25.399999999999999
  9
$DIMLFAC
 40
1.0
  9
$DIMTOFL
 70
     1
  9
$DIMTVP
 40
1.6000000000000001
  9
$DIMTIX
 70
     1
  9
$DIMSOXD
 70
     0
  9
$DIMSAH
 70
     0
  9
$DIMBLK1
  1

  9
$DIMBLK2
  1

  9
$DIMSTYLE
  2
STANDARD
  9
$DIMCLRD
 70
     0
  9
$DIMCLRE
 70
     0
  9
$DIMCLRT
 70
     0
  9
$DIMTFAC
 40
1.0
  9
$DIMGAP
 40
0.09
  9
$LUNITS
 70
     2
  9
$LUPREC
 70
     1
  9
$SKETCHINC
 40
0.1
  9
$FILLETRAD
 40
0.0
  9
$AUNITS
 70
     0
  9
$AUPREC
 70
     1
  9
$MENU
  1
E:\r13\win\SUPPORT\ACAD
  9
$ELEVATION
 40
0.0
  9
$PELEVATION
 40
0.0
  9
$THICKNESS
 40
0.0
  9
$LIMCHECK
 70
     0
  9
$BLIPMODE
 70
     0
  9
$CHAMFERA
 40
0.0
  9
$CHAMFERB
 40
0.0
  9
$SKPOLY
 70
     0
  9
$TDCREATE
 40
2451614.5541212969
  9
$TDUPDATE
 40
2457163.6980518168
  9
$TDINDWG
 40
0.1616955324
  9
$TDUSRTIMER
 40
0.1616955324
  9
$USRTIMER
 70
     1
  9
$ANGBASE
 50
0.0
  9
$ANGDIR
 70
     0
  9
$PDMODE
 70
     0
  9
$PDSIZE
 40
0.0
  9
$PLINEWID
 40
0.0
  9
$COORDS
 70
     1
  9
$SPLFRAME
 70
     0
  9
$SPLINETYPE
 70
     6
  9
$SPLINESEGS
 70
     8
  9
$ATTDIA
 70
     0
  9
$ATTREQ
 70
     1
  9
$HANDLING
 70
     1
  9
$HANDSEED
  5
1F2B
  9
$SURFTAB1
 70
     6
  9
$SURFTAB2
 70
     6
  9
$SURFTYPE
 70
     6
  9
$SURFU
 70
     6
  9
$SURFV
 70
     6
  9
$UCSNAME
  2

  9
$UCSORG
 10
0.0
 20
0.0
 30
0.0
  9
$UCSXDIR
 10
1.0
 20
0.0
 30
0.0
  9
$UCSYDIR
 10
0.0
 20
1.0
 30
0.0
  9
$PUCSNAME
  2

  9
$PUCSORG
 10
0.0
 20
0.0
 30
0.0
  9
$PUCSXDIR
 10
1.0
 20
0.0
 30
0.0
  9
$PUCSYDIR
 10
0.0
 20
1.0
 30
0.0
  9
$USERI1
 70
     0
  9
$USERI2
 70
     1
  9
$USERI3
 70
     1
  9
$USERI4
 70
     0
  9
$USERI5
 70
     0
  9
$USERR1
 40
0.0
  9
$USERR2
 40
0.0
  9
$USERR3
 40
0.0
  9
$USERR4
 40
0.0
  9
$USERR5
 40
0.0
  9
$WORLDVIEW
 70
     1
  9
$SHADEDGE
 70
     3
  9
$SHADEDIF
 70
    70
  9
$TILEMODE
 70
     1
  9
$MAXACTVP
 70
    16
  9
$PLIMCHECK
 70
     0
  9
$PEXTMIN
 10
1.0000000000000000E+020
 20
1.0000000000000000E+020
 30
1.0000000000000000E+020
  9
$PEXTMAX
 10
-1.0000000000000000E+020
 20
-1.0000000000000000E+020
 30
-1.0000000000000000E+020
  9
$PLIMMIN
 10
0.0
 20
0.0
  9
$PLIMMAX
 10
12.0
 20
9.0
  9
$UNITMODE
 70
     0
  9
$VISRETAIN
 70
     0
  9
$PLINEGEN
 70
     0
  9
$PSLTSCALE
 70
     0
  0
ENDSEC
  0
SECTION
  2
TABLES
  0
TABLE
  2
VPORT
 70
     1
  0
VPORT
  2
*ACTIVE
 70
     0
 10
0.0
 20
0.0
 11
1.0
 21
1.0
 12
245.19230769230771
 22
135.0
 13
0.0
 23
0.0
 14
20.0
 24
20.0
 15
20.0
 25
20.0
 16
0.0
 26
0.0
 36
1.0
 17
0.0
 27
0.0
 37
0.0
 40
270.0
 41
1.816239316239316
 42
50.0
 43
0.0
 44
0.0
 50
0.0
 51
0.0
 71
     0
 72
   500
 73
     1
 74
     0
 75
     0
 76
     0
 77
     0
 78
     2
  0
ENDTAB
  0
TABLE
  2
LTYPE
 70
     3
  0
LTYPE
  2
CONTINUOUS
 70
     0
  3
Solid Line
 72
    65
 73
     0
 40
0.0
  0
LTYPE
  2
CENTER
 70
     0
  3
____ _ ____ _ ____ _ ____ _ ____ _ ____ _ ____
 72
    65
 73
     4
 40
2.0
 49
1.25
 49
-0.25
 49
0.25
 49
-0.25
  0
LTYPE
  2
PHANTOM2
 70
     0
  3
___ _ _ ___ _ _ ___ _ _ ___ _ _
 72
    65
 73
     6
 40
1.25
 49
0.625
 49
-0.125
 49
0.125
 49
-0.125
 49
0.125
 49
-0.125
  0
ENDTAB
  0
TABLE
  2
LAYER
 70
     3
  0
LAYER
  2
0
 70
     0
 62
     7
  6
CONTINUOUS
  0
LAYER
  2
1
 70
     0
 62
     1
  6
CENTER
  0
LAYER
  2
3
 70
     0
 62
     3
  6
CONTINUOUS
  0
ENDTAB
  0
TABLE
  2
STYLE
 70
     4
  0
STYLE
  2
STANDARD
 70
     0
 40
0.0
 41
1.0
 50
0.0
 71
     0
 42
0.2
  3
TXT
  4
BIGFONT
  0
STYLE
  2
SIM300
 70
     0
 40
0.0
 41
3.0
 50
0.0
 71
     0
 42
1.0
  3
SIMPLEX
  4

  0
STYLE
  2
SIM110
 70
     0
 40
0.0
 41
1.1000000000000001
 50
0.0
 71
     0
 42
1.3
  3
SIMPLEX
  4

  0
STYLE
  2
STANDARD1
 70
     0
 40
0.0
 41
1.0
 50
0.0
 71
     0
 42
3.0
  3
txt
  4

  0
ENDTAB
  0
TABLE
  2
VIEW
 70
     1
  0
VIEW
  2
ALL
 70
     0
 40
540.0
 10
441.98319327731087
 20
270.0
 41
0.0
 11
0.0
 21
0.0
 31
1.0
 12
0.0
 22
0.0
 32
0.0
 42
0.0
 43
0.0
 44
0.0
 50
0.0
 71
     0
  0
ENDTAB
  0
TABLE
  2
UCS
 70
     0
  0
ENDTAB
  0
TABLE
  2
APPID
 70
     8
  0
APPID
  2
ACAD
 70
     0
  0
APPID
  2
GRADIENTCOLOR1ACI
 70
     0
  0
APPID
  2
GRADIENTCOLOR2ACI
 70
     0
  0
APPID
  2
ACAD_MLEADERVER
 70
     0
  0
APPID
  2
ACAD_EXEMPT_FROM_CAD_STANDARDS
 70
     0
  0
APPID
  2
ACAD_NAV_VCDISPLAY
 70
     0
  0
APPID
  2
ACAD_DSTYLE_DIMJAG
 70
     0
  0
APPID
  2
ACAD_DSTYLE_DIMTALN
 70
     0
  0
ENDTAB
  0
TABLE
  2
DIMSTYLE
 70
     1
  0
DIMSTYLE
  2
STANDARD
 70
     0
  3

  4

  5

  6

  7

 40
1.0
 41
0.18
 42
0.0625
 43
0.38
 44
0.18
 45
0.0
 46
0.0
 47
0.0
 48
0.0
140
0.18
141
0.09
142
0.0
143
25.399999999999999
144
1.0
145
0.0
146
1.0
147
0.09
 71
     0
 72
     0
 73
     1
 74
     1
 75
     0
 76
     0
 77
     0
 78
     0
170
     0
171
     2
172
     0
173
     0
174
     0
175
     0
176
     0
177
     0
178
     0
  0
ENDTAB
  0
ENDSEC
  0
SECTION
  2
BLOCKS
  0
BLOCK
  8
0
  2
$MODEL_SPACE
 70
     0
 10
0.0
 20
0.0
 30
0.0
  3
$MODEL_SPACE
  1

  0
ENDBLK
  5
442
  8
0
  0
BLOCK
 67
     1
  8
0
  2
$PAPER_SPACE
 70
     0
 10
0.0
 20
0.0
 30
0.0
  3
$PAPER_SPACE
  1

  0
ENDBLK
  5
440
 67
     1
  8
0
  0
BLOCK
  8
0
  2
*U0
 70
     1
 10
0.0
 20
0.0
 30
0.0
  3
*U0
  1

  0
SOLID
  5
1F19
  8
0
  6
CONTINUOUS
 10
63.5
 20
214.15000000000001
 30
0.0
 11
63.5
 21
212.84999999999999
 31
0.0
 12
70.999999999999545
 22
212.84999999999999
 32
0.0
 13
70.999999999999545
 23
212.84999999999999
 33
0.0
210
0.0
220
0.0
230
1.0
  0
SOLID
  5
1F1A
  8
0
  6
CONTINUOUS
 10
-63.5
 20
214.15000000000001
 30
0.0
 11
-70.999999999999559
 21
214.15000000000001
 31
0.0
 12
-70.999999999999545
 22
212.84999999999999
 32
0.0
 13
-70.999999999999545
 23
212.84999999999999
 33
0.0
210
0.0
220
0.0
230
-1.0
  0
SOLID
  5
1F1B
  8
0
  6
CONTINUOUS
 10
55.999999999999552
 20
214.15000000000001
 30
0.0
 11
55.999999999999552
 21
212.84999999999999
 31
0.0
 12
63.5
 22
212.84999999999999
 32
0.0
 13
63.5
 23
212.84999999999999
 33
0.0
210
0.0
220
0.0
230
1.0
  0
SOLID
  5
1F1C
  8
0
  6
CONTINUOUS
 10
-55.999999999999552
 20
214.15000000000001
 30
0.0
 11
-63.5
 21
214.15000000000001
 31
0.0
 12
-63.5
 22
212.84999999999999
 32
0.0
 13
-63.5
 23
212.84999999999999
 33
0.0
210
0.0
220
0.0
230
-1.0
  0
SOLID
  5
1F1D
  8
0
  6
CONTINUOUS
 10
63.499999999999559
 20
174.24999999999989
 30
0.0
 11
63.500000000000007
 21
172.74999999999989
 31
0.0
 12
70.999999999999559
 22
172.74999999999989
 32
0.0
 13
70.999999999999559
 23
172.74999999999989
 33
0.0
210
0.0
220
0.0
230
1.0
  0
SOLID
  5
1F1E
  8
0
  6
CONTINUOUS
 10
-63.499999999999559
 20
174.24999999999989
 30
0.0
 11
-70.999999999999559
 21
174.24999999999989
 31
0.0
 12
-70.999999999999559
 22
172.74999999999989
 32
0.0
 13
-70.999999999999559
 23
172.74999999999989
 33
0.0
210
0.0
220
0.0
230
-1.0
  0
SOLID
  5
1F1F
  8
0
  6
CONTINUOUS
 10
55.999999999999559
 20
174.24999999999989
 30
0.0
 11
55.999999999999559
 21
172.74999999999989
 31
0.0
 12
63.500000000000007
 22
172.74999999999989
 32
0.0
 13
63.500000000000007
 23
172.74999999999989
 33
0.0
  0
SOLID
  5
1F20
  8
0
  6
CONTINUOUS
 10
-55.999999999999559
 20
174.24999999999989
 30
0.0
 11
-63.499999999999559
 21
174.24999999999989
 31
0.0
 12
-63.500000000000007
 22
172.74999999999989
 32
0.0
 13
-63.500000000000007
 23
172.74999999999989
 33
0.0
210
0.0
220
0.0
230
-1.0
  0
LINE
  5
1F21
  8
0
  6
CONTINUOUS
 10
63.5
 20
214.15000000000001
 30
0.0
 11
63.5
 21
212.84999999999999
 31
0.0
  0
LINE
  5
1F22
  8
0
  6
CONTINUOUS
 10
70.999999999999559
 20
214.15000000000001
 30
0.0
 11
70.999999999999545
 21
212.84999999999999
 31
0.0
  0
LINE
  5
1F23
  8
0
  6
CONTINUOUS
 10
55.999999999999552
 20
214.15000000000001
 30
0.0
 11
55.999999999999552
 21
212.84999999999999
 31
0.0
  0
LINE
  5
1F24
  8
0
  6
CONTINUOUS
 10
63.5
 20
214.15000000000001
 30
0.0
 11
63.5
 21
212.84999999999999
 31
0.0
  0
LINE
  5
1F25
  8
0
  6
CONTINUOUS
 10
63.499999999999559
 20
174.24999999999989
 30
0.0
 11
63.500000000000007
 21
172.74999999999989
 31
0.0
  0
LINE
  5
1F26
  8
0
  6
CONTINUOUS
 10
70.999999999999559
 20
174.24999999999989
 30
0.0
 11
70.999999999999559
 21
172.74999999999989
 31
0.0
  0
LINE
  5
1F27
  8
0
  6
CONTINUOUS
 10
55.999999999999559
 20
174.24999999999989
 30
0.0
 11
55.999999999999559
 21
172.74999999999989
 31
0.0
  0
LINE
  5
1F28
  8
0
  6
CONTINUOUS
 10
63.499999999999559
 20
174.24999999999989
 30
0.0
 11
63.500000000000007
 21
172.74999999999989
 31
0.0
  0
ENDBLK
  5
1F2A
  8
0
  0
ENDSEC
  0
SECTION
  2
ENTITIES
  0
TEXT
  5
9C0
  8
0
 62
     3
 10
0.0
 20
0.0
 30
0.0
 40
10.0
  1
LR-76CP
  7
STANDARD1
  0
LINE
  5
115D
  8
3
 10
67.580000000000041
 20
50.0
 30
0.0
 11
67.580000000000041
 21
59.572127417336219
 31
0.0
  0
LINE
  5
1160
  8
3
 10
59.419999999999959
 20
50.0
 30
0.0
 11
59.419999999999959
 21
59.572127417336219
 31
0.0
  0
LINE
  5
1175
  8
1
 10
63.5
 20
96.0
 30
0.0
 11
63.5
 21
45.0
 31
0.0
  0
LINE
  5
117A
  8
0
 10
67.580000000000041
 20
50.0
 30
0.0
 11
59.419999999999959
 21
50.0
 31
0.0
  0
LINE
  5
117B
  8
0
 10
67.580000000000041
 20
50.0
 30
0.0
 11
68.5
 21
50.920000000000023
 31
0.0
  0
LINE
  5
117C
  8
0
 10
58.5
 20
50.920000000000023
 30
0.0
 11
59.419999999999959
 21
50.0
 31
0.0
  0
LINE
  5
117F
  8
0
 10
68.5
 20
50.920000000000023
 30
0.0
 11
58.5
 21
50.920000000000023
 31
0.0
  0
LINE
  5
1180
  8
0
 10
58.5
 20
59.572127417336219
 30
0.0
 11
58.5
 21
50.920000000000023
 31
0.0
  0
LINE
  5
1181
  8
0
 10
68.5
 20
50.920000000000023
 30
0.0
 11
68.5
 21
59.572127417336219
 31
0.0
  0
LINE
  5
1189
  8
0
 10
55.059028491932963
 20
90.399999999999963
 30
0.0
 11
55.059028491932963
 21
89.500000000000014
 31
0.0
  0
LINE
  5
118A
  8
0
 10
71.940971508067037
 20
89.500000000000014
 30
0.0
 11
71.940971508067037
 21
90.399999999999963
 31
0.0
  0
LINE
  5
118B
  8
0
 10
71.336453279385978
 20
91.0
 30
0.0
 11
55.663546720614022
 21
91.0
 31
0.0
  0
LINE
  5
118C
  8
0
 10
55.663546720614022
 20
91.0
 30
0.0
 11
55.059028491932963
 21
90.399999999999963
 31
0.0
  0
LINE
  5
118D
  8
0
 10
71.940971508067037
 20
90.399999999999963
 30
0.0
 11
55.059028491932963
 21
90.399999999999963
 31
0.0
  0
LINE
  5
118E
  8
0
 10
71.940971508067037
 20
90.399999999999963
 30
0.0
 11
71.336453279385978
 21
91.0
 31
0.0
  0
LINE
  5
11DE
  8
0
 10
75.0
 20
89.500000000000014
 30
0.0
 11
52.0
 21
89.500000000000014
 31
0.0
  0
ARC
  5
11DF
  8
0
 10
75.0
 20
87.5
 30
0.0
 40
1.9999999999999949
 50
0.0
 51
90.0
  0
ARC
  5
11E0
  8
0
 10
52.0
 20
87.5
 30
0.0
 40
2.0000000000000022
 50
90.0
 51
180.0
  0
LINE
  5
11E1
  8
0
 10
50.0
 20
72.0
 30
0.0
 11
77.0
 21
72.0
 31
0.0
  0
LINE
  5
11E2
  8
0
 10
77.0
 20
72.0
 30
0.0
 11
77.0
 21
87.5
 31
0.0
  0
LINE
  5
11E3
  8
0
 10
50.0
 20
87.5
 30
0.0
 11
50.0
 21
72.0
 31
0.0
  0
LINE
  5
11F4
  8
1
 10
50.0
 20
155.5
 30
0.0
 11
77.0
 21
155.5
 31
0.0
  0
LINE
  5
11F5
  8
1
 10
63.5
 20
135.99999999999989
 30
0.0
 11
63.5
 21
160.75
 31
0.0
  0
LINE
  5
11F6
  8
1
 10
63.5
 20
226.25
 30
0.0
 11
63.5
 21
251.0
 31
0.0
  0
LINE
  5
11F7
  8
1
 10
63.5
 20
222.65000000000001
 30
0.0
 11
63.5
 21
164.34999999999999
 31
0.0
  0
LINE
  5
11F8
  8
1
 10
50.0
 20
231.5
 30
0.0
 11
77.0
 21
231.5
 31
0.0
  0
LINE
  5
11FA
  8
0
 10
55.059028491932963
 20
154.5
 30
0.0
 11
71.940971508067037
 21
154.5
 31
0.0
  0
ARC
  5
11FB
  8
0
 10
63.5
 20
155.5
 30
0.0
 40
7.8999999999999968
 50
187.27213955493909
 51
352.72786044506091
  0
LINE
  5
11FC
  8
0
 10
55.059028491932963
 20
156.5
 30
0.0
 11
71.940971508067037
 21
156.5
 31
0.0
  0
ARC
  5
11FE
  8
0
 10
63.5
 20
155.5
 30
0.0
 40
7.8999999999999968
 50
7.2721395549391357
 51
172.7278604450608
  0
LINE
  5
1200
  8
0
 10
55.059028491932963
 20
230.5
 30
0.0
 11
71.940971508067037
 21
230.5
 31
0.0
  0
ARC
  5
1202
  8
0
 10
63.5
 20
231.5
 30
0.0
 40
7.8999999999999968
 50
187.27213955493909
 51
352.72786044506091
  0
LINE
  5
1204
  8
0
 10
55.059028491932963
 20
232.5
 30
0.0
 11
71.940971508067037
 21
232.5
 31
0.0
  0
ARC
  5
1205
  8
0
 10
63.5
 20
231.5
 30
0.0
 40
7.8999999999999968
 50
7.2721395549391357
 51
172.7278604450608
  0
LINE
  5
1209
  8
0
 10
77.0
 20
167.0
 30
0.0
 11
50.0
 21
167.0
 31
0.0
  0
LINE
  5
120A
  8
0
 10
50.0
 20
141.0
 30
0.0
 11
77.0
 21
141.0
 31
0.0
  0
LINE
  5
120D
  8
0
 10
50.0
 20
246.0
 30
0.0
 11
50.0
 21
141.0
 31
0.0
  0
LINE
  5
1210
  8
0
 10
50.0
 20
220.0
 30
0.0
 11
77.0
 21
220.0
 31
0.0
  0
LINE
  5
1211
  8
0
 10
77.0
 20
246.0
 30
0.0
 11
77.0
 21
141.0
 31
0.0
  0
LINE
  5
1212
  8
0
 10
50.0
 20
246.0
 30
0.0
 11
77.0
 21
246.0
 31
0.0
  0
CIRCLE
  5
1221
  8
0
 10
63.5
 20
155.5
 30
0.0
 40
8.5
  0
CIRCLE
  5
1222
  8
0
 10
63.5
 20
231.5
 30
0.0
 40
8.5
  0
INSERT
  5
1315
  8
0
  6
CONTINUOUS
  2
*U0
 10
0.0
 20
0.0
 30
0.0
1001
GRADIENTCOLOR1ACI
1070
     5
1001
GRADIENTCOLOR2ACI
1070
     2
1001
ACAD
1002
{
1000
R14_HATCH_DATA
1000
1315
1011
1.0
1021
0.0
1031
0.0
1021
0.0
1031
0.0
1011
0.0
1021
0.0
1031
0.0
1021
1.0
1031
0.0
1011
0.0
1021
0.0
1031
0.0
1021
0.0
1031
1.0
1040
0.0
1010
0.0
1020
0.0
1030
1.0
1000
SOLID
1070
     1
1070
     0
1071
        4
1071
        1
1071
        4
1070
     1
1040
70.999999999999559
1040
214.15000000000001
1040
63.5
1040
214.15000000000001
1070
     1
1040
63.5
1040
214.15000000000001
1040
63.5
1040
212.84999999999999
1070
     1
1040
63.5
1040
212.84999999999999
1040
70.999999999999545
1040
212.84999999999999
1070
     1
1040
70.999999999999545
1040
212.84999999999999
1040
70.999999999999559
1040
214.15000000000001
1071
        0
1071
        1
1071
        4
1070
     1
1040
63.5
1040
214.15000000000001
1040
55.999999999999552
1040
214.15000000000001
1070
     1
1040
55.999999999999552
1040
214.15000000000001
1040
55.999999999999552
1040
212.84999999999999
1070
     1
1040
55.999999999999552
1040
212.84999999999999
1040
63.5
1040
212.84999999999999
1070
     1
1040
63.5
1040
212.84999999999999
1040
63.5
1040
214.15000000000001
1071
        0
1071
        1
1071
        4
1070
     1
1040
63.499999999999559
1040
174.24999999999989
1040
55.999999999999559
1040
174.24999999999989
1070
     1
1040
55.999999999999559
1040
174.24999999999989
1040
55.999999999999559
1040
172.74999999999989
1070
     1
1040
55.999999999999559
1040
172.74999999999989
1040
63.500000000000007
1040
172.74999999999989
1070
     1
1040
63.500000000000007
1040
172.74999999999989
1040
63.499999999999559
1040
174.24999999999989
1071
        0
1071
        1
1071
        4
1070
     1
1040
70.999999999999559
1040
174.25000000000011
1040
63.499999999999559
1040
174.24999999999989
1070
     1
1040
63.499999999999559
1040
174.24999999999989
1040
63.500000000000007
1040
172.74999999999989
1070
     1
1040
63.500000000000007
1040
172.74999999999989
1040
70.999999999999559
1040
172.75
1070
     1
1040
70.999999999999559
1040
172.75
1040
70.999999999999559
1040
174.25000000000011
1071
        0
1070
     1
1070
     1
1071
        4
1040
68.757822247394884
1040
213.19933018883819
1040
0.0
1040
62.640621658288431
1040
213.46522094654401
1040
0.0
1040
61.090770827145562
1040
173.8088632056959
1040
0.0
1040
65.343416793943007
1040
173.7434568132995
1040
0.0
1002
}
  0
LINE
  5
1316
  8
0
 10
70.999999999999545
 20
219.0
 30
0.0
 11
70.999999999999545
 21
168.0
 31
0.0
  0
LINE
  5
1317
  8
0
 10
55.999999999999552
 20
167.99999999999989
 30
0.0
 11
55.999999999999552
 21
219.00000000000011
 31
0.0
  0
LINE
  5
1318
  8
0
 10
70.999999999999559
 20
172.75
 30
0.0
 11
55.999999999999559
 21
172.74999999999989
 31
0.0
  0
LINE
  5
1319
  8
0
 10
70.999999999999559
 20
174.25
 30
0.0
 11
55.999999999999559
 21
174.24999999999989
 31
0.0
  0
TEXT
  5
131A
  8
0
 10
59.712993189845662
 20
170.0279755511522
 30
0.0
 40
1.1999999999999991
  1
HCZ 76
 41
1.129999999999999
  7
SIM110
 72
     1
 11
63.425850332702787
 21
170.0279755511522
 31
0.0
  0
LINE
  5
131C
  8
0
 10
69.999999999999545
 20
167.0
 30
0.0
 11
56.999999999999538
 21
166.99999999999989
 31
0.0
  0
ARC
  5
131D
  8
0
 10
56.999999999999538
 20
167.99999999999989
 30
0.0
 40
1.0
 50
180.0
 51
270.0
  0
ARC
  5
131E
  8
0
 10
69.999999999999545
 20
168.0
 30
0.0
 40
1.0
 50
270.0
 51
0.0
  0
LINE
  5
131F
  8
0
 10
56.999999999999538
 20
220.00000000000011
 30
0.0
 11
69.999999999999545
 21
220.0
 31
0.0
  0
LINE
  5
1320
  8
0
 10
70.999999999999545
 20
212.84999999999999
 30
0.0
 11
55.999999999999552
 21
212.84999999999999
 31
0.0
  0
LINE
  5
1321
  8
0
 10
70.999999999999545
 20
214.15000000000001
 30
0.0
 11
55.999999999999552
 21
214.15000000000001
 31
0.0
  0
TEXT
  5
1322
  8
0
 10
56.78333333333299
 20
216.2561335773288
 30
0.0
 40
1.0
  1
ELESA
 41
3.1000000000000001
  7
SIM300
 72
     1
 11
63.499999999999652
 21
216.2561335773288
 31
0.0
  0
ARC
  5
1323
  8
0
 10
56.999999999999538
 20
219.00000000000011
 30
0.0
 40
1.0
 50
89.999999999999204
 51
180.0
  0
ARC
  5
1324
  8
0
 10
69.999999999999545
 20
219.0
 30
0.0
 40
1.0
 50
0.0
 51
89.999999999999204
  0
LINE
  5
13CE
  8
0
 10
53.5
 20
70.5
 30
0.0
 11
73.5
 21
70.5
 31
0.0
  0
LINE
  5
13CF
  8
0
 10
53.5
 20
72.0
 30
0.0
 11
53.5
 21
70.5
 31
0.0
  0
LINE
  5
13D0
  8
0
 10
73.5
 20
72.0
 30
0.0
 11
73.5
 21
70.5
 31
0.0
  0
LINE
  5
1BE0
  8
1
 10
122.0
 20
155.5
 30
0.0
 11
173.0
 21
155.5
 31
0.0
  0
LINE
  5
1BE1
  8
1
 10
122.0
 20
231.50000000000011
 30
0.0
 11
173.0
 21
231.5
 31
0.0
  0
LINE
  5
1BE2
  8
0
 10
150.42787258266381
 20
164.0
 30
0.0
 11
150.42787258266381
 21
147.0
 31
0.0
  0
LINE
  5
1BE3
  8
0
 10
150.42787258266381
 20
147.0
 30
0.0
 11
151.1870619612186
 21
145.68504542377639
 31
0.0
  0
LINE
  5
1BE4
  8
0
 10
158.42787258266381
 20
164.0
 30
0.0
 11
158.42787258266381
 21
147.0
 31
0.0
  0
LINE
  5
1BE5
  8
0
 10
157.66868320410899
 20
145.68504542377639
 30
0.0
 11
158.42787258266381
 21
147.0
 31
0.0
  0
LINE
  5
1BE6
  8
0
 10
158.42787258266381
 20
164.0
 30
0.0
 11
157.6686832041089
 21
165.31495457622361
 31
0.0
  0
LINE
  5
1BE7
  8
0
 10
151.1870619612186
 20
165.31495457622361
 30
0.0
 11
150.42787258266381
 21
164.0
 31
0.0
  0
LINE
  5
1BE8
  8
0
 10
168.0
 20
159.58000000000001
 30
0.0
 11
167.0799999999999
 21
160.5
 31
0.0
  0
LINE
  5
1BE9
  8
0
 10
167.0799999999999
 20
150.5
 30
0.0
 11
168.0
 21
151.41999999999999
 31
0.0
  0
LINE
  5
1BEA
  8
0
 10
168.0
 20
159.58000000000001
 30
0.0
 11
168.0
 21
151.41999999999999
 31
0.0
  0
LINE
  5
1BEB
  8
0
 10
158.42787258266381
 20
150.5
 30
0.0
 11
167.0799999999999
 21
150.5
 31
0.0
  0
LINE
  5
1BEC
  8
0
 10
167.0799999999999
 20
160.5
 30
0.0
 11
158.42787258266381
 21
160.5
 31
0.0
  0
LINE
  5
1BED
  8
0
 10
167.0799999999999
 20
160.5
 30
0.0
 11
167.0799999999999
 21
150.5
 31
0.0
  0
LINE
  5
1BEE
  8
0
 10
127.0
 20
154.5
 30
0.0
 11
128.5
 21
154.5
 31
0.0
  0
LINE
  5
1BEF
  8
0
 10
127.0
 20
154.5
 30
0.0
 11
127.0
 21
147.59999999999999
 31
0.0
  0
LINE
  5
1BF0
  8
0
 10
127.0
 20
147.59999999999999
 30
0.0
 11
127.59999999999999
 21
147.0
 31
0.0
  0
LINE
  5
1BF1
  8
0
 10
127.0
 20
156.5
 30
0.0
 11
128.5
 21
156.5
 31
0.0
  0
LINE
  5
1BF2
  8
0
 10
127.59999999999999
 20
164.0
 30
0.0
 11
127.0
 21
163.40000000000001
 31
0.0
  0
LINE
  5
1BF3
  8
0
 10
127.0
 20
163.40000000000001
 30
0.0
 11
127.0
 21
156.5
 31
0.0
  0
POLYLINE
  5
1BF4
  8
0
 66
     1
 10
0.0
 20
0.0
 30
0.0
 70
     8
  0
VERTEX
  5
1BF5
  8
0
 10
151.1870619612186
 20
165.31495457622361
 30
0.0
 70
    32
  0
VERTEX
  5
1BF6
  8
0
 10
150.87624161502421
 20
164.7189880808412
 30
0.0
 70
    32
  0
VERTEX
  5
1BF7
  8
0
 10
150.63624769696381
 20
164.1127986711216
 30
0.0
 70
    32
  0
VERTEX
  5
1BF8
  8
0
 10
150.4814830829477
 20
163.4911318258608
 30
0.0
 70
    32
  0
VERTEX
  5
1BF9
  8
0
 10
150.42787258266381
 20
162.86121593216771
 30
0.0
 70
    32
  0
SEQEND
  5
1BFA
  8
0
  0
POLYLINE
  5
1BFB
  8
0
 66
     1
 10
0.0
 20
0.0
 30
0.0
 70
     8
  0
VERTEX
  5
1BFC
  8
0
 10
158.42787258266381
 20
162.86121593216771
 30
0.0
 70
    32
  0
VERTEX
  5
1BFD
  8
0
 10
158.42373843500849
 20
163.03570138132699
 30
0.0
 70
    32
  0
VERTEX
  5
1BFE
  8
0
 10
158.3529058371418
 20
163.60691118575281
 30
0.0
 70
    32
  0
VERTEX
  5
1BFF
  8
0
 10
158.19802003186709
 20
164.17712565753061
 30
0.0
 70
    32
  0
VERTEX
  5
1C00
  8
0
 10
157.96562518507551
 20
164.7487957053595
 30
0.0
 70
    32
  0
VERTEX
  5
1C01
  8
0
 10
157.6686832041089
 20
165.31495457622361
 30
0.0
 70
    32
  0
SEQEND
  5
1C02
  8
0
  0
LINE
  5
1C03
  8
0
 10
157.6686832041089
 20
165.31495457622361
 30
0.0
 11
151.1870619612186
 21
165.31495457622361
 31
0.0
  0
LINE
  5
1C04
  8
0
 10
157.66868320410899
 20
160.40747728811181
 30
0.0
 11
151.1870619612186
 21
160.40747728811181
 31
0.0
  0
POLYLINE
  5
1C05
  8
0
 66
     1
 10
0.0
 20
0.0
 30
0.0
 70
     8
  0
VERTEX
  5
1C06
  8
0
 10
158.42787258266381
 20
155.5
 30
0.0
 70
    32
  0
VERTEX
  5
1C07
  8
0
 10
158.4151285053201
 20
156.11297214884101
 30
0.0
 70
    32
  0
VERTEX
  5
1C08
  8
0
 10
158.37709280398889
 20
156.72594429768199
 30
0.0
 70
    32
  0
VERTEX
  5
1C09
  8
0
 10
158.2727054414907
 20
157.65377906830381
 30
0.0
 70
    32
  0
VERTEX
  5
1C0A
  8
0
 10
158.11672270244989
 20
158.57444443208229
 30
0.0
 70
    32
  0
VERTEX
  5
1C0B
  8
0
 10
157.9126706966411
 20
159.4957938292103
 30
0.0
 70
    32
  0
VERTEX
  5
1C0C
  8
0
 10
157.66868320410899
 20
160.40747728811181
 30
0.0
 70
    32
  0
SEQEND
  5
1C0D
  8
0
  0
POLYLINE
  5
1C0E
  8
0
 66
     1
 10
0.0
 20
0.0
 30
0.0
 70
     8
  0
VERTEX
  5
1C0F
  8
0
 10
157.66868320410899
 20
160.40747728811181
 30
0.0
 70
    32
  0
VERTEX
  5
1C10
  8
0
 10
157.97950355030329
 20
161.00344378349419
 30
0.0
 70
    32
  0
VERTEX
  5
1C11
  8
0
 10
158.21949746836381
 20
161.60963319321391
 30
0.0
 70
    32
  0
VERTEX
  5
1C12
  8
0
 10
158.3742620823798
 20
162.23130003847459
 30
0.0
 70
    32
  0
VERTEX
  5
1C13
  8
0
 10
158.42787258266381
 20
162.86121593216771
 30
0.0
 70
    32
  0
SEQEND
  5
1C14
  8
0
  0
POLYLINE
  5
1C15
  8
0
 66
     1
 10
0.0
 20
0.0
 30
0.0
 70
     8
  0
VERTEX
  5
1C16
  8
0
 10
157.66868320410899
 20
150.59252271188819
 30
0.0
 70
    32
  0
VERTEX
  5
1C17
  8
0
 10
157.95919727198341
 20
151.69749420822251
 30
0.0
 70
    32
  0
VERTEX
  5
1C18
  8
0
 10
158.15557880057469
 20
152.62944517225901
 30
0.0
 70
    32
  0
VERTEX
  5
1C19
  8
0
 10
158.30332385150641
 20
153.57286285495681
 30
0.0
 70
    32
  0
VERTEX
  5
1C1A
  8
0
 10
158.39618648660399
 20
154.53252658609071
 30
0.0
 70
    32
  0
VERTEX
  5
1C1B
  8
0
 10
158.42787258266381
 20
155.5
 30
0.0
 70
    32
  0
SEQEND
  5
1C1C
  8
0
  0
POLYLINE
  5
1C1D
  8
0
 66
     1
 10
0.0
 20
0.0
 30
0.0
 70
     8
  0
VERTEX
  5
1C1E
  8
0
 10
150.42787258266381
 20
155.5
 30
0.0
 70
    32
  0
VERTEX
  5
1C1F
  8
0
 10
150.4584681522409
 20
154.54937355205561
 30
0.0
 70
    32
  0
VERTEX
  5
1C20
  8
0
 10
150.54913809880969
 20
153.59874710411131
 30
0.0
 70
    32
  0
VERTEX
  5
1C21
  8
0
 10
150.69731762025421
 20
152.64490380213459
 30
0.0
 70
    32
  0
VERTEX
  5
1C22
  8
0
 10
150.89654789334421
 20
151.69749420822251
 30
0.0
 70
    32
  0
VERTEX
  5
1C23
  8
0
 10
151.1870619612186
 20
150.59252271188819
 30
0.0
 70
    32
  0
SEQEND
  5
1C24
  8
0
  0
POLYLINE
  5
1C25
  8
0
 66
     1
 10
0.0
 20
0.0
 30
0.0
 70
     8
  0
VERTEX
  5
1C26
  8
0
 10
151.1870619612186
 20
150.59252271188819
 30
0.0
 70
    32
  0
VERTEX
  5
1C27
  8
0
 10
150.87624161502421
 20
149.99655621650581
 30
0.0
 70
    32
  0
VERTEX
  5
1C28
  8
0
 10
150.63624769696381
 20
149.39036680678609
 30
0.0
 70
    32
  0
VERTEX
  5
1C29
  8
0
 10
150.4814830829477
 20
148.76869996152541
 30
0.0
 70
    32
  0
VERTEX
  5
1C2A
  8
0
 10
150.42787258266381
 20
148.13878406783229
 30
0.0
 70
    32
  0
SEQEND
  5
1C2B
  8
0
  0
POLYLINE
  5
1C2C
  8
0
 66
     1
 10
0.0
 20
0.0
 30
0.0
 70
     8
  0
VERTEX
  5
1C2D
  8
0
 10
150.42787258266381
 20
148.13878406783229
 30
0.0
 70
    32
  0
VERTEX
  5
1C2E
  8
0
 10
150.43200673031899
 20
147.9642986186729
 30
0.0
 70
    32
  0
VERTEX
  5
1C2F
  8
0
 10
150.5028393281857
 20
147.39308881424719
 30
0.0
 70
    32
  0
VERTEX
  5
1C30
  8
0
 10
150.65772513346039
 20
146.82287434246939
 30
0.0
 70
    32
  0
VERTEX
  5
1C31
  8
0
 10
150.890119980252
 20
146.2512042946405
 30
0.0
 70
    32
  0
VERTEX
  5
1C32
  8
0
 10
151.1870619612186
 20
145.68504542377639
 30
0.0
 70
    32
  0
SEQEND
  5
1C33
  8
0
  0
LINE
  5
1C34
  8
0
 10
157.66868320410899
 20
145.68504542377639
 30
0.0
 11
151.1870619612186
 21
145.68504542377639
 31
0.0
  0
POLYLINE
  5
1C35
  8
0
 66
     1
 10
0.0
 20
0.0
 30
0.0
 70
     8
  0
VERTEX
  5
1C36
  8
0
 10
157.66868320410899
 20
145.68504542377639
 30
0.0
 70
    32
  0
VERTEX
  5
1C37
  8
0
 10
157.97950355030329
 20
146.28101191915869
 30
0.0
 70
    32
  0
VERTEX
  5
1C38
  8
0
 10
158.21949746836381
 20
146.8872013288784
 30
0.0
 70
    32
  0
VERTEX
  5
1C39
  8
0
 10
158.37426208237989
 20
147.50886817413911
 30
0.0
 70
    32
  0
VERTEX
  5
1C3A
  8
0
 10
158.42787258266381
 20
148.13878406783229
 30
0.0
 70
    32
  0
SEQEND
  5
1C3B
  8
0
  0
POLYLINE
  5
1C3C
  8
0
 66
     1
 10
0.0
 20
0.0
 30
0.0
 70
     8
  0
VERTEX
  5
1C3D
  8
0
 10
158.42787258266381
 20
148.13878406783229
 30
0.0
 70
    32
  0
VERTEX
  5
1C3E
  8
0
 10
158.42373843500849
 20
148.3132695169916
 30
0.0
 70
    32
  0
VERTEX
  5
1C3F
  8
0
 10
158.3529058371418
 20
148.8844793214173
 30
0.0
 70
    32
  0
VERTEX
  5
1C40
  8
0
 10
158.19802003186709
 20
149.4546937931951
 30
0.0
 70
    32
  0
VERTEX
  5
1C41
  8
0
 10
157.96562518507551
 20
150.02636384102399
 30
0.0
 70
    32
  0
VERTEX
  5
1C42
  8
0
 10
157.66868320410899
 20
150.59252271188819
 30
0.0
 70
    32
  0
SEQEND
  5
1C43
  8
0
  0
LINE
  5
1C44
  8
0
 10
157.66868320410899
 20
150.59252271188819
 30
0.0
 11
151.1870619612186
 21
150.59252271188819
 31
0.0
  0
POLYLINE
  5
1C45
  8
0
 66
     1
 10
0.0
 20
0.0
 30
0.0
 70
     8
  0
VERTEX
  5
1C46
  8
0
 10
150.42787258266381
 20
162.86121593216771
 30
0.0
 70
    32
  0
VERTEX
  5
1C47
  8
0
 10
150.43200673031899
 20
162.6867304830084
 30
0.0
 70
    32
  0
VERTEX
  5
1C48
  8
0
 10
150.5028393281857
 20
162.1155206785827
 30
0.0
 70
    32
  0
VERTEX
  5
1C49
  8
0
 10
150.65772513346039
 20
161.54530620680481
 30
0.0
 70
    32
  0
VERTEX
  5
1C4A
  8
0
 10
150.890119980252
 20
160.97363615897589
 30
0.0
 70
    32
  0
VERTEX
  5
1C4B
  8
0
 10
151.1870619612186
 20
160.40747728811181
 30
0.0
 70
    32
  0
SEQEND
  5
1C4C
  8
0
  0
POLYLINE
  5
1C4D
  8
0
 66
     1
 10
0.0
 20
0.0
 30
0.0
 70
     8
  0
VERTEX
  5
1C4E
  8
0
 10
151.1870619612186
 20
160.40747728811181
 30
0.0
 70
    32
  0
VERTEX
  5
1C4F
  8
0
 10
150.94530259043501
 20
159.50485780121221
 30
0.0
 70
    32
  0
VERTEX
  5
1C50
  8
0
 10
150.74262820990711
 20
158.59275764757851
 30
0.0
 70
    32
  0
VERTEX
  5
1C51
  8
0
 10
150.58435501134471
 20
157.6630167555777
 30
0.0
 70
    32
  0
VERTEX
  5
1C52
  8
0
 10
150.47865236133859
 20
156.72594429768199
 30
0.0
 70
    32
  0
VERTEX
  5
1C53
  8
0
 10
150.44065983008019
 20
156.11401082948959
 30
0.0
 70
    32
  0
VERTEX
  5
1C54
  8
0
 10
150.42787258266381
 20
155.5
 30
0.0
 70
    32
  0
SEQEND
  5
1C55
  8
0
  0
LINE
  5
1C56
  8
0
 10
127.59999999999999
 20
154.5
 30
0.0
 11
127.59999999999999
 21
147.0
 31
0.0
  0
LINE
  5
1C57
  8
0
 10
127.59999999999999
 20
147.0
 30
0.0
 11
128.5
 21
147.0
 31
0.0
  0
LINE
  5
1C58
  8
0
 10
128.5
 20
164.0
 30
0.0
 11
127.59999999999999
 21
164.0
 31
0.0
  0
LINE
  5
1C59
  8
0
 10
127.59999999999999
 20
164.0
 30
0.0
 11
127.59999999999999
 21
156.5
 31
0.0
  0
LINE
  5
1C5A
  8
3
 10
168.0
 20
159.58000000000001
 30
0.0
 11
158.42787258266381
 21
159.58000000000001
 31
0.0
  0
LINE
  5
1C5B
  8
3
 10
168.0
 20
151.41999999999999
 30
0.0
 11
158.42787258266381
 21
151.41999999999999
 31
0.0
  0
LINE
  5
1C5C
  8
0
 10
150.42787258266381
 20
240.0
 30
0.0
 11
150.42787258266381
 21
223.0
 31
0.0
  0
LINE
  5
1C5D
  8
0
 10
150.42787258266381
 20
223.0
 30
0.0
 11
151.1870619612186
 21
221.68504542377639
 31
0.0
  0
LINE
  5
1C5E
  8
0
 10
158.42787258266381
 20
240.0
 30
0.0
 11
158.42787258266381
 21
223.0
 31
0.0
  0
LINE
  5
1C5F
  8
0
 10
157.6686832041089
 20
221.68504542377639
 30
0.0
 11
158.42787258266381
 21
223.0
 31
0.0
  0
LINE
  5
1C60
  8
0
 10
158.42787258266381
 20
240.0
 30
0.0
 11
157.6686832041089
 21
241.31495457622361
 31
0.0
  0
LINE
  5
1C61
  8
0
 10
151.1870619612186
 20
241.31495457622361
 30
0.0
 11
150.42787258266381
 21
240.0
 31
0.0
  0
LINE
  5
1C62
  8
0
 10
158.42787258266381
 20
226.5
 30
0.0
 11
167.0799999999999
 21
226.5
 31
0.0
  0
LINE
  5
1C63
  8
0
 10
167.0799999999999
 20
236.5
 30
0.0
 11
158.42787258266381
 21
236.5
 31
0.0
  0
LINE
  5
1C64
  8
0
 10
168.0
 20
235.58000000000001
 30
0.0
 11
167.0799999999999
 21
236.5
 31
0.0
  0
LINE
  5
1C65
  8
0
 10
167.0799999999999
 20
226.5
 30
0.0
 11
168.0
 21
227.41999999999999
 31
0.0
  0
LINE
  5
1C66
  8
0
 10
168.0
 20
235.58000000000001
 30
0.0
 11
168.0
 21
227.41999999999999
 31
0.0
  0
LINE
  5
1C67
  8
0
 10
167.0799999999999
 20
236.5
 30
0.0
 11
167.0799999999999
 21
226.5
 31
0.0
  0
LINE
  5
1C68
  8
0
 10
127.0
 20
232.5
 30
0.0
 11
128.5
 21
232.5
 31
0.0
  0
LINE
  5
1C69
  8
0
 10
127.59999999999999
 20
240.0
 30
0.0
 11
127.0
 21
239.40000000000001
 31
0.0
  0
LINE
  5
1C6A
  8
0
 10
127.0
 20
239.40000000000001
 30
0.0
 11
127.0
 21
232.5
 31
0.0
  0
LINE
  5
1C6B
  8
0
 10
127.0
 20
230.5
 30
0.0
 11
128.5
 21
230.5
 31
0.0
  0
LINE
  5
1C6C
  8
0
 10
127.0
 20
230.5
 30
0.0
 11
127.0
 21
223.59999999999999
 31
0.0
  0
LINE
  5
1C6D
  8
0
 10
127.0
 20
223.59999999999999
 30
0.0
 11
127.59999999999999
 21
223.0
 31
0.0
  0
POLYLINE
  5
1C6E
  8
0
 66
     1
 10
0.0
 20
0.0
 30
0.0
 70
     8
  0
VERTEX
  5
1C6F
  8
0
 10
150.42787258266381
 20
224.1387840678322
 30
0.0
 70
    32
  0
VERTEX
  5
1C70
  8
0
 10
150.43200673031899
 20
223.9642986186729
 30
0.0
 70
    32
  0
VERTEX
  5
1C71
  8
0
 10
150.5028393281857
 20
223.39308881424719
 30
0.0
 70
    32
  0
VERTEX
  5
1C72
  8
0
 10
150.65772513346039
 20
222.82287434246939
 30
0.0
 70
    32
  0
VERTEX
  5
1C73
  8
0
 10
150.890119980252
 20
222.2512042946405
 30
0.0
 70
    32
  0
VERTEX
  5
1C74
  8
0
 10
151.1870619612186
 20
221.68504542377639
 30
0.0
 70
    32
  0
SEQEND
  5
1C75
  8
0
  0
LINE
  5
1C76
  8
0
 10
157.6686832041089
 20
221.68504542377639
 30
0.0
 11
151.1870619612186
 21
221.68504542377639
 31
0.0
  0
POLYLINE
  5
1C77
  8
0
 66
     1
 10
0.0
 20
0.0
 30
0.0
 70
     8
  0
VERTEX
  5
1C78
  8
0
 10
157.6686832041089
 20
221.68504542377639
 30
0.0
 70
    32
  0
VERTEX
  5
1C79
  8
0
 10
157.97950355030329
 20
222.2810119191588
 30
0.0
 70
    32
  0
VERTEX
  5
1C7A
  8
0
 10
158.21949746836381
 20
222.8872013288784
 30
0.0
 70
    32
  0
VERTEX
  5
1C7B
  8
0
 10
158.3742620823798
 20
223.50886817413911
 30
0.0
 70
    32
  0
VERTEX
  5
1C7C
  8
0
 10
158.42787258266381
 20
224.1387840678322
 30
0.0
 70
    32
  0
SEQEND
  5
1C7D
  8
0
  0
LINE
  5
1C7E
  8
0
 10
157.6686832041089
 20
226.59252271188819
 30
0.0
 11
151.1870619612186
 21
226.59252271188819
 31
0.0
  0
POLYLINE
  5
1C7F
  8
0
 66
     1
 10
0.0
 20
0.0
 30
0.0
 70
     8
  0
VERTEX
  5
1C80
  8
0
 10
151.1870619612186
 20
241.31495457622361
 30
0.0
 70
    32
  0
VERTEX
  5
1C81
  8
0
 10
150.87624161502421
 20
240.71898808084131
 30
0.0
 70
    32
  0
VERTEX
  5
1C82
  8
0
 10
150.63624769696381
 20
240.1127986711216
 30
0.0
 70
    32
  0
VERTEX
  5
1C83
  8
0
 10
150.4814830829477
 20
239.49113182586089
 30
0.0
 70
    32
  0
VERTEX
  5
1C84
  8
0
 10
150.42787258266381
 20
238.86121593216771
 30
0.0
 70
    32
  0
SEQEND
  5
1C85
  8
0
  0
LINE
  5
1C86
  8
0
 10
157.6686832041089
 20
236.40747728811181
 30
0.0
 11
151.1870619612186
 21
236.40747728811181
 31
0.0
  0
POLYLINE
  5
1C87
  8
0
 66
     1
 10
0.0
 20
0.0
 30
0.0
 70
     8
  0
VERTEX
  5
1C88
  8
0
 10
158.42787258266381
 20
238.86121593216771
 30
0.0
 70
    32
  0
VERTEX
  5
1C89
  8
0
 10
158.42373843500849
 20
239.03570138132699
 30
0.0
 70
    32
  0
VERTEX
  5
1C8A
  8
0
 10
158.3529058371418
 20
239.60691118575281
 30
0.0
 70
    32
  0
VERTEX
  5
1C8B
  8
0
 10
158.19802003186709
 20
240.17712565753061
 30
0.0
 70
    32
  0
VERTEX
  5
1C8C
  8
0
 10
157.96562518507551
 20
240.7487957053595
 30
0.0
 70
    32
  0
VERTEX
  5
1C8D
  8
0
 10
157.6686832041089
 20
241.31495457622361
 30
0.0
 70
    32
  0
SEQEND
  5
1C8E
  8
0
  0
LINE
  5
1C8F
  8
0
 10
157.6686832041089
 20
241.31495457622361
 30
0.0
 11
151.1870619612186
 21
241.31495457622361
 31
0.0
  0
POLYLINE
  5
1C90
  8
0
 66
     1
 10
0.0
 20
0.0
 30
0.0
 70
     8
  0
VERTEX
  5
1C91
  8
0
 10
158.42787258266381
 20
231.5
 30
0.0
 70
    32
  0
VERTEX
  5
1C92
  8
0
 10
158.41512850532001
 20
232.11297214884101
 30
0.0
 70
    32
  0
VERTEX
  5
1C93
  8
0
 10
158.37709280398889
 20
232.7259442976821
 30
0.0
 70
    32
  0
VERTEX
  5
1C94
  8
0
 10
158.2727054414907
 20
233.65377906830381
 30
0.0
 70
    32
  0
VERTEX
  5
1C95
  8
0
 10
158.11672270244989
 20
234.5744444320824
 30
0.0
 70
    32
  0
VERTEX
  5
1C96
  8
0
 10
157.9126706966411
 20
235.49579382921041
 30
0.0
 70
    32
  0
VERTEX
  5
1C97
  8
0
 10
157.6686832041089
 20
236.40747728811181
 30
0.0
 70
    32
  0
SEQEND
  5
1C98
  8
0
  0
POLYLINE
  5
1C99
  8
0
 66
     1
 10
0.0
 20
0.0
 30
0.0
 70
     8
  0
VERTEX
  5
1C9A
  8
0
 10
157.6686832041089
 20
236.40747728811181
 30
0.0
 70
    32
  0
VERTEX
  5
1C9B
  8
0
 10
157.97950355030329
 20
237.00344378349419
 30
0.0
 70
    32
  0
VERTEX
  5
1C9C
  8
0
 10
158.21949746836381
 20
237.60963319321391
 30
0.0
 70
    32
  0
VERTEX
  5
1C9D
  8
0
 10
158.3742620823798
 20
238.23130003847459
 30
0.0
 70
    32
  0
VERTEX
  5
1C9E
  8
0
 10
158.42787258266381
 20
238.86121593216771
 30
0.0
 70
    32
  0
SEQEND
  5
1C9F
  8
0
  0
POLYLINE
  5
1CA0
  8
0
 66
     1
 10
0.0
 20
0.0
 30
0.0
 70
     8
  0
VERTEX
  5
1CA1
  8
0
 10
150.42787258266381
 20
238.86121593216771
 30
0.0
 70
    32
  0
VERTEX
  5
1CA2
  8
0
 10
150.43200673031899
 20
238.6867304830084
 30
0.0
 70
    32
  0
VERTEX
  5
1CA3
  8
0
 10
150.5028393281857
 20
238.1155206785827
 30
0.0
 70
    32
  0
VERTEX
  5
1CA4
  8
0
 10
150.65772513346039
 20
237.5453062068049
 30
0.0
 70
    32
  0
VERTEX
  5
1CA5
  8
0
 10
150.890119980252
 20
236.97363615897601
 30
0.0
 70
    32
  0
VERTEX
  5
1CA6
  8
0
 10
151.1870619612186
 20
236.40747728811181
 30
0.0
 70
    32
  0
SEQEND
  5
1CA7
  8
0
  0
POLYLINE
  5
1CA8
  8
0
 66
     1
 10
0.0
 20
0.0
 30
0.0
 70
     8
  0
VERTEX
  5
1CA9
  8
0
 10
151.1870619612186
 20
236.40747728811181
 30
0.0
 70
    32
  0
VERTEX
  5
1CAA
  8
0
 10
150.94530259043501
 20
235.50485780121221
 30
0.0
 70
    32
  0
VERTEX
  5
1CAB
  8
0
 10
150.74262820990711
 20
234.59275764757851
 30
0.0
 70
    32
  0
VERTEX
  5
1CAC
  8
0
 10
150.58435501134471
 20
233.6630167555777
 30
0.0
 70
    32
  0
VERTEX
  5
1CAD
  8
0
 10
150.47865236133859
 20
232.7259442976821
 30
0.0
 70
    32
  0
VERTEX
  5
1CAE
  8
0
 10
150.44065983008019
 20
232.11401082948959
 30
0.0
 70
    32
  0
VERTEX
  5
1CAF
  8
0
 10
150.42787258266381
 20
231.5
 30
0.0
 70
    32
  0
SEQEND
  5
1CB0
  8
0
  0
POLYLINE
  5
1CB1
  8
0
 66
     1
 10
0.0
 20
0.0
 30
0.0
 70
     8
  0
VERTEX
  5
1CB2
  8
0
 10
157.6686832041089
 20
226.59252271188819
 30
0.0
 70
    32
  0
VERTEX
  5
1CB3
  8
0
 10
157.95919727198341
 20
227.69749420822259
 30
0.0
 70
    32
  0
VERTEX
  5
1CB4
  8
0
 10
158.15557880057469
 20
228.62944517225901
 30
0.0
 70
    32
  0
VERTEX
  5
1CB5
  8
0
 10
158.30332385150641
 20
229.57286285495681
 30
0.0
 70
    32
  0
VERTEX
  5
1CB6
  8
0
 10
158.39618648660399
 20
230.53252658609071
 30
0.0
 70
    32
  0
VERTEX
  5
1CB7
  8
0
 10
158.42787258266381
 20
231.5
 30
0.0
 70
    32
  0
SEQEND
  5
1CB8
  8
0
  0
POLYLINE
  5
1CB9
  8
0
 66
     1
 10
0.0
 20
0.0
 30
0.0
 70
     8
  0
VERTEX
  5
1CBA
  8
0
 10
158.42787258266381
 20
224.1387840678322
 30
0.0
 70
    32
  0
VERTEX
  5
1CBB
  8
0
 10
158.42373843500849
 20
224.31326951699151
 30
0.0
 70
    32
  0
VERTEX
  5
1CBC
  8
0
 10
158.3529058371418
 20
224.8844793214173
 30
0.0
 70
    32
  0
VERTEX
  5
1CBD
  8
0
 10
158.19802003186709
 20
225.45469379319519
 30
0.0
 70
    32
  0
VERTEX
  5
1CBE
  8
0
 10
157.96562518507551
 20
226.02636384102399
 30
0.0
 70
    32
  0
VERTEX
  5
1CBF
  8
0
 10
157.6686832041089
 20
226.59252271188819
 30
0.0
 70
    32
  0
SEQEND
  5
1CC0
  8
0
  0
POLYLINE
  5
1CC1
  8
0
 66
     1
 10
0.0
 20
0.0
 30
0.0
 70
     8
  0
VERTEX
  5
1CC2
  8
0
 10
150.42787258266381
 20
231.5
 30
0.0
 70
    32
  0
VERTEX
  5
1CC3
  8
0
 10
150.4584681522409
 20
230.54937355205561
 30
0.0
 70
    32
  0
VERTEX
  5
1CC4
  8
0
 10
150.54913809880969
 20
229.59874710411131
 30
0.0
 70
    32
  0
VERTEX
  5
1CC5
  8
0
 10
150.69731762025421
 20
228.64490380213471
 30
0.0
 70
    32
  0
VERTEX
  5
1CC6
  8
0
 10
150.89654789334421
 20
227.69749420822259
 30
0.0
 70
    32
  0
VERTEX
  5
1CC7
  8
0
 10
151.1870619612186
 20
226.59252271188819
 30
0.0
 70
    32
  0
SEQEND
  5
1CC8
  8
0
  0
POLYLINE
  5
1CC9
  8
0
 66
     1
 10
0.0
 20
0.0
 30
0.0
 70
     8
  0
VERTEX
  5
1CCA
  8
0
 10
151.1870619612186
 20
226.59252271188819
 30
0.0
 70
    32
  0
VERTEX
  5
1CCB
  8
0
 10
150.87624161502421
 20
225.99655621650581
 30
0.0
 70
    32
  0
VERTEX
  5
1CCC
  8
0
 10
150.63624769696381
 20
225.39036680678609
 30
0.0
 70
    32
  0
VERTEX
  5
1CCD
  8
0
 10
150.4814830829477
 20
224.76869996152541
 30
0.0
 70
    32
  0
VERTEX
  5
1CCE
  8
0
 10
150.42787258266381
 20
224.1387840678322
 30
0.0
 70
    32
  0
SEQEND
  5
1CCF
  8
0
  0
LINE
  5
1CD0
  8
0
 10
127.59999999999999
 20
230.5
 30
0.0
 11
127.59999999999999
 21
223.0
 31
0.0
  0
LINE
  5
1CD1
  8
0
 10
127.59999999999999
 20
223.0
 30
0.0
 11
128.5
 21
223.0
 31
0.0
  0
LINE
  5
1CD2
  8
0
 10
128.5
 20
240.0
 30
0.0
 11
127.59999999999999
 21
240.0
 31
0.0
  0
LINE
  5
1CD3
  8
0
 10
127.59999999999999
 20
240.0
 30
0.0
 11
127.59999999999999
 21
232.5
 31
0.0
  0
LINE
  5
1CD4
  8
3
 10
168.0
 20
235.58000000000001
 30
0.0
 11
158.42787258266381
 21
235.58000000000001
 31
0.0
  0
LINE
  5
1CD5
  8
3
 10
168.0
 20
227.41999999999999
 30
0.0
 11
158.42787258266381
 21
227.4200000000001
 31
0.0
  0
LINE
  5
1CD6
  8
0
 10
130.5
 20
219.0
 30
0.0
 11
130.5
 21
168.0
 31
0.0
  0
LINE
  5
1CD7
  8
0
 10
136.5131670194948
 20
167.0
 30
0.0
 11
128.5
 21
167.0
 31
0.0
  0
LINE
  5
1CD8
  8
0
 10
128.5
 20
246.0
 30
0.0
 11
146.0
 21
246.0
 31
0.0
  0
LINE
  5
1CD9
  8
0
 10
128.5
 20
141.0
 30
0.0
 11
146.0
 21
141.0
 31
0.0
  0
LINE
  5
1CDA
  8
0
 10
128.5
 20
220.0
 30
0.0
 11
136.5131670194948
 21
220.0
 31
0.0
  0
LINE
  5
1CDB
  8
0
 10
138.38422689413741
 20
218.9999999999994
 30
0.0
 11
138.38422689413599
 21
168.0
 31
0.0
  0
LINE
  5
1CDC
  8
0
 10
146.0
 20
246.0
 30
0.0
 11
146.0
 21
141.0
 31
0.0
  0
POLYLINE
  5
1CDD
  8
0
 66
     1
 10
0.0
 20
0.0
 30
0.0
 70
     8
  0
VERTEX
  5
1CDE
  8
0
 10
138.38422689413599
 20
168.0
 30
0.0
 70
    32
  0
VERTEX
  5
1CDF
  8
0
 10
138.38313004646511
 20
167.96717289056039
 30
0.0
 70
    32
  0
VERTEX
  5
1CE0
  8
0
 10
138.3346606959108
 20
167.78038273484111
 30
0.0
 70
    32
  0
VERTEX
  5
1CE1
  8
0
 10
138.27519983651109
 20
167.6762444116176
 30
0.0
 70
    32
  0
VERTEX
  5
1CE2
  8
0
 10
138.19794104195341
 20
167.58022044930601
 30
0.0
 70
    32
  0
VERTEX
  5
1CE3
  8
0
 10
138.0487809883177
 20
167.44591130078001
 30
0.0
 70
    32
  0
VERTEX
  5
1CE4
  8
0
 10
137.8770263538344
 20
167.3324865331989
 30
0.0
 70
    32
  0
VERTEX
  5
1CE5
  8
0
 10
137.5389493706287
 20
167.1767386383024
 30
0.0
 70
    32
  0
VERTEX
  5
1CE6
  8
0
 10
137.17215774687281
 20
167.07092012225959
 30
0.0
 70
    32
  0
VERTEX
  5
1CE7
  8
0
 10
136.846447242528
 20
167.0180890134331
 30
0.0
 70
    32
  0
VERTEX
  5
1CE8
  8
0
 10
136.5131670194948
 20
167.0
 30
0.0
 70
    32
  0
SEQEND
  5
1CE9
  8
0
  0
ARC
  5
1CEA
  8
0
 10
129.5
 20
168.0
 30
0.0
 40
1.0000000000000031
 50
270.0
 51
0.0
  0
POLYLINE
  5
1CEB
  8
0
 66
     1
 10
0.0
 20
0.0
 30
0.0
 70
     8
  0
VERTEX
  5
1CEC
  8
0
 10
136.5131670194948
 20
220.0
 30
0.0
 70
    32
  0
VERTEX
  5
1CED
  8
0
 10
136.8953041943698
 20
219.97623570083559
 30
0.0
 70
    32
  0
VERTEX
  5
1CEE
  8
0
 10
137.36459006311151
 20
219.88031695641871
 30
0.0
 70
    32
  0
VERTEX
  5
1CEF
  8
0
 10
137.82307347033881
 20
219.69736756422051
 30
0.0
 70
    32
  0
VERTEX
  5
1CF0
  8
0
 10
138.01167504598399
 20
219.5814335097846
 30
0.0
 70
    32
  0
VERTEX
  5
1CF1
  8
0
 10
138.18387116169501
 20
219.434688028686
 30
0.0
 70
    32
  0
VERTEX
  5
1CF2
  8
0
 10
138.31491319772249
 20
219.259190990625
 30
0.0
 70
    32
  0
VERTEX
  5
1CF3
  8
0
 10
138.35832593358509
 20
219.15913138710911
 30
0.0
 70
    32
  0
VERTEX
  5
1CF4
  8
0
 10
138.38185326461459
 20
219.0482849297882
 30
0.0
 70
    32
  0
VERTEX
  5
1CF5
  8
0
 10
138.38422689413741
 20
218.9999999999994
 30
0.0
 70
    32
  0
SEQEND
  5
1CF6
  8
0
  0
ARC
  5
1CF7
  8
0
 10
129.5
 20
219.0
 30
0.0
 40
1.0
 50
0.0
 51
90.0
  0
LINE
  5
1CF8
  8
0
 10
128.5
 20
246.0
 30
0.0
 11
128.5
 21
220.0
 31
0.0
  0
LINE
  5
1CF9
  8
0
 10
128.5
 20
167.0
 30
0.0
 11
128.5
 21
141.0
 31
0.0
  0
LINE
  5
1CFB
  8
3
 10
67.580000000000041
 20
67.572127417336219
 30
0.0
 11
67.580000000000041
 21
68.810133310245192
 31
0.0
  0
LINE
  5
1CFC
  8
3
 10
67.580000000000041
 20
69.70154630525667
 30
0.0
 11
67.580000000000041
 21
70.5
 31
0.0
  0
LINE
  5
1CFE
  8
3
 10
59.419999999999959
 20
67.572127417336219
 30
0.0
 11
59.419999999999959
 21
68.810132855167083
 31
0.0
  0
LINE
  5
1CFF
  8
3
 10
59.419999999999959
 20
70.087808654372552
 30
0.0
 11
59.419999999999959
 21
70.5
 31
0.0
  0
LINE
  5
1D04
  8
0
 10
58.5
 20
70.5
 30
0.0
 11
58.5
 21
70.137962390997274
 31
0.0
  0
LINE
  5
1D05
  8
0
 10
58.5
 20
68.810132803859204
 30
0.0
 11
58.5
 21
67.572127417336219
 31
0.0
  0
LINE
  5
1D06
  8
0
 10
68.5
 20
67.572127417336219
 30
0.0
 11
68.5
 21
67.733213191314206
 31
0.0
  0
LINE
  5
1D07
  8
0
 10
68.5
 20
69.471726302782443
 30
0.0
 11
68.5
 21
70.5
 31
0.0
  0
LINE
  5
1D0B
  8
0
 10
72.0
 20
59.572127417336219
 30
0.0
 11
55.0
 21
59.572127417336219
 31
0.0
  0
LINE
  5
1D0C
  8
0
 10
55.0
 20
59.572127417336219
 30
0.0
 11
55.0
 21
67.572127417336219
 31
0.0
  0
LINE
  5
1D0D
  8
0
 10
72.0
 20
67.572127417336219
 30
0.0
 11
55.0
 21
67.572127417336219
 31
0.0
  0
LINE
  5
1D0E
  8
0
 10
72.0
 20
67.572127417336219
 30
0.0
 11
72.0
 21
59.572127417336219
 31
0.0
  0
POLYLINE
  5
1D15
  8
0
 66
     1
 10
0.0
 20
0.0
 30
0.0
 70
     8
  0
VERTEX
  5
1D16
  8
0
 10
59.25
 20
67.572127417336219
 30
0.0
 70
    32
  0
VERTEX
  5
1D17
  8
0
 10
58.947782336874532
 20
67.567993269680983
 30
0.0
 70
    32
  0
VERTEX
  5
1D18
  8
0
 10
58.452522665906599
 20
67.543394516928061
 30
0.0
 70
    32
  0
VERTEX
  5
1D19
  8
0
 10
57.958417933827718
 20
67.497160671814299
 30
0.0
 70
    32
  0
VERTEX
  5
1D1A
  8
0
 10
56.970777497497579
 20
67.342274866539583
 30
0.0
 70
    32
  0
VERTEX
  5
1D1B
  8
0
 10
55.980615929492608
 20
67.109880019747933
 30
0.0
 70
    32
  0
VERTEX
  5
1D1C
  8
0
 10
55.0
 20
66.812938038781326
 30
0.0
 70
    32
  0
SEQEND
  5
1D1D
  8
0
  0
POLYLINE
  5
1D1E
  8
0
 66
     1
 10
0.0
 20
0.0
 30
0.0
 70
     8
  0
VERTEX
  5
1D1F
  8
0
 10
55.0
 20
60.331316795891098
 30
0.0
 70
    32
  0
VERTEX
  5
1D20
  8
0
 10
56.03224424961104
 20
60.020496449696623
 30
0.0
 70
    32
  0
VERTEX
  5
1D21
  8
0
 10
56.555524608023681
 20
59.890561540374897
 30
0.0
 70
    32
  0
VERTEX
  5
1D22
  8
0
 10
57.082195106255647
 20
59.780502531636223
 30
0.0
 70
    32
  0
VERTEX
  5
1D23
  8
0
 10
57.619288919407381
 20
59.691119398047022
 30
0.0
 70
    32
  0
VERTEX
  5
1D24
  8
0
 10
58.158953667628339
 20
59.625737917620199
 30
0.0
 70
    32
  0
VERTEX
  5
1D25
  8
0
 10
58.703990405740342
 20
59.585637939026022
 30
0.0
 70
    32
  0
VERTEX
  5
1D26
  8
0
 10
59.25
 20
59.572127417336219
 30
0.0
 70
    32
  0
SEQEND
  5
1D27
  8
0
  0
POLYLINE
  5
1D28
  8
0
 66
     1
 10
0.0
 20
0.0
 30
0.0
 70
     8
  0
VERTEX
  5
1D29
  8
0
 10
59.25
 20
59.572127417336219
 30
0.0
 70
    32
  0
VERTEX
  5
1D2A
  8
0
 10
59.552217663125468
 20
59.576261564991448
 30
0.0
 70
    32
  0
VERTEX
  5
1D2B
  8
0
 10
60.047477334093401
 20
59.60086031774437
 30
0.0
 70
    32
  0
VERTEX
  5
1D2C
  8
0
 10
60.541582066172282
 20
59.647094162858131
 30
0.0
 70
    32
  0
VERTEX
  5
1D2D
  8
0
 10
61.529222502502421
 20
59.801979968132848
 30
0.0
 70
    32
  0
VERTEX
  5
1D2E
  8
0
 10
62.519384070507378
 20
60.03437481492449
 30
0.0
 70
    32
  0
VERTEX
  5
1D2F
  8
0
 10
63.5
 20
60.331316795891098
 30
0.0
 70
    32
  0
SEQEND
  5
1D30
  8
0
  0
POLYLINE
  5
1D31
  8
0
 66
     1
 10
0.0
 20
0.0
 30
0.0
 70
     8
  0
VERTEX
  5
1D32
  8
0
 10
63.5
 20
66.812938038781326
 30
0.0
 70
    32
  0
VERTEX
  5
1D33
  8
0
 10
62.46775575038896
 20
67.123758384975815
 30
0.0
 70
    32
  0
VERTEX
  5
1D34
  8
0
 10
61.944475391976312
 20
67.253693294297534
 30
0.0
 70
    32
  0
VERTEX
  5
1D35
  8
0
 10
61.417804893744339
 20
67.363752303036165
 30
0.0
 70
    32
  0
VERTEX
  5
1D36
  8
0
 10
60.880711080592619
 20
67.453135436625416
 30
0.0
 70
    32
  0
VERTEX
  5
1D37
  8
0
 10
60.341046332371661
 20
67.518516917052239
 30
0.0
 70
    32
  0
VERTEX
  5
1D38
  8
0
 10
59.796009594259651
 20
67.558616895646423
 30
0.0
 70
    32
  0
VERTEX
  5
1D39
  8
0
 10
59.25
 20
67.572127417336219
 30
0.0
 70
    32
  0
SEQEND
  5
1D3A
  8
0
  0
POLYLINE
  5
1D3B
  8
0
 66
     1
 10
0.0
 20
0.0
 30
0.0
 70
     8
  0
VERTEX
  5
1D3C
  8
0
 10
72.0
 20
66.812938038781326
 30
0.0
 70
    32
  0
VERTEX
  5
1D3D
  8
0
 10
70.96775575038896
 20
67.123758384975815
 30
0.0
 70
    32
  0
VERTEX
  5
1D3E
  8
0
 10
70.444475391976312
 20
67.253693294297534
 30
0.0
 70
    32
  0
VERTEX
  5
1D3F
  8
0
 10
69.917804893744346
 20
67.363752303036165
 30
0.0
 70
    32
  0
VERTEX
  5
1D40
  8
0
 10
69.380711080592604
 20
67.453135436625416
 30
0.0
 70
    32
  0
VERTEX
  5
1D41
  8
0
 10
68.841046332371661
 20
67.518516917052239
 30
0.0
 70
    32
  0
VERTEX
  5
1D42
  8
0
 10
68.296009594259658
 20
67.558616895646423
 30
0.0
 70
    32
  0
VERTEX
  5
1D43
  8
0
 10
67.75
 20
67.572127417336219
 30
0.0
 70
    32
  0
SEQEND
  5
1D44
  8
0
  0
POLYLINE
  5
1D45
  8
0
 66
     1
 10
0.0
 20
0.0
 30
0.0
 70
     8
  0
VERTEX
  5
1D46
  8
0
 10
67.75
 20
67.572127417336219
 30
0.0
 70
    32
  0
VERTEX
  5
1D47
  8
0
 10
67.447782336874525
 20
67.567993269680983
 30
0.0
 70
    32
  0
VERTEX
  5
1D48
  8
0
 10
66.952522665906599
 20
67.543394516928061
 30
0.0
 70
    32
  0
VERTEX
  5
1D49
  8
0
 10
66.458417933827704
 20
67.497160671814299
 30
0.0
 70
    32
  0
VERTEX
  5
1D4A
  8
0
 10
65.470777497497579
 20
67.342274866539583
 30
0.0
 70
    32
  0
VERTEX
  5
1D4B
  8
0
 10
64.480615929492615
 20
67.109880019747933
 30
0.0
 70
    32
  0
VERTEX
  5
1D4C
  8
0
 10
63.5
 20
66.812938038781326
 30
0.0
 70
    32
  0
SEQEND
  5
1D4D
  8
0
  0
LINE
  5
1D4E
  8
0
 10
63.5
 20
60.331316795891098
 30
0.0
 11
63.5
 21
66.812938038781326
 31
0.0
  0
POLYLINE
  5
1D4F
  8
0
 66
     1
 10
0.0
 20
0.0
 30
0.0
 70
     8
  0
VERTEX
  5
1D50
  8
0
 10
63.5
 20
60.331316795891098
 30
0.0
 70
    32
  0
VERTEX
  5
1D51
  8
0
 10
64.53224424961104
 20
60.020496449696623
 30
0.0
 70
    32
  0
VERTEX
  5
1D52
  8
0
 10
65.055524608023688
 20
59.890561540374897
 30
0.0
 70
    32
  0
VERTEX
  5
1D53
  8
0
 10
65.582195106255654
 20
59.780502531636223
 30
0.0
 70
    32
  0
VERTEX
  5
1D54
  8
0
 10
66.119288919407381
 20
59.691119398047022
 30
0.0
 70
    32
  0
VERTEX
  5
1D55
  8
0
 10
66.658953667628339
 20
59.625737917620199
 30
0.0
 70
    32
  0
VERTEX
  5
1D56
  8
0
 10
67.203990405740342
 20
59.585637939026022
 30
0.0
 70
    32
  0
VERTEX
  5
1D57
  8
0
 10
67.75
 20
59.572127417336219
 30
0.0
 70
    32
  0
SEQEND
  5
1D58
  8
0
  0
POLYLINE
  5
1D59
  8
0
 66
     1
 10
0.0
 20
0.0
 30
0.0
 70
     8
  0
VERTEX
  5
1D5A
  8
0
 10
67.75
 20
59.572127417336219
 30
0.0
 70
    32
  0
VERTEX
  5
1D5B
  8
0
 10
68.052217663125475
 20
59.576261564991448
 30
0.0
 70
    32
  0
VERTEX
  5
1D5C
  8
0
 10
68.547477334093401
 20
59.60086031774437
 30
0.0
 70
    32
  0
VERTEX
  5
1D5D
  8
0
 10
69.041582066172282
 20
59.647094162858131
 30
0.0
 70
    32
  0
VERTEX
  5
1D5E
  8
0
 10
70.029222502502421
 20
59.801979968132848
 30
0.0
 70
    32
  0
VERTEX
  5
1D5F
  8
0
 10
71.019384070507385
 20
60.03437481492449
 30
0.0
 70
    32
  0
VERTEX
  5
1D60
  8
0
 10
72.0
 20
60.331316795891098
 30
0.0
 70
    32
  0
SEQEND
  5
1D61
  8
0
  0
LINE
  5
1D6D
  8
0
 10
62.642440928208657
 20
69.471726030409684
 30
0.0
 11
63.67598389444413
 21
69.471726078443055
 31
0.0
  0
LINE
  5
1D6E
  8
0
 10
60.877632505089252
 20
68.810132936283424
 30
0.0
 11
62.822335678712868
 21
68.810133044738393
 31
0.0
  0
LINE
  5
1D6F
  8
0
 10
61.887612009539282
 20
69.633390470736273
 30
0.0
 11
62.884599564891573
 21
68.755294156670516
 31
0.0
  0
LINE
  5
1D70
  8
0
 10
63.176768346413503
 20
69.019791485984626
 30
0.0
 11
62.187775438719711
 21
69.856282453788197
 31
0.0
  0
LINE
  5
1D71
  8
0
 10
62.517797944158133
 20
67.848949739845054
 30
0.0
 11
64.801630264386063
 21
69.91647915345078
 31
0.0
  0
LINE
  5
1D72
  8
0
 10
64.492400314914562
 20
70.210819289215976
 30
0.0
 11
62.208568000158323
 21
68.143289881358825
 31
0.0
  0
LINE
  5
1D73
  8
0
 10
54.748173897656947
 20
69.471725663527707
 30
0.0
 11
58.336220117859682
 21
69.471725830280377
 31
0.0
  0
LINE
  5
1D74
  8
0
 10
54.748173917095578
 20
68.810132594447452
 30
0.0
 11
56.532289624189211
 21
68.8101326939464
 31
0.0
  0
LINE
  5
1D75
  8
0
 10
54.748173941693317
 20
68.810132594447452
 30
0.0
 11
54.748173917095578
 21
69.471725663527707
 31
0.0
  0
LINE
  5
1D76
  8
0
 10
60.148401720685399
 20
69.471725914500496
 30
0.0
 11
61.015446570583492
 21
69.471725954795986
 31
0.0
  0
LINE
  5
1D77
  8
0
 10
61.689280613548419
 20
69.471725986112062
 30
0.0
 11
62.071165292973603
 21
69.471726003859942
 31
0.0
  0
LINE
  5
1D78
  8
0
 10
62.182498894529381
 20
69.873759556257085
 30
0.0
 11
61.888934663142038
 21
70.18372619836947
 31
0.0
  0
LINE
  5
1D79
  8
0
 10
62.208568000158323
 20
68.143289881358825
 30
0.0
 11
62.517797944158133
 21
67.848949739845054
 31
0.0
  0
LINE
  5
1D7A
  8
0
 10
59.368912761597301
 20
70.192390697499434
 30
0.0
 11
59.003248491639908
 21
70.412728889488506
 31
0.0
  0
LINE
  5
1D7B
  8
0
 10
58.914414370528512
 20
70.287407114562754
 30
0.0
 11
56.652292674078872
 21
69.471648358016012
 31
0.0
  0
LINE
  5
1D7C
  8
0
 10
58.858070747487368
 20
69.471725854533076
 30
0.0
 11
59.5686735883192
 21
69.471725887557966
 31
0.0
  0
LINE
  5
1D7D
  8
0
 10
59.501046861913267
 20
68.237303905283454
 30
0.0
 11
59.794611087538271
 21
67.927337257713759
 31
0.0
  0
LINE
  5
1D7E
  8
0
 10
57.22170237433243
 20
67.899431985781064
 30
0.0
 11
57.587366640193721
 21
67.679093786994287
 31
0.0
  0
LINE
  5
1D7F
  8
0
 10
57.585876415906171
 20
68.413186573555265
 30
0.0
 11
56.334353368199402
 21
69.47172573724464
 31
0.0
  0
LINE
  5
1D80
  8
0
 10
55.78111917206882
 20
69.471725711533338
 30
0.0
 11
57.354149353926857
 21
68.08628012879916
 31
0.0
  0
LINE
  5
1D81
  8
0
 10
57.587366640193721
 20
67.679093786994287
 30
0.0
 11
59.368912761597301
 21
70.192390697499434
 31
0.0
  0
LINE
  5
1D82
  8
0
 10
59.003248491639908
 20
70.412728889488506
 30
0.0
 11
57.22170237433243
 21
67.899431985781064
 31
0.0
  0
LINE
  5
1D83
  8
0
 10
59.134410320440281
 20
69.854203053708645
 30
0.0
 11
60.264066583986448
 21
68.859258838150652
 31
0.0
  0
LINE
  5
1D84
  8
0
 10
60.573916831086251
 20
69.111824904346406
 30
0.0
 11
59.341715185406827
 21
70.154022011226687
 31
0.0
  0
LINE
  5
1D85
  8
0
 10
57.116562406383821
 20
68.810132726530881
 30
0.0
 11
57.867251032313838
 21
68.810132768396343
 31
0.0
  0
LINE
  5
1D86
  8
0
 10
58.389101665569989
 20
68.810132797499634
 30
0.0
 11
60.203798454123437
 21
68.810132898704225
 31
0.0
  0
LINE
  5
1D87
  8
0
 10
59.794611087538271
 20
67.927337257713759
 30
0.0
 11
62.182498894529381
 21
69.873759556257085
 31
0.0
  0
LINE
  5
1D88
  8
0
 10
61.888934663142038
 20
70.18372619836947
 30
0.0
 11
59.501046861913267
 21
68.237303905283454
 31
0.0
  0
LINE
  5
1D89
  8
0
 10
68.834648063844384
 20
68.81013338004135
 30
0.0
 11
72.251826117636824
 21
68.810133570615164
 31
0.0
  0
LINE
  5
1D8A
  8
0
 10
68.232187957561592
 20
67.57212741677877
 30
0.0
 11
70.290426360496554
 21
68.8101334612291
 31
0.0
  0
LINE
  5
1D8B
  8
0
 10
69.289641734025395
 20
69.745107947932922
 30
0.0
 11
70.129079032418645
 21
68.8101334522309
 31
0.0
  0
LINE
  5
1D8C
  8
0
 10
70.672067151839997
 20
68.810133482512981
 30
0.0
 11
69.463763921287068
 21
70.102914720784099
 31
0.0
  0
LINE
  5
1D8D
  8
0
 10
69.580216547100576
 20
70.342215288320801
 30
0.0
 11
69.183526161619966
 21
70.500000000000014
 31
0.0
  0
LINE
  5
1D8E
  8
0
 10
65.310545856813746
 20
69.471726154408486
 30
0.0
 11
66.2494667932732
 21
69.471726198044337
 31
0.0
  0
LINE
  5
1D8F
  8
0
 10
64.310347589901426
 20
69.471726107924781
 30
0.0
 11
64.738133757924857
 21
69.47172612780588
 31
0.0
  0
LINE
  5
1D90
  8
0
 10
64.801630264386063
 20
69.91647915345078
 30
0.0
 11
64.492400314914562
 21
70.210819289215976
 31
0.0
  0
LINE
  5
1D91
  8
0
 10
66.864560353967477
 20
69.471726226630551
 30
0.0
 11
67.282218981940446
 21
69.471726246040987
 31
0.0
  0
LINE
  5
1D92
  8
0
 10
67.372517855506999
 20
69.958854585636971
 30
0.0
 11
67.054957603900775
 21
70.244187310315112
 31
0.0
  0
LINE
  5
1D93
  8
0
 10
67.851718872268179
 20
69.471726272508192
 30
0.0
 11
68.683129641825744
 21
69.47172631114762
 31
0.0
  0
LINE
  5
1D94
  8
0
 10
66.174678275600513
 20
68.810133231696383
 30
0.0
 11
68.033389312685244
 21
68.810133335355602
 31
0.0
  0
LINE
  5
1D95
  8
0
 10
64.83147979568696
 20
68.111884721407975
 30
0.0
 11
65.149040041988769
 21
67.826551990826545
 31
0.0
  0
LINE
  5
1D96
  8
0
 10
63.579539353676523
 20
68.810133086967141
 30
0.0
 11
65.489304115518394
 21
68.810133193473519
 31
0.0
  0
LINE
  5
1D97
  8
0
 10
65.809450028198725
 20
69.049752619596859
 30
0.0
 11
64.7934571868592
 21
69.909080152203373
 31
0.0
  0
LINE
  5
1D98
  8
0
 10
64.52130181824657
 20
69.662700755303661
 30
0.0
 11
65.525938936164152
 21
68.777867092655299
 31
0.0
  0
LINE
  5
1D99
  8
0
 10
68.440704219763461
 20
68.973562009129125
 30
0.0
 11
67.327183223351881
 21
69.915378930880422
 31
0.0
  0
LINE
  5
1D9A
  8
0
 10
67.06450811198772
 20
69.663474990958775
 30
0.0
 11
68.262832875363415
 21
68.608051026913415
 31
0.0
  0
LINE
  5
1D9B
  8
0
 10
67.054957603900775
 20
70.244187310315112
 30
0.0
 11
64.83147979568696
 21
68.111884721407975
 31
0.0
  0
LINE
  5
1D9C
  8
0
 10
65.149040041988769
 20
67.826551990826545
 30
0.0
 11
67.372517855506999
 21
69.958854585636971
 31
0.0
  0
LINE
  5
1D9D
  8
0
 10
68.232187958110785
 20
67.572127416560321
 30
0.0
 11
69.580216547100576
 21
70.342215288320801
 31
0.0
  0
LINE
  5
1D9E
  8
0
 10
69.183526161619966
 20
70.5
 30
0.0
 11
67.83549757208101
 21
67.729912128457968
 31
0.0
  0
LINE
  5
1D9F
  8
0
 10
70.05370667022919
 20
69.471726374844422
 30
0.0
 11
72.251826040860692
 21
69.471726477000914
 31
0.0
  0
LINE
  5
1DA0
  8
0
 10
72.251826100350513
 20
68.810133570615164
 30
0.0
 11
72.251826040860692
 21
69.471726477000914
 31
0.0
  0
LINE
  5
1DA1
  8
0
 10
147.5
 20
145.5
 30
0.0
 11
147.5
 21
165.5
 31
0.0
  0
LINE
  5
1DA2
  8
0
 10
146.0
 20
145.5
 30
0.0
 11
147.5
 21
145.5
 31
0.0
  0
LINE
  5
1DA3
  8
0
 10
146.0
 20
165.5
 30
0.0
 11
147.5
 21
165.5
 31
0.0
  0
LINE
  5
1DA4
  8
0
 10
147.5
 20
221.5
 30
0.0
 11
147.5
 21
241.5
 31
0.0
  0
LINE
  5
1DA5
  8
0
 10
146.0
 20
221.5
 30
0.0
 11
147.5
 21
221.5
 31
0.0
  0
LINE
  5
1DA6
  8
0
 10
146.0
 20
241.5
 30
0.0
 11
147.5
 21
241.5
 31
0.0
  0
LINE
  5
1DA7
  8
0
 10
68.232187957561592
 20
67.57212741677877
 30
0.0
 11
67.835497572080953
 21
67.729912128457983
 31
0.0
  0
LINE
  5
1DA8
  8
3
 10
150.42787258266381
 20
227.4199999999999
 30
0.0
 11
149.18986668975481
 21
227.4199999999999
 31
0.0
  0
LINE
  5
1DA9
  8
3
 10
148.2984536947433
 20
227.4199999999999
 30
0.0
 11
147.5
 21
227.4199999999999
 31
0.0
  0
LINE
  5
1DAA
  8
3
 10
150.42787258266381
 20
235.58000000000001
 30
0.0
 11
149.18986714483279
 21
235.58000000000001
 31
0.0
  0
LINE
  5
1DAB
  8
3
 10
147.91219134562749
 20
235.58000000000001
 30
0.0
 11
147.5
 21
235.58000000000001
 31
0.0
  0
LINE
  5
1DAC
  8
0
 10
147.5
 20
236.5
 30
0.0
 11
147.86203760900261
 21
236.5
 31
0.0
  0
LINE
  5
1DAD
  8
0
 10
149.1898671961408
 20
236.5
 30
0.0
 11
150.42787258266381
 21
236.5
 31
0.0
  0
LINE
  5
1DAE
  8
0
 10
150.42787258266381
 20
226.5
 30
0.0
 11
150.26678680868571
 21
226.5
 31
0.0
  0
LINE
  5
1DAF
  8
0
 10
148.52827369721749
 20
226.5
 30
0.0
 11
147.5
 21
226.5
 31
0.0
  0
LINE
  5
1DB2
  8
0
 10
148.5282739695902
 20
232.3575590717914
 30
0.0
 11
148.52827392155689
 21
231.3240161055559
 31
0.0
  0
LINE
  5
1DB3
  8
0
 10
149.18986706371649
 20
234.1223674949108
 30
0.0
 11
149.18986695526149
 21
232.17766432128721
 31
0.0
  0
LINE
  5
1DB4
  8
0
 10
148.3666095292636
 20
233.1123879904608
 30
0.0
 11
149.24470584332951
 21
232.11540043510851
 31
0.0
  0
LINE
  5
1DB5
  8
0
 10
148.98020851401529
 20
231.82323165358659
 30
0.0
 11
148.14371754621169
 21
232.81222456128029
 31
0.0
  0
LINE
  5
1DB6
  8
0
 10
150.15105026015479
 20
232.4822020558419
 30
0.0
 11
148.08352084654911
 21
230.19836973561399
 31
0.0
  0
LINE
  5
1DB7
  8
0
 10
147.78918071078391
 20
230.50759968508549
 30
0.0
 11
149.8567101186411
 21
232.79143199984171
 31
0.0
  0
LINE
  5
1DB8
  8
0
 10
148.52827433647221
 20
240.2518261023431
 30
0.0
 11
148.52827416971951
 21
236.6637798821404
 31
0.0
  0
LINE
  5
1DB9
  8
0
 10
149.18986740555249
 20
240.25182608290439
 30
0.0
 11
149.18986730605349
 21
238.46771037581081
 31
0.0
  0
LINE
  5
1DBA
  8
0
 10
149.18986740555249
 20
240.2518260583067
 30
0.0
 11
148.52827433647221
 21
240.25182608290439
 31
0.0
  0
LINE
  5
1DBB
  8
0
 10
148.52827408549939
 20
234.8515982793146
 30
0.0
 11
148.52827404520389
 21
233.98455342941651
 31
0.0
  0
LINE
  5
1DBC
  8
0
 10
148.52827401388791
 20
233.31071938645161
 30
0.0
 11
148.52827399614
 21
232.9288347070264
 31
0.0
  0
LINE
  5
1DBD
  8
0
 10
148.1262404437428
 20
232.81750110547071
 30
0.0
 11
147.81627380163039
 21
233.11106533685799
 31
0.0
  0
LINE
  5
1DBE
  8
0
 10
149.8567101186411
 20
232.79143199984171
 30
0.0
 11
150.15105026015479
 21
232.4822020558419
 31
0.0
  0
LINE
  5
1DBF
  8
0
 10
147.80760930250051
 20
235.6310872384027
 30
0.0
 11
147.58727111051141
 21
235.99675150836009
 31
0.0
  0
LINE
  5
1DC0
  8
0
 10
147.7125928854372
 20
236.0855856294715
 30
0.0
 11
148.5283516419839
 21
238.34770732592119
 31
0.0
  0
LINE
  5
1DC1
  8
0
 10
148.52827414546681
 20
236.1419292525126
 30
0.0
 11
148.52827411244201
 21
235.4313264116808
 31
0.0
  0
LINE
  5
1DC2
  8
0
 10
149.76269609471649
 20
235.4989531380867
 30
0.0
 11
150.07266274228621
 21
235.20538891246181
 31
0.0
  0
LINE
  5
1DC3
  8
0
 10
150.10056801421891
 20
237.77829762566759
 30
0.0
 11
150.3209062130056
 21
237.41263335980631
 31
0.0
  0
LINE
  5
1DC4
  8
0
 10
149.58681342644471
 20
237.41412358409389
 30
0.0
 11
148.5282742627553
 21
238.6656466318006
 31
0.0
  0
LINE
  5
1DC5
  8
0
 10
148.5282742884666
 20
239.2188808279312
 30
0.0
 11
149.91371987120081
 21
237.6458506460732
 31
0.0
  0
LINE
  5
1DC6
  8
0
 10
150.3209062130056
 20
237.41263335980631
 30
0.0
 11
147.80760930250051
 21
235.6310872384027
 31
0.0
  0
LINE
  5
1DC7
  8
0
 10
147.58727111051141
 20
235.99675150836009
 30
0.0
 11
150.10056801421891
 21
237.77829762566759
 31
0.0
  0
LINE
  5
1DC8
  8
0
 10
148.14579694629131
 20
235.86558967955969
 30
0.0
 11
149.14074116184929
 21
234.73593341601361
 31
0.0
  0
LINE
  5
1DC9
  8
0
 10
148.88817509565351
 20
234.42608316891381
 30
0.0
 11
147.8459779887732
 21
235.6582848145932
 31
0.0
  0
LINE
  5
1DCA
  8
0
 10
149.1898672734691
 20
237.88343759361621
 30
0.0
 11
149.1898672316035
 21
237.13274896768621
 31
0.0
  0
LINE
  5
1DCB
  8
0
 10
149.1898672025003
 20
236.61089833443009
 30
0.0
 11
149.1898671012957
 21
234.79620154587661
 31
0.0
  0
LINE
  5
1DCC
  8
0
 10
150.07266274228621
 20
235.20538891246181
 30
0.0
 11
148.1262404437428
 21
232.81750110547071
 31
0.0
  0
LINE
  5
1DCD
  8
0
 10
147.81627380163039
 20
233.11106533685799
 30
0.0
 11
149.76269609471649
 21
235.4989531380867
 31
0.0
  0
LINE
  5
1DCE
  8
0
 10
149.18986661995859
 20
226.16535193615559
 30
0.0
 11
149.18986642938481
 21
222.7481738823632
 31
0.0
  0
LINE
  5
1DCF
  8
0
 10
150.42787258322119
 20
226.76781204243849
 30
0.0
 11
149.18986653877079
 21
224.7095736395035
 31
0.0
  0
LINE
  5
1DD0
  8
0
 10
148.25489205206699
 20
225.71035826597461
 30
0.0
 11
149.18986654776899
 21
224.87092096758141
 31
0.0
  0
LINE
  5
1DD1
  8
0
 10
149.18986651748691
 20
224.32793284816
 30
0.0
 11
147.89708527921579
 21
225.53623607871299
 31
0.0
  0
LINE
  5
1DD2
  8
0
 10
147.65778471167911
 20
225.4197834528994
 30
0.0
 11
147.49999999999989
 21
225.81647383838009
 31
0.0
  0
LINE
  5
1DD3
  8
0
 10
148.5282738455914
 20
229.68945414318631
 30
0.0
 11
148.52827380195561
 21
228.7505332067268
 31
0.0
  0
LINE
  5
1DD4
  8
0
 10
148.52827389207511
 20
230.6896524100986
 30
0.0
 11
148.52827387219401
 21
230.2618662420752
 31
0.0
  0
LINE
  5
1DD5
  8
0
 10
148.08352084654911
 20
230.19836973561399
 30
0.0
 11
147.78918071078391
 21
230.50759968508549
 31
0.0
  0
LINE
  5
1DD6
  8
0
 10
148.52827377336939
 20
228.13543964603261
 30
0.0
 11
148.5282737539589
 21
227.71778101805961
 31
0.0
  0
LINE
  5
1DD7
  8
0
 10
148.04114541436289
 20
227.627482144493
 30
0.0
 11
147.7558126896848
 21
227.94504239609921
 31
0.0
  0
LINE
  5
1DD8
  8
0
 10
148.52827372749169
 20
227.14828112773179
 30
0.0
 11
148.52827368885229
 21
226.3168703581743
 31
0.0
  0
LINE
  5
1DD9
  8
0
 10
149.18986676830349
 20
228.82532172439949
 30
0.0
 11
149.18986666464431
 21
226.96661068731481
 31
0.0
  0
LINE
  5
1DDA
  8
0
 10
149.8881152785919
 20
230.1685202043131
 30
0.0
 11
150.1734480091734
 21
229.85095995801129
 31
0.0
  0
LINE
  5
1DDB
  8
0
 10
149.1898669130328
 20
231.42046064632351
 30
0.0
 11
149.1898668065264
 21
229.51069588448161
 31
0.0
  0
LINE
  5
1DDC
  8
0
 10
148.95024738040311
 20
229.19054997180129
 30
0.0
 11
148.09091984779661
 21
230.2065428131408
 31
0.0
  0
LINE
  5
1DDD
  8
0
 10
148.3372992446962
 20
230.47869818175349
 30
0.0
 11
149.22213290734459
 21
229.4740610638359
 31
0.0
  0
LINE
  5
1DDE
  8
0
 10
149.02643799087079
 20
226.5592957802366
 30
0.0
 11
148.08462106911949
 21
227.67281677664809
 31
0.0
  0
LINE
  5
1DDF
  8
0
 10
148.3365250090412
 20
227.93549188801231
 30
0.0
 11
149.3919489730865
 21
226.73716712463661
 31
0.0
  0
LINE
  5
1DE0
  8
0
 10
147.7558126896848
 20
227.94504239609921
 30
0.0
 11
149.8881152785919
 21
230.1685202043131
 31
0.0
  0
LINE
  5
1DE1
  8
0
 10
150.1734480091734
 20
229.85095995801129
 30
0.0
 11
148.04114541436289
 21
227.627482144493
 31
0.0
  0
LINE
  5
1DE2
  8
0
 10
150.42787258343961
 20
226.76781204188919
 30
0.0
 11
147.65778471167911
 21
225.4197834528994
 31
0.0
  0
LINE
  5
1DE3
  8
0
 10
147.5
 20
225.81647383838009
 30
0.0
 11
150.27008787154199
 21
227.16450242791899
 31
0.0
  0
LINE
  5
1DE4
  8
0
 10
148.52827362515549
 20
224.94629332977081
 30
0.0
 11
148.528273522999
 21
222.74817395913931
 31
0.0
  0
LINE
  5
1DE5
  8
0
 10
149.18986642938481
 20
222.74817389964949
 30
0.0
 11
148.528273522999
 21
222.74817395913931
 31
0.0
  0
LINE
  5
1DE6
  8
0
 10
150.42787258322119
 20
226.76781204243849
 30
0.0
 11
150.2700878715419
 21
227.1645024279191
 31
0.0
  0
LINE
  5
1DE7
  8
3
 10
150.42787258266381
 20
159.58000000000001
 30
0.0
 11
149.18986668975481
 21
159.58000000000001
 31
0.0
  0
LINE
  5
1DE8
  8
3
 10
148.29845369474339
 20
159.58000000000001
 30
0.0
 11
147.5
 21
159.58000000000001
 31
0.0
  0
LINE
  5
1DE9
  8
3
 10
150.42787258266381
 20
151.4199999999999
 30
0.0
 11
149.18986714483279
 21
151.4199999999999
 31
0.0
  0
LINE
  5
1DEA
  8
3
 10
147.91219134562749
 20
151.4199999999999
 30
0.0
 11
147.5
 21
151.4199999999999
 31
0.0
  0
LINE
  5
1DEB
  8
0
 10
147.5
 20
150.5
 30
0.0
 11
147.8620376090027
 21
150.5
 31
0.0
  0
LINE
  5
1DEC
  8
0
 10
149.1898671961408
 20
150.5
 30
0.0
 11
150.42787258266381
 21
150.5
 31
0.0
  0
LINE
  5
1DED
  8
0
 10
150.42787258266381
 20
160.5
 30
0.0
 11
150.26678680868571
 21
160.5
 31
0.0
  0
LINE
  5
1DEE
  8
0
 10
148.52827369721749
 20
160.5
 30
0.0
 11
147.5
 21
160.5
 31
0.0
  0
LINE
  5
1DF1
  8
0
 10
148.52827396959029
 20
154.6424409282086
 30
0.0
 11
148.52827392155689
 21
155.6759838944441
 31
0.0
  0
LINE
  5
1DF2
  8
0
 10
149.1898670637166
 20
152.8776325050892
 30
0.0
 11
149.18986695526161
 21
154.82233567871279
 31
0.0
  0
LINE
  5
1DF3
  8
0
 10
148.36660952926371
 20
153.8876120095392
 30
0.0
 11
149.24470584332951
 21
154.88459956489149
 31
0.0
  0
LINE
  5
1DF4
  8
0
 10
148.98020851401529
 20
155.17676834641341
 30
0.0
 11
148.1437175462118
 21
154.18777543871971
 31
0.0
  0
LINE
  5
1DF5
  8
0
 10
150.1510502601549
 20
154.5177979441581
 30
0.0
 11
148.08352084654919
 21
156.80163026438601
 31
0.0
  0
LINE
  5
1DF6
  8
0
 10
147.789180710784
 20
156.49240031491451
 30
0.0
 11
149.8567101186411
 21
154.20856800015829
 31
0.0
  0
LINE
  5
1DF7
  8
0
 10
148.52827433647229
 20
146.7481738976569
 30
0.0
 11
148.52827416971959
 21
150.3362201178596
 31
0.0
  0
LINE
  5
1DF8
  8
0
 10
149.18986740555249
 20
146.7481739170955
 30
0.0
 11
149.1898673060536
 21
148.53228962418919
 31
0.0
  0
LINE
  5
1DF9
  8
0
 10
149.18986740555249
 20
146.7481739416933
 30
0.0
 11
148.52827433647229
 21
146.7481739170955
 31
0.0
  0
LINE
  5
1DFA
  8
0
 10
148.5282740854995
 20
152.14840172068531
 30
0.0
 11
148.528274045204
 21
153.01544657058341
 31
0.0
  0
LINE
  5
1DFB
  8
0
 10
148.52827401388791
 20
153.68928061354839
 30
0.0
 11
148.52827399614
 21
154.07116529297349
 31
0.0
  0
LINE
  5
1DFC
  8
0
 10
148.12624044374289
 20
154.18249889452929
 30
0.0
 11
147.8162738016305
 21
153.88893466314201
 31
0.0
  0
LINE
  5
1DFD
  8
0
 10
149.8567101186411
 20
154.20856800015829
 30
0.0
 11
150.1510502601549
 21
154.5177979441581
 31
0.0
  0
LINE
  5
1DFE
  8
0
 10
147.80760930250051
 20
151.3689127615973
 30
0.0
 11
147.58727111051149
 21
151.00324849163991
 31
0.0
  0
LINE
  5
1DFF
  8
0
 10
147.7125928854372
 20
150.9144143705285
 30
0.0
 11
148.52835164198399
 21
148.65229267407881
 31
0.0
  0
LINE
  5
1E00
  8
0
 10
148.5282741454669
 20
150.85807074748729
 30
0.0
 11
148.52827411244201
 21
151.5686735883192
 31
0.0
  0
LINE
  5
1E01
  8
0
 10
149.76269609471649
 20
151.50104686191321
 30
0.0
 11
150.07266274228621
 21
151.79461108753819
 31
0.0
  0
LINE
  5
1E02
  8
0
 10
150.10056801421891
 20
149.22170237433241
 30
0.0
 11
150.32090621300571
 21
149.58736664019369
 31
0.0
  0
LINE
  5
1E03
  8
0
 10
149.58681342644471
 20
149.58587641590611
 30
0.0
 11
148.5282742627553
 21
148.3343533681994
 31
0.0
  0
LINE
  5
1E04
  8
0
 10
148.5282742884666
 20
147.7811191720688
 30
0.0
 11
149.91371987120081
 21
149.3541493539268
 31
0.0
  0
LINE
  5
1E05
  8
0
 10
150.32090621300571
 20
149.58736664019369
 30
0.0
 11
147.80760930250051
 21
151.3689127615973
 31
0.0
  0
LINE
  5
1E06
  8
0
 10
147.58727111051149
 20
151.00324849163991
 30
0.0
 11
150.10056801421891
 21
149.22170237433241
 31
0.0
  0
LINE
  5
1E07
  8
0
 10
148.14579694629131
 20
151.1344103204402
 30
0.0
 11
149.14074116184929
 21
152.26406658398639
 31
0.0
  0
LINE
  5
1E08
  8
0
 10
148.88817509565359
 20
152.57391683108619
 30
0.0
 11
147.84597798877331
 21
151.3417151854068
 31
0.0
  0
LINE
  5
1E09
  8
0
 10
149.1898672734691
 20
149.11656240638379
 30
0.0
 11
149.18986723160361
 21
149.86725103231379
 31
0.0
  0
LINE
  5
1E0A
  8
0
 10
149.1898672025003
 20
150.38910166557
 30
0.0
 11
149.1898671012957
 21
152.20379845412339
 31
0.0
  0
LINE
  5
1E0B
  8
0
 10
150.07266274228621
 20
151.79461108753819
 30
0.0
 11
148.12624044374289
 21
154.18249889452929
 31
0.0
  0
LINE
  5
1E0C
  8
0
 10
147.8162738016305
 20
153.88893466314201
 30
0.0
 11
149.76269609471649
 21
151.50104686191321
 31
0.0
  0
LINE
  5
1E0D
  8
0
 10
149.18986661995859
 20
160.8346480638443
 30
0.0
 11
149.18986642938481
 21
164.2518261176368
 31
0.0
  0
LINE
  5
1E0E
  8
0
 10
150.42787258322119
 20
160.23218795756151
 30
0.0
 11
149.1898665387709
 21
162.2904263604965
 31
0.0
  0
LINE
  5
1E0F
  8
0
 10
148.25489205206699
 20
161.28964173402539
 30
0.0
 11
149.1898665477691
 21
162.12907903241859
 31
0.0
  0
LINE
  5
1E10
  8
0
 10
149.18986651748699
 20
162.67206715183991
 30
0.0
 11
147.8970852792159
 21
161.46376392128701
 31
0.0
  0
LINE
  5
1E11
  8
0
 10
147.6577847116792
 20
161.58021654710049
 30
0.0
 11
147.5
 21
161.18352616161991
 31
0.0
  0
LINE
  5
1E12
  8
0
 10
148.52827384559151
 20
157.31054585681369
 30
0.0
 11
148.52827380195561
 21
158.2494667932732
 31
0.0
  0
LINE
  5
1E13
  8
0
 10
148.52827389207519
 20
156.3103475899014
 30
0.0
 11
148.52827387219409
 21
156.7381337579248
 31
0.0
  0
LINE
  5
1E14
  8
0
 10
148.08352084654919
 20
156.80163026438601
 30
0.0
 11
147.789180710784
 21
156.49240031491451
 31
0.0
  0
LINE
  5
1E15
  8
0
 10
148.52827377336939
 20
158.86456035396739
 30
0.0
 11
148.52827375395901
 21
159.28221898194039
 31
0.0
  0
LINE
  5
1E16
  8
0
 10
148.041145414363
 20
159.37251785550691
 30
0.0
 11
147.75581268968489
 21
159.0549576039007
 31
0.0
  0
LINE
  5
1E17
  8
0
 10
148.52827372749181
 20
159.85171887226809
 30
0.0
 11
148.52827368885241
 21
160.6831296418257
 31
0.0
  0
LINE
  5
1E18
  8
0
 10
149.1898667683036
 20
158.1746782756004
 30
0.0
 11
149.1898666646444
 21
160.03338931268519
 31
0.0
  0
LINE
  5
1E19
  8
0
 10
149.88811527859201
 20
156.8314797956869
 30
0.0
 11
150.1734480091734
 21
157.14904004198871
 31
0.0
  0
LINE
  5
1E1A
  8
0
 10
149.1898669130328
 20
155.57953935367649
 30
0.0
 11
149.18986680652651
 21
157.48930411551831
 31
0.0
  0
LINE
  5
1E1B
  8
0
 10
148.95024738040311
 20
157.80945002819871
 30
0.0
 11
148.09091984779661
 21
156.79345718685909
 31
0.0
  0
LINE
  5
1E1C
  8
0
 10
148.33729924469631
 20
156.52130181824651
 30
0.0
 11
149.2221329073447
 21
157.5259389361641
 31
0.0
  0
LINE
  5
1E1D
  8
0
 10
149.02643799087079
 20
160.4407042197634
 30
0.0
 11
148.08462106911949
 21
159.3271832233518
 31
0.0
  0
LINE
  5
1E1E
  8
0
 10
148.3365250090412
 20
159.06450811198769
 30
0.0
 11
149.39194897308661
 21
160.26283287536339
 31
0.0
  0
LINE
  5
1E1F
  8
0
 10
147.75581268968489
 20
159.0549576039007
 30
0.0
 11
149.88811527859201
 21
156.8314797956869
 31
0.0
  0
LINE
  5
1E20
  8
0
 10
150.1734480091734
 20
157.14904004198871
 30
0.0
 11
148.041145414363
 21
159.37251785550691
 31
0.0
  0
LINE
  5
1E21
  8
0
 10
150.42787258343969
 20
160.2321879581107
 30
0.0
 11
147.6577847116792
 21
161.58021654710049
 31
0.0
  0
LINE
  5
1E22
  8
0
 10
147.5
 20
161.18352616161991
 30
0.0
 11
150.27008787154199
 21
159.8354975720809
 31
0.0
  0
LINE
  5
1E23
  8
0
 10
148.52827362515549
 20
162.0537066702291
 30
0.0
 11
148.52827352299909
 21
164.25182604086061
 31
0.0
  0
LINE
  5
1E24
  8
0
 10
149.18986642938481
 20
164.25182610035051
 30
0.0
 11
148.52827352299909
 21
164.25182604086061
 31
0.0
  0
LINE
  5
1E25
  8
0
 10
150.42787258322119
 20
160.23218795756151
 30
0.0
 11
150.27008787154199
 21
159.8354975720809
 31
0.0
  0
ENDSEC
  0
EOF
