  0
SECTION
  2
HEADER
  9
$ACADVER
  1
AC1009
  9
$INSBASE
 10
0.0
 20
0.0
 30
0.0
  9
$EXTMIN
 10
0.0
 20
-2.960436562073669
 30
0.0
  9
$EXTMAX
 10
152.97988100431411
 20
156.92804847871531
 30
0.0
  9
$LIMMIN
 10
0.0
 20
0.0
  9
$LIMMAX
 10
375.0
 20
270.0
  9
$ORTHOMODE
 70
     1
  9
$REGENMODE
 70
     1
  9
$FILLMODE
 70
     1
  9
$QTEXTMODE
 70
     0
  9
$MIRRTEXT
 70
     0
  9
$DRAGMODE
 70
     2
  9
$LTSCALE
 40
10.0
  9
$OSMODE
 70
  3071
  9
$ATTMODE
 70
     1
  9
$TEXTSIZE
 40
0.2
  9
$TRACEWID
 40
0.05
  9
$TEXTSTYLE
  7
STANDARD
  9
$CLAYER
  8
0
  9
$CELTYPE
  6
BYLAYER
  9
$CECOLOR
 62
   256
  9
$DIMSCALE
 40
1.0
  9
$DIMASZ
 40
3.0
  9
$DIMEXO
 40
2.0
  9
$DIMDLI
 40
10.0
  9
$DIMRND
 40
0.0
  9
$DIMDLE
 40
0.0
  9
$DIMEXE
 40
2.0
  9
$DIMTP
 40
0.0
  9
$DIMTM
 40
0.0
  9
$DIMTXT
 40
3.2000000000000002
  9
$DIMCEN
 40
0.09
  9
$DIMTSZ
 40
0.0
  9
$DIMTOL
 70
     0
  9
$DIMLIM
 70
     0
  9
$DIMTIH
 70
     0
  9
$DIMTOH
 70
     0
  9
$DIMSE1
 70
     0
  9
$DIMSE2
 70
     0
  9
$DIMTAD
 70
     1
  9
$DIMZIN
 70
     8
  9
$DIMBLK
  1

  9
$DIMASO
 70
     0
  9
$DIMSHO
 70
     0
  9
$DIMPOST
  1

  9
$DIMAPOST
  1

  9
$DIMALT
 70
     0
  9
$DIMALTD
 70
     2
  9
$DIMALTF
 40
25.399999999999999
  9
$DIMLFAC
 40
1.0
  9
$DIMTOFL
 70
     1
  9
$DIMTVP
 40
1.6000000000000001
  9
$DIMTIX
 70
     0
  9
$DIMSOXD
 70
     0
  9
$DIMSAH
 70
     0
  9
$DIMBLK1
  1

  9
$DIMBLK2
  1

  9
$DIMSTYLE
  2
STANDARD
  9
$DIMCLRD
 70
   256
  9
$DIMCLRE
 70
     0
  9
$DIMCLRT
 70
     0
  9
$DIMTFAC
 40
1.0
  9
$DIMGAP
 40
0.09
  9
$LUNITS
 70
     2
  9
$LUPREC
 70
     4
  9
$SKETCHINC
 40
0.1
  9
$FILLETRAD
 40
0.0
  9
$AUNITS
 70
     0
  9
$AUPREC
 70
     0
  9
$MENU
  1
E:\r13\win\SUPPORT\ACAD
  9
$ELEVATION
 40
0.0
  9
$PELEVATION
 40
0.0
  9
$THICKNESS
 40
0.0
  9
$LIMCHECK
 70
     0
  9
$BLIPMODE
 70
     0
  9
$CHAMFERA
 40
0.0
  9
$CHAMFERB
 40
0.0
  9
$SKPOLY
 70
     0
  9
$TDCREATE
 40
2449840.6171180559
  9
$TDUPDATE
 40
2456597.6062142239
  9
$TDINDWG
 40
0.1462100347
  9
$TDUSRTIMER
 40
0.1462100347
  9
$USRTIMER
 70
     1
  9
$ANGBASE
 50
0.0
  9
$ANGDIR
 70
     0
  9
$PDMODE
 70
     0
  9
$PDSIZE
 40
0.0
  9
$PLINEWID
 40
0.0
  9
$COORDS
 70
     1
  9
$SPLFRAME
 70
     0
  9
$SPLINETYPE
 70
     6
  9
$SPLINESEGS
 70
     8
  9
$ATTDIA
 70
     0
  9
$ATTREQ
 70
     1
  9
$HANDLING
 70
     1
  9
$HANDSEED
  5
2CBD
  9
$SURFTAB1
 70
     6
  9
$SURFTAB2
 70
     6
  9
$SURFTYPE
 70
     6
  9
$SURFU
 70
     6
  9
$SURFV
 70
     6
  9
$UCSNAME
  2

  9
$UCSORG
 10
0.0
 20
0.0
 30
0.0
  9
$UCSXDIR
 10
1.0
 20
0.0
 30
0.0
  9
$UCSYDIR
 10
0.0
 20
1.0
 30
0.0
  9
$PUCSNAME
  2

  9
$PUCSORG
 10
0.0
 20
0.0
 30
0.0
  9
$PUCSXDIR
 10
1.0
 20
0.0
 30
0.0
  9
$PUCSYDIR
 10
0.0
 20
1.0
 30
0.0
  9
$USERI1
 70
     0
  9
$USERI2
 70
     1
  9
$USERI3
 70
     0
  9
$USERI4
 70
     0
  9
$USERI5
 70
     0
  9
$USERR1
 40
0.0
  9
$USERR2
 40
0.0
  9
$USERR3
 40
0.0
  9
$USERR4
 40
0.0
  9
$USERR5
 40
0.0
  9
$WORLDVIEW
 70
     1
  9
$SHADEDGE
 70
     3
  9
$SHADEDIF
 70
    70
  9
$TILEMODE
 70
     1
  9
$MAXACTVP
 70
    16
  9
$PLIMCHECK
 70
     0
  9
$PEXTMIN
 10
1.0000000000000000E+020
 20
1.0000000000000000E+020
 30
1.0000000000000000E+020
  9
$PEXTMAX
 10
-1.0000000000000000E+020
 20
-1.0000000000000000E+020
 30
-1.0000000000000000E+020
  9
$PLIMMIN
 10
0.0
 20
0.0
  9
$PLIMMAX
 10
12.0
 20
9.0
  9
$UNITMODE
 70
     0
  9
$VISRETAIN
 70
     0
  9
$PLINEGEN
 70
     0
  9
$PSLTSCALE
 70
     0
  0
ENDSEC
  0
SECTION
  2
TABLES
  0
TABLE
  2
VPORT
 70
     1
  0
VPORT
  2
*ACTIVE
 70
     0
 10
0.0
 20
0.0
 11
1.0
 21
1.0
 12
187.49427839065231
 22
134.10366293909439
 13
0.0
 23
0.0
 14
10.0
 24
10.0
 15
10.0
 25
10.0
 16
0.0
 26
0.0
 36
1.0
 17
0.0
 27
0.0
 37
0.0
 40
277.29405978699532
 41
2.304913294797688
 42
50.0
 43
0.0
 44
0.0
 50
0.0
 51
0.0
 71
     0
 72
   100
 73
     1
 74
     0
 75
     0
 76
     0
 77
     0
 78
     0
  0
ENDTAB
  0
TABLE
  2
LTYPE
 70
     3
  0
LTYPE
  2
CONTINUOUS
 70
     0
  3
Solid Line
 72
    65
 73
     0
 40
0.0
  0
LTYPE
  2
CENTER
 70
     0
  3
____ _ ____ _ ____ _ ____ _ ____ _ ____ _ ____
 72
    65
 73
     4
 40
2.0
 49
1.25
 49
-0.25
 49
0.25
 49
-0.25
  0
LTYPE
  2
PHANTOM2
 70
     0
  3
___ _ _ ___ _ _ ___ _ _ ___ _ _
 72
    65
 73
     6
 40
1.25
 49
0.625
 49
-0.125
 49
0.125
 49
-0.125
 49
0.125
 49
-0.125
  0
ENDTAB
  0
TABLE
  2
LAYER
 70
     3
  0
LAYER
  2
0
 70
     0
 62
     7
  6
CONTINUOUS
  0
LAYER
  2
1
 70
     0
 62
     1
  6
CENTER
  0
LAYER
  2
3
 70
     0
 62
     3
  6
CONTINUOUS
  0
ENDTAB
  0
TABLE
  2
STYLE
 70
     2
  0
STYLE
  2
STANDARD
 70
     0
 40
0.0
 41
1.0
 50
0.0
 71
     0
 42
0.2
  3
TXT
  4
BIGFONT
  0
STYLE
  2
STANDARD1
 70
     0
 40
0.0
 41
1.0
 50
0.0
 71
     0
 42
3.0
  3
txt
  4

  0
ENDTAB
  0
TABLE
  2
VIEW
 70
     1
  0
VIEW
  2
ALL
 70
     0
 40
270.0
 10
220.99159700000001
 20
135.0
 41
0.0
 11
0.0
 21
0.0
 31
1.0
 12
0.0
 22
0.0
 32
0.0
 42
0.0
 43
0.0
 44
0.0
 50
0.0
 71
     0
  0
ENDTAB
  0
TABLE
  2
UCS
 70
     0
  0
ENDTAB
  0
TABLE
  2
APPID
 70
     3
  0
APPID
  2
ACAD
 70
     0
  0
APPID
  2
ACAD_MLEADERVER
 70
     0
  0
APPID
  2
ACAD_NAV_VCDISPLAY
 70
     0
  0
ENDTAB
  0
TABLE
  2
DIMSTYLE
 70
     1
  0
DIMSTYLE
  2
STANDARD
 70
     0
  3

  4

  5

  6

  7

 40
1.0
 41
0.18
 42
0.0625
 43
0.38
 44
0.18
 45
0.0
 46
0.0
 47
0.0
 48
0.0
140
0.18
141
0.09
142
0.0
143
25.399999999999999
144
1.0
145
0.0
146
1.0
147
0.09
 71
     0
 72
     0
 73
     1
 74
     1
 75
     0
 76
     0
 77
     0
 78
     0
170
     0
171
     2
172
     0
173
     0
174
     0
175
     0
176
     0
177
     0
178
     0
  0
ENDTAB
  0
ENDSEC
  0
SECTION
  2
BLOCKS
  0
BLOCK
  8
0
  2
$MODEL_SPACE
 70
     0
 10
0.0
 20
0.0
 30
0.0
  3
$MODEL_SPACE
  1

  0
ENDBLK
  5
E8
  8
0
  0
BLOCK
 67
     1
  8
0
  2
$PAPER_SPACE
 70
     0
 10
0.0
 20
0.0
 30
0.0
  3
$PAPER_SPACE
  1

  0
ENDBLK
  5
E6
 67
     1
  8
0
  0
ENDSEC
  0
SECTION
  2
ENTITIES
  0
LINE
  5
2A75
  8
0
 10
86.723773977151978
 20
135.0386487718001
 30
0.0
 11
72.264757583709326
 21
132.38782909966889
 31
0.0
  0
ARC
  5
2A7B
  8
0
 10
85.410987091906094
 20
142.199304509505
 30
0.0
 40
7.2799999999999612
 50
280.38885781546958
 51
313.5902439463494
  0
ARC
  5
2A7D
  8
0
 10
64.690987091905953
 20
173.6993045095044
 30
0.0
 40
41.999999999999368
 50
259.61114218453042
 51
280.38885781546958
  0
LINE
  5
2A7F
  8
0
 10
57.117216600102807
 20
132.38782909966889
 30
0.0
 11
42.658200206660183
 21
135.0386487718001
 31
0.0
  0
LINE
  5
2A94
  8
1
 10
64.690987091906095
 20
127.4705605402948
 30
0.0
 11
64.690987091906095
 21
156.92804847871531
 31
0.0
  0
LINE
  5
2A95
  8
1
 10
98.304926844169358
 20
142.199304509505
 30
0.0
 11
31.077047339642849
 21
142.199304509505
 31
0.0
  0
LINE
  5
2AD6
  8
1
 10
142.47988100431411
 20
29.276988331828932
 30
0.0
 11
142.47988100431411
 21
92.418508879641465
 31
0.0
  0
LINE
  5
2AD7
  8
3
 10
137.47988100431411
 20
64.170991913440474
 30
0.0
 11
138.3998810043141
 21
62.170991913440467
 31
0.0
  0
LINE
  5
2AD8
  8
3
 10
138.3998810043141
 20
34.170991913440481
 30
0.0
 11
138.3998810043141
 21
62.170991913440467
 31
0.0
  0
LINE
  5
2AD9
  8
0
 10
147.47988100431411
 20
62.170991913440467
 30
0.0
 11
137.47988100431411
 21
62.170991913440467
 31
0.0
  0
LINE
  5
2ADA
  8
3
 10
147.47988100431411
 20
64.170991913440474
 30
0.0
 11
146.55988100431421
 21
62.170991913440467
 31
0.0
  0
LINE
  5
2ADB
  8
3
 10
146.55988100431421
 20
34.170991913440481
 30
0.0
 11
146.55988100431421
 21
62.170991913440467
 31
0.0
  0
LINE
  5
2ADE
  8
0
 10
148.72988100431411
 20
64.170991913440474
 30
0.0
 11
136.22988100431411
 21
64.170991913440474
 31
0.0
  0
LINE
  5
2AE1
  8
0
 10
147.47988100431411
 20
35.09099191344049
 30
0.0
 11
137.47988100431411
 21
35.09099191344049
 31
0.0
  0
LINE
  5
2AE2
  8
0
 10
146.55988100431421
 20
34.170991913440481
 30
0.0
 11
138.3998810043141
 21
34.170991913440481
 31
0.0
  0
LINE
  5
2AEE
  8
0
 10
152.97988100431411
 20
64.57099191344048
 30
0.0
 11
131.97988100431419
 21
64.57099191344048
 31
0.0
  0
LINE
  5
2B07
  8
0
 10
148.72988100431411
 20
64.170991913440474
 30
0.0
 11
148.72988100431411
 21
64.57099191344048
 31
0.0
  0
LINE
  5
2B08
  8
0
 10
136.22988100431411
 20
64.57099191344048
 30
0.0
 11
136.22988100431411
 21
64.170991913440474
 31
0.0
  0
LINE
  5
2B09
  8
0
 10
147.47988100431411
 20
35.09099191344049
 30
0.0
 11
147.47988100431411
 21
64.170991913440474
 31
0.0
  0
LINE
  5
2B0A
  8
0
 10
137.47988100431411
 20
64.170991913440474
 30
0.0
 11
137.47988100431411
 21
35.09099191344049
 31
0.0
  0
LINE
  5
2B0B
  8
0
 10
146.55988100431421
 20
34.170991913440481
 30
0.0
 11
147.47988100431411
 21
35.09099191344049
 31
0.0
  0
LINE
  5
2B0C
  8
0
 10
137.47988100431411
 20
35.09099191344049
 30
0.0
 11
138.3998810043141
 21
34.170991913440481
 31
0.0
  0
ARC
  5
2B1C
  8
0
 10
85.410987091906094
 20
142.199304509505
 30
0.0
 40
7.2800000000000109
 50
313.59024394634952
 51
46.409756053650462
  0
ARC
  5
2B1D
  8
0
 10
85.410987091906094
 20
142.19930450950511
 30
0.0
 40
7.2799999999999612
 50
46.40975605365059
 51
79.611142184530365
  0
LINE
  5
2B1E
  8
0
 10
86.723773977151978
 20
149.35996024721001
 30
0.0
 11
72.264757583709326
 21
152.0107799193411
 31
0.0
  0
LINE
  5
2B1F
  8
0
 10
57.117216600102807
 20
152.0107799193411
 30
0.0
 11
42.658200206660183
 21
149.35996024721001
 31
0.0
  0
ARC
  5
2B20
  8
0
 10
64.690987091905953
 20
110.69930450950569
 30
0.0
 40
41.999999999999368
 50
79.611142184530365
 51
100.38885781546961
  0
ARC
  5
2B21
  8
0
 10
43.970987091906103
 20
142.19930450950511
 30
0.0
 40
7.2799999999999612
 50
100.38885781546961
 51
133.5902439463494
  0
ARC
  5
2B22
  8
0
 10
43.970987091906103
 20
142.199304509505
 30
0.0
 40
7.2800000000000109
 50
133.59024394634949
 51
226.40975605365051
  0
ARC
  5
2B23
  8
0
 10
43.970987091906103
 20
142.199304509505
 30
0.0
 40
7.2799999999999612
 50
226.4097560536506
 51
259.61114218453042
  0
LINE
  5
2B39
  8
0
 10
59.690987091906067
 20
35.09099191344049
 30
0.0
 11
60.610987091906082
 21
34.170991913440481
 31
0.0
  0
LINE
  5
2B3A
  8
0
 10
68.770987091906079
 20
34.170991913440481
 30
0.0
 11
69.690987091906067
 21
35.09099191344049
 31
0.0
  0
LINE
  5
2B3B
  8
0
 10
59.690987091906067
 20
64.170991913440474
 30
0.0
 11
59.690987091906067
 21
35.09099191344049
 31
0.0
  0
LINE
  5
2B3C
  8
0
 10
69.690987091906067
 20
35.09099191344049
 30
0.0
 11
69.690987091906067
 21
64.170991913440474
 31
0.0
  0
LINE
  5
2B3D
  8
0
 10
58.440987091906067
 20
64.57099191344048
 30
0.0
 11
58.440987091906067
 21
64.170991913440474
 31
0.0
  0
LINE
  5
2B3E
  8
0
 10
70.940987091906067
 20
64.170991913440474
 30
0.0
 11
70.940987091906067
 21
64.57099191344048
 31
0.0
  0
LINE
  5
2B3F
  8
0
 10
68.770987091906079
 20
34.170991913440481
 30
0.0
 11
60.610987091906082
 21
34.170991913440481
 31
0.0
  0
LINE
  5
2B40
  8
0
 10
69.690987091906067
 20
35.09099191344049
 30
0.0
 11
59.690987091906067
 21
35.09099191344049
 31
0.0
  0
LINE
  5
2B41
  8
0
 10
70.940987091906067
 20
64.170991913440474
 30
0.0
 11
58.440987091906067
 21
64.170991913440474
 31
0.0
  0
LINE
  5
2B42
  8
3
 10
68.770987091906079
 20
34.170991913440481
 30
0.0
 11
68.770987091906079
 21
62.170991913440467
 31
0.0
  0
LINE
  5
2B43
  8
3
 10
69.690987091906067
 20
64.170991913440474
 30
0.0
 11
68.770987091906079
 21
62.170991913440467
 31
0.0
  0
LINE
  5
2B44
  8
0
 10
69.690987091906067
 20
62.170991913440467
 30
0.0
 11
59.690987091906067
 21
62.170991913440467
 31
0.0
  0
LINE
  5
2B45
  8
3
 10
60.610987091906082
 20
34.170991913440481
 30
0.0
 11
60.610987091906082
 21
62.170991913440467
 31
0.0
  0
LINE
  5
2B46
  8
3
 10
59.690987091906067
 20
64.170991913440474
 30
0.0
 11
60.610987091906082
 21
62.170991913440467
 31
0.0
  0
LINE
  5
2B47
  8
1
 10
64.690987091906067
 20
29.276988331828932
 30
0.0
 11
64.690987091906081
 21
92.418508879641465
 31
0.0
  0
ARC
  5
2B48
  8
0
 10
64.690987091906095
 20
31.170991913440481
 30
0.0
 40
56.0
 50
64.291903819036193
 51
115.70809618096381
  0
ARC
  5
2B4E
  8
0
 10
42.830996163052873
 20
76.58029208667395
 30
0.0
 40
5.6029394178203491
 50
115.725903673031
 51
176.98219250793761
  0
LINE
  5
2B4F
  8
0
 10
36.690987091906102
 20
64.57099191344048
 30
0.0
 11
92.690987091905995
 21
64.57099191344048
 31
0.0
  0
LINE
  5
2B58
  8
0
 10
37.235826786528442
 20
76.875266268202253
 30
0.0
 11
36.690987091906102
 21
64.57099191344048
 31
0.0
  0
LINE
  5
2B59
  8
0
 10
92.146147397283684
 20
76.875266268202196
 30
0.0
 11
92.690987091905995
 21
64.570991913440423
 31
0.0
  0
ARC
  5
2B5A
  8
0
 10
86.550978020759274
 20
76.580292086673893
 30
0.0
 40
5.6029394178203491
 50
3.01780749206219
 51
64.274096326968845
  0
LINE
  5
2B7F
  8
0
 10
152.97988086275311
 20
64.570991903335624
 30
0.0
 11
152.97988086275311
 21
84.170762361052283
 31
0.0
  0
ARC
  5
2B80
  8
0
 10
149.97988099094059
 20
84.170991903599528
 30
0.0
 40
2.9999999999999929
 50
0.0015896856653507
 51
90.078367730093547
  0
LINE
  5
2B81
  8
0
 10
149.97566194541309
 20
87.170991958143958
 30
0.0
 11
134.98410006321521
 21
87.170991958143958
 31
0.0
  0
ARC
  5
2B82
  8
0
 10
134.9798810176878
 20
84.170991903599528
 30
0.0
 40
3.0000000000000049
 50
89.921608979699485
 51
180.07707684705821
  0
LINE
  5
2B83
  8
0
 10
131.9798811458752
 20
84.167137653591894
 30
0.0
 11
131.9798811458752
 21
64.570991903335624
 31
0.0
  0
TEXT
  5
2C2C
  8
0
 62
     3
 10
0.0
 20
0.0
 30
0.0
 40
10.0
  1
LS10X30A
  7
STANDARD1
  0
ENDSEC
  0
EOF
