  0
SECTION
  2
HEADER
  9
$ACADVER
  1
AC1009
  9
$INSBASE
 10
0.0
 20
0.0
 30
0.0
  9
$EXTMIN
 10
0.0
 20
-2.960436562073669
 30
0.0
  9
$EXTMAX
 10
89.749999999999986
 20
78.549999999999983
 30
0.0
  9
$LIMMIN
 10
0.0
 20
0.0
  9
$LIMMAX
 10
75.0
 20
54.0
  9
$ORTHOMODE
 70
     1
  9
$REGENMODE
 70
     1
  9
$FILLMODE
 70
     1
  9
$QTEXTMODE
 70
     0
  9
$MIRRTEXT
 70
     0
  9
$DRAGMODE
 70
     2
  9
$LTSCALE
 40
2.0
  9
$OSMODE
 70
    37
  9
$ATTMODE
 70
     1
  9
$TEXTSIZE
 40
2.0000000000000502
  9
$TRACEWID
 40
0.05
  9
$TEXTSTYLE
  7
STANDARD
  9
$CLAYER
  8
0
  9
$CELTYPE
  6
BYLAYER
  9
$CECOLOR
 62
   256
  9
$DIMSCALE
 40
0.2
  9
$DIMASZ
 40
3.0
  9
$DIMEXO
 40
2.0
  9
$DIMDLI
 40
0.38
  9
$DIMRND
 40
0.0
  9
$DIMDLE
 40
0.0
  9
$DIMEXE
 40
2.0
  9
$DIMTP
 40
0.0
  9
$DIMTM
 40
0.0
  9
$DIMTXT
 40
3.2000000000000002
  9
$DIMCEN
 40
0.0
  9
$DIMTSZ
 40
0.0
  9
$DIMTOL
 70
     0
  9
$DIMLIM
 70
     0
  9
$DIMTIH
 70
     0
  9
$DIMTOH
 70
     0
  9
$DIMSE1
 70
     0
  9
$DIMSE2
 70
     0
  9
$DIMTAD
 70
     1
  9
$DIMZIN
 70
     0
  9
$DIMBLK
  1

  9
$DIMASO
 70
     1
  9
$DIMSHO
 70
     0
  9
$DIMPOST
  1

  9
$DIMAPOST
  1

  9
$DIMALT
 70
     0
  9
$DIMALTD
 70
     2
  9
$DIMALTF
 40
25.399999999999999
  9
$DIMLFAC
 40
1.0
  9
$DIMTOFL
 70
     1
  9
$DIMTVP
 40
1.6000000000000001
  9
$DIMTIX
 70
     1
  9
$DIMSOXD
 70
     0
  9
$DIMSAH
 70
     0
  9
$DIMBLK1
  1

  9
$DIMBLK2
  1

  9
$DIMSTYLE
  2
STANDARD
  9
$DIMCLRD
 70
     0
  9
$DIMCLRE
 70
     0
  9
$DIMCLRT
 70
     0
  9
$DIMTFAC
 40
1.0
  9
$DIMGAP
 40
0.09
  9
$LUNITS
 70
     2
  9
$LUPREC
 70
     4
  9
$SKETCHINC
 40
0.1
  9
$FILLETRAD
 40
0.0
  9
$AUNITS
 70
     0
  9
$AUPREC
 70
     4
  9
$MENU
  1
E:\r13\win\SUPPORT\ACAD
  9
$ELEVATION
 40
0.0
  9
$PELEVATION
 40
0.0
  9
$THICKNESS
 40
0.0
  9
$LIMCHECK
 70
     0
  9
$BLIPMODE
 70
     0
  9
$CHAMFERA
 40
0.0
  9
$CHAMFERB
 40
0.0
  9
$SKPOLY
 70
     0
  9
$TDCREATE
 40
2449839.7866550931
  9
$TDUPDATE
 40
2456806.5447748848
  9
$TDINDWG
 40
0.0538189699
  9
$TDUSRTIMER
 40
2456694.2360238768
  9
$USRTIMER
 70
     1
  9
$ANGBASE
 50
0.0
  9
$ANGDIR
 70
     0
  9
$PDMODE
 70
     0
  9
$PDSIZE
 40
0.0
  9
$PLINEWID
 40
0.0
  9
$COORDS
 70
     1
  9
$SPLFRAME
 70
     0
  9
$SPLINETYPE
 70
     6
  9
$SPLINESEGS
 70
     8
  9
$ATTDIA
 70
     0
  9
$ATTREQ
 70
     1
  9
$HANDLING
 70
     1
  9
$HANDSEED
  5
3B5
  9
$SURFTAB1
 70
     6
  9
$SURFTAB2
 70
     6
  9
$SURFTYPE
 70
     6
  9
$SURFU
 70
     6
  9
$SURFV
 70
     6
  9
$UCSNAME
  2

  9
$UCSORG
 10
0.0
 20
0.0
 30
0.0
  9
$UCSXDIR
 10
1.0
 20
0.0
 30
0.0
  9
$UCSYDIR
 10
0.0
 20
1.0
 30
0.0
  9
$PUCSNAME
  2

  9
$PUCSORG
 10
0.0
 20
0.0
 30
0.0
  9
$PUCSXDIR
 10
1.0
 20
0.0
 30
0.0
  9
$PUCSYDIR
 10
0.0
 20
1.0
 30
0.0
  9
$USERI1
 70
     0
  9
$USERI2
 70
     1
  9
$USERI3
 70
     1
  9
$USERI4
 70
     0
  9
$USERI5
 70
     0
  9
$USERR1
 40
0.0
  9
$USERR2
 40
0.0
  9
$USERR3
 40
0.0
  9
$USERR4
 40
0.0
  9
$USERR5
 40
0.0
  9
$WORLDVIEW
 70
     1
  9
$SHADEDGE
 70
     3
  9
$SHADEDIF
 70
    70
  9
$TILEMODE
 70
     1
  9
$MAXACTVP
 70
    16
  9
$PLIMCHECK
 70
     0
  9
$PEXTMIN
 10
1.0000000000000000E+020
 20
1.0000000000000000E+020
 30
1.0000000000000000E+020
  9
$PEXTMAX
 10
-1.0000000000000000E+020
 20
-1.0000000000000000E+020
 30
-1.0000000000000000E+020
  9
$PLIMMIN
 10
0.0
 20
0.0
  9
$PLIMMAX
 10
0.0
 20
0.0
  9
$UNITMODE
 70
     0
  9
$VISRETAIN
 70
     0
  9
$PLINEGEN
 70
     0
  9
$PSLTSCALE
 70
     0
  0
ENDSEC
  0
SECTION
  2
TABLES
  0
TABLE
  2
VPORT
 70
     1
  0
VPORT
  2
*ACTIVE
 70
     0
 10
0.0
 20
0.0
 11
1.0
 21
1.0
 12
260.19575856443731
 22
100.0
 13
0.0
 23
0.0
 14
2.0
 24
2.0
 15
2.0
 25
2.0
 16
0.0
 26
0.0
 36
1.0
 17
0.0
 27
0.0
 37
0.0
 40
200.0
 41
2.6019575856443709
 42
50.0
 43
0.0
 44
0.0
 50
0.0
 51
0.0
 71
     0
 72
   500
 73
     1
 74
     0
 75
     0
 76
     0
 77
     0
 78
     2
  0
ENDTAB
  0
TABLE
  2
LTYPE
 70
     3
  0
LTYPE
  2
CONTINUOUS
 70
     0
  3
Solid Line
 72
    65
 73
     0
 40
0.0
  0
LTYPE
  2
CENTER
 70
     0
  3
____ _ ____ _ ____ _ ____ _ ____ _ ____ _ ____
 72
    65
 73
     4
 40
2.0
 49
1.25
 49
-0.25
 49
0.25
 49
-0.25
  0
LTYPE
  2
PHANTOM2
 70
     0
  3
___ _ _ ___ _ _ ___ _ _ ___ _ _
 72
    65
 73
     6
 40
1.25
 49
0.625
 49
-0.125
 49
0.125
 49
-0.125
 49
0.125
 49
-0.125
  0
ENDTAB
  0
TABLE
  2
LAYER
 70
     3
  0
LAYER
  2
0
 70
     0
 62
     7
  6
CONTINUOUS
  0
LAYER
  2
1
 70
     0
 62
     1
  6
CENTER
  0
LAYER
  2
3
 70
     0
 62
     3
  6
CONTINUOUS
  0
ENDTAB
  0
TABLE
  2
STYLE
 70
     2
  0
STYLE
  2
STANDARD
 70
     0
 40
0.0
 41
1.0
 50
0.0
 71
     0
 42
2.0000000000000502
  3
TXT
  4
BIGFONT
  0
STYLE
  2
STANDARD1
 70
     0
 40
0.0
 41
1.0
 50
0.0
 71
     0
 42
3.0
  3
txt
  4

  0
ENDTAB
  0
TABLE
  2
VIEW
 70
     1
  0
VIEW
  2
ALL
 70
     0
 40
54.0
 10
44.198319327731092
 20
27.0
 41
0.0
 11
0.0
 21
0.0
 31
1.0
 12
0.0
 22
0.0
 32
0.0
 42
50.0
 43
0.0
 44
0.0
 50
0.0
 71
     0
  0
ENDTAB
  0
TABLE
  2
UCS
 70
     0
  0
ENDTAB
  0
TABLE
  2
APPID
 70
     5
  0
APPID
  2
ACAD
 70
     0
  0
APPID
  2
ACAD_EXEMPT_FROM_CAD_STAND
 70
     0
  0
APPID
  2
ACAD_MLEADERVER
 70
     0
  0
APPID
  2
ACAD_EXEMPT_FROM_CAD_STANDARDS
 70
     0
  0
APPID
  2
ACAD_NAV_VCDISPLAY
 70
     0
  0
ENDTAB
  0
TABLE
  2
DIMSTYLE
 70
     1
  0
DIMSTYLE
  2
STANDARD
 70
     0
  3

  4

  5

  6

  7

 40
1.0
 41
0.18
 42
0.0625
 43
0.38
 44
0.18
 45
0.0
 46
0.0
 47
0.0
 48
0.0
140
0.18
141
0.09
142
0.0
143
25.399999999999999
144
1.0
145
0.0
146
1.0
147
0.09
 71
     0
 72
     0
 73
     1
 74
     1
 75
     0
 76
     0
 77
     0
 78
     0
170
     0
171
     2
172
     0
173
     0
174
     0
175
     0
176
     0
177
     0
178
     0
  0
ENDTAB
  0
ENDSEC
  0
SECTION
  2
BLOCKS
  0
BLOCK
  8
0
  2
$MODEL_SPACE
 70
     0
 10
0.0
 20
0.0
 30
0.0
  3
$MODEL_SPACE
  1

  0
ENDBLK
  5
C9
  8
0
  0
BLOCK
 67
     1
  8
0
  2
$PAPER_SPACE
 70
     0
 10
0.0
 20
0.0
 30
0.0
  3
$PAPER_SPACE
  1

  0
ENDBLK
  5
C7
 67
     1
  8
0
  0
ENDSEC
  0
SECTION
  2
ENTITIES
  0
LINE
  5
34
  8
1
 10
49.0
 20
72.799999999999983
 30
0.0
 11
71.000000000000014
 21
72.799999999999983
 31
0.0
  0
LINE
  5
35
  8
1
 10
60.0
 20
67.049999999999997
 30
0.0
 11
60.000000000000007
 21
78.549999999999983
 31
0.0
  0
LINE
  5
36
  8
1
 10
60.0
 20
61.79999999999999
 30
0.0
 11
60.0
 21
38.799999999999947
 31
0.0
  0
ARC
  5
3E
  8
0
 10
52.600000000000009
 20
72.799999999999983
 30
0.0
 40
2.600000000000001
 50
122.40144244239571
 51
237.5985575576041
  0
ARC
  5
3F
  8
0
 10
67.400000000000006
 20
72.799999999999983
 30
0.0
 40
2.600000000000001
 50
302.40145095256679
 51
57.598549047433231
  0
ARC
  5
40
  8
0
 10
60.0
 20
61.140116279069737
 30
0.0
 40
16.409883720930239
 50
57.59855330420698
 51
122.4014454959562
  0
ARC
  5
41
  8
0
 10
60.000000000000007
 20
84.459883720930236
 30
0.0
 40
16.409883720930239
 50
237.5985545040439
 51
302.40144669579303
  0
LINE
  5
44
  8
0
 10
62.0
 20
49.800000000000018
 30
0.0
 11
62.0
 21
40.599999999999959
 31
0.0
  0
LINE
  5
45
  8
0
 10
61.20000000000001
 20
39.799999999999947
 30
0.0
 11
58.800000000000011
 21
39.799999999999947
 31
0.0
  0
LINE
  5
46
  8
0
 10
62.0
 20
40.59999999999993
 30
0.0
 11
61.20000000000001
 21
39.799999999999947
 31
0.0
  0
LINE
  5
47
  8
0
 10
58.000000000000057
 20
40.599999999999902
 30
0.0
 11
62.0
 21
40.599999999999959
 31
0.0
  0
LINE
  5
48
  8
0
 10
62.0
 20
48.399999999999963
 30
0.0
 11
58.0
 21
48.399999999999991
 31
0.0
  0
LINE
  5
49
  8
3
 10
61.620999999998617
 20
48.399999999999963
 30
0.0
 11
61.620999999998617
 21
40.220999999998547
 31
0.0
  0
LINE
  5
4A
  8
3
 10
61.620999999998617
 20
48.399999999999963
 30
0.0
 11
62.0
 21
49.05644725607096
 31
0.0
  0
LINE
  5
4B
  8
3
 10
58.379000000001383
 20
48.399999999999963
 30
0.0
 11
58.0
 21
49.05644725607096
 31
0.0
  0
LINE
  5
4C
  8
3
 10
58.379000000001412
 20
48.399999999999963
 30
0.0
 11
58.379000000001412
 21
40.220999999998547
 31
0.0
  0
LINE
  5
4D
  8
0
 10
58.0
 20
40.599999999999937
 30
0.0
 11
58.800000000000011
 21
39.799999999999947
 31
0.0
  0
LINE
  5
4E
  8
0
 10
58.0
 20
49.800000000000033
 30
0.0
 11
58.0
 21
40.599999999999959
 31
0.0
  0
LINE
  5
5E
  8
1
 10
85.000000000000028
 20
61.79999999999999
 30
0.0
 11
85.000000000000028
 21
38.799999999999947
 31
0.0
  0
LINE
  5
5F
  8
0
 10
83.000000000000014
 20
49.800000000000033
 30
0.0
 11
83.000000000000014
 21
40.599999999999959
 31
0.0
  0
LINE
  5
60
  8
0
 10
83.000000000000014
 20
40.599999999999937
 30
0.0
 11
83.80000000000004
 21
39.799999999999947
 31
0.0
  0
LINE
  5
61
  8
3
 10
83.379000000001454
 20
48.399999999999963
 30
0.0
 11
83.379000000001454
 21
40.220999999998547
 31
0.0
  0
LINE
  5
62
  8
3
 10
83.379000000001412
 20
48.399999999999963
 30
0.0
 11
83.000000000000014
 21
49.05644725607096
 31
0.0
  0
LINE
  5
63
  8
3
 10
86.620999999998645
 20
48.399999999999963
 30
0.0
 11
87.000000000000014
 21
49.05644725607096
 31
0.0
  0
LINE
  5
64
  8
3
 10
86.620999999998645
 20
48.399999999999963
 30
0.0
 11
86.620999999998645
 21
40.220999999998547
 31
0.0
  0
LINE
  5
65
  8
0
 10
87.000000000000014
 20
48.399999999999963
 30
0.0
 11
83.000000000000014
 21
48.399999999999991
 31
0.0
  0
LINE
  5
66
  8
0
 10
83.000000000000085
 20
40.599999999999902
 30
0.0
 11
87.000000000000014
 21
40.599999999999959
 31
0.0
  0
LINE
  5
67
  8
0
 10
87.000000000000014
 20
40.59999999999993
 30
0.0
 11
86.200000000000045
 21
39.799999999999947
 31
0.0
  0
LINE
  5
68
  8
0
 10
86.200000000000045
 20
39.799999999999947
 30
0.0
 11
83.80000000000004
 21
39.799999999999947
 31
0.0
  0
LINE
  5
69
  8
0
 10
87.000000000000014
 20
49.800000000000018
 30
0.0
 11
87.000000000000014
 21
40.599999999999959
 31
0.0
  0
LINE
  5
1D2
  8
0
 10
56.5
 20
49.79999999999999
 30
0.0
 11
63.5
 21
49.79999999999999
 31
0.0
  0
LINE
  5
1D3
  8
0
 10
50.0
 20
50.199999999999989
 30
0.0
 11
70.0
 21
50.199999999999989
 31
0.0
  0
ARC
  5
1D4
  8
0
 10
60.0
 20
42.799999999999997
 30
0.0
 40
17.999999999999989
 50
61.48682158737418
 51
118.5131767791602
  0
LINE
  5
1D5
  8
0
 10
56.5
 20
50.199999999999989
 30
0.0
 11
56.5
 21
49.79999999999999
 31
0.0
  0
LINE
  5
1D6
  8
0
 10
50.0
 20
50.199999999999989
 30
0.0
 11
50.364967228082691
 21
56.963989565587092
 31
0.0
  0
LINE
  5
1D7
  8
0
 10
70.0
 20
50.199999999999989
 30
0.0
 11
69.635032771917309
 21
56.963989565587092
 31
0.0
  0
ARC
  5
1DC
  8
0
 10
52.362226297591839
 20
56.859317653101208
 30
0.0
 40
2.0
 50
118.5131767791602
 51
177.0
  0
ARC
  5
1DD
  8
0
 10
67.637773702408154
 20
56.859317653101208
 30
0.0
 40
2.0
 50
2.9999999999999121
 51
61.486823220839788
  0
LINE
  5
1EA
  8
0
 10
63.5
 20
50.199999999999989
 30
0.0
 11
63.5
 21
49.79999999999999
 31
0.0
  0
LINE
  5
1F6
  8
0
 10
80.250000000000028
 20
50.199999999999989
 30
0.0
 11
89.749999999999986
 21
50.199999999999989
 31
0.0
  0
LINE
  5
1F7
  8
0
 10
81.500000000000028
 20
49.79999999999999
 30
0.0
 11
88.500000000000057
 21
49.79999999999999
 31
0.0
  0
LINE
  5
1F8
  8
0
 10
81.500000000000028
 20
50.199999999999989
 30
0.0
 11
81.500000000000028
 21
49.79999999999999
 31
0.0
  0
LINE
  5
1F9
  8
0
 10
88.500000000000028
 20
50.199999999999989
 30
0.0
 11
88.499999999999986
 21
49.79999999999999
 31
0.0
  0
LINE
  5
1FA
  8
0
 10
80.250000000000028
 20
50.199999999999989
 30
0.0
 11
80.648169841819637
 21
57.597533176691449
 31
0.0
  0
LINE
  5
1FB
  8
0
 10
89.749999999999986
 20
50.199999999999989
 30
0.0
 11
89.351830158180377
 21
57.597533176691719
 31
0.0
  0
ARC
  5
1FC
  8
0
 10
85.0
 20
56.025766291053742
 30
0.0
 40
4.774233708946185
 50
31.926362723766651
 51
148.07363727623749
  0
ARC
  5
1FD
  8
0
 10
82.645428911328793
 20
57.492861264205573
 30
0.0
 40
2.0
 50
148.0736372762376
 51
176.9999999999996
  0
ARC
  5
1FE
  8
0
 10
87.354571088671236
 20
57.492861264205821
 30
0.0
 40
2.0
 50
3.000000000000314
 51
31.926362723766651
  0
TEXT
  5
297
  8
0
 62
     3
 10
0.0
 20
0.0
 30
0.0
 40
10.0
  1
LS4X10-SUS
  7
STANDARD1
  0
ENDSEC
  0
EOF
