  0
SECTION
  2
HEADER
  9
$ACADVER
  1
AC1009
  9
$INSBASE
 10
0.0
 20
0.0
 30
0.0
  9
$EXTMIN
 10
0.0
 20
-2.960436562073669
 30
0.0
  9
$EXTMAX
 10
122.4999999999999
 20
104.0
 30
0.0
  9
$LIMMIN
 10
0.0
 20
0.0
  9
$LIMMAX
 10
187.5
 20
135.0
  9
$ORTHOMODE
 70
     1
  9
$REGENMODE
 70
     1
  9
$FILLMODE
 70
     1
  9
$QTEXTMODE
 70
     0
  9
$MIRRTEXT
 70
     0
  9
$DRAGMODE
 70
     2
  9
$LTSCALE
 40
5.0
  9
$OSMODE
 70
  3071
  9
$ATTMODE
 70
     1
  9
$TEXTSIZE
 40
0.2
  9
$TRACEWID
 40
0.05
  9
$TEXTSTYLE
  7
STANDARD
  9
$CLAYER
  8
0
  9
$CELTYPE
  6
BYLAYER
  9
$CECOLOR
 62
   256
  9
$DIMSCALE
 40
0.5
  9
$DIMASZ
 40
3.0
  9
$DIMEXO
 40
2.0
  9
$DIMDLI
 40
0.3799999999999999
  9
$DIMRND
 40
0.0
  9
$DIMDLE
 40
0.0
  9
$DIMEXE
 40
2.0
  9
$DIMTP
 40
0.0
  9
$DIMTM
 40
0.0
  9
$DIMTXT
 40
3.2000000000000002
  9
$DIMCEN
 40
0.09
  9
$DIMTSZ
 40
0.0
  9
$DIMTOL
 70
     0
  9
$DIMLIM
 70
     0
  9
$DIMTIH
 70
     0
  9
$DIMTOH
 70
     0
  9
$DIMSE1
 70
     0
  9
$DIMSE2
 70
     0
  9
$DIMTAD
 70
     1
  9
$DIMZIN
 70
     0
  9
$DIMBLK
  1

  9
$DIMASO
 70
     1
  9
$DIMSHO
 70
     0
  9
$DIMPOST
  1

  9
$DIMAPOST
  1

  9
$DIMALT
 70
     0
  9
$DIMALTD
 70
     2
  9
$DIMALTF
 40
25.399999999999999
  9
$DIMLFAC
 40
1.0
  9
$DIMTOFL
 70
     0
  9
$DIMTVP
 40
1.6000000000000001
  9
$DIMTIX
 70
     1
  9
$DIMSOXD
 70
     0
  9
$DIMSAH
 70
     0
  9
$DIMBLK1
  1

  9
$DIMBLK2
  1

  9
$DIMSTYLE
  2
STANDARD
  9
$DIMCLRD
 70
     0
  9
$DIMCLRE
 70
     0
  9
$DIMCLRT
 70
     0
  9
$DIMTFAC
 40
1.0
  9
$DIMGAP
 40
0.09
  9
$LUNITS
 70
     2
  9
$LUPREC
 70
     4
  9
$SKETCHINC
 40
0.1
  9
$FILLETRAD
 40
0.5
  9
$AUNITS
 70
     0
  9
$AUPREC
 70
     0
  9
$MENU
  1
E:\r13\win\SUPPORT\ACAD
  9
$ELEVATION
 40
0.0
  9
$PELEVATION
 40
0.0
  9
$THICKNESS
 40
0.0
  9
$LIMCHECK
 70
     1
  9
$BLIPMODE
 70
     0
  9
$CHAMFERA
 40
0.0
  9
$CHAMFERB
 40
0.0
  9
$SKPOLY
 70
     0
  9
$TDCREATE
 40
2449839.786550926
  9
$TDUPDATE
 40
2456597.6063319449
  9
$TDINDWG
 40
0.0074713542
  9
$TDUSRTIMER
 40
0.0074713542
  9
$USRTIMER
 70
     1
  9
$ANGBASE
 50
0.0
  9
$ANGDIR
 70
     0
  9
$PDMODE
 70
     0
  9
$PDSIZE
 40
0.0
  9
$PLINEWID
 40
0.0
  9
$COORDS
 70
     1
  9
$SPLFRAME
 70
     0
  9
$SPLINETYPE
 70
     6
  9
$SPLINESEGS
 70
     8
  9
$ATTDIA
 70
     0
  9
$ATTREQ
 70
     1
  9
$HANDLING
 70
     1
  9
$HANDSEED
  5
34A
  9
$SURFTAB1
 70
     6
  9
$SURFTAB2
 70
     6
  9
$SURFTYPE
 70
     6
  9
$SURFU
 70
     6
  9
$SURFV
 70
     6
  9
$UCSNAME
  2

  9
$UCSORG
 10
0.0
 20
0.0
 30
0.0
  9
$UCSXDIR
 10
1.0
 20
0.0
 30
0.0
  9
$UCSYDIR
 10
0.0
 20
1.0
 30
0.0
  9
$PUCSNAME
  2

  9
$PUCSORG
 10
0.0
 20
0.0
 30
0.0
  9
$PUCSXDIR
 10
1.0
 20
0.0
 30
0.0
  9
$PUCSYDIR
 10
0.0
 20
1.0
 30
0.0
  9
$USERI1
 70
     0
  9
$USERI2
 70
     1
  9
$USERI3
 70
     1
  9
$USERI4
 70
     0
  9
$USERI5
 70
     0
  9
$USERR1
 40
0.0
  9
$USERR2
 40
0.0
  9
$USERR3
 40
0.0
  9
$USERR4
 40
0.0
  9
$USERR5
 40
0.0
  9
$WORLDVIEW
 70
     1
  9
$SHADEDGE
 70
     3
  9
$SHADEDIF
 70
    70
  9
$TILEMODE
 70
     1
  9
$MAXACTVP
 70
    16
  9
$PLIMCHECK
 70
     0
  9
$PEXTMIN
 10
1.0000000000000000E+020
 20
1.0000000000000000E+020
 30
1.0000000000000000E+020
  9
$PEXTMAX
 10
-1.0000000000000000E+020
 20
-1.0000000000000000E+020
 30
-1.0000000000000000E+020
  9
$PLIMMIN
 10
0.0
 20
0.0
  9
$PLIMMAX
 10
12.0
 20
9.0
  9
$UNITMODE
 70
     0
  9
$VISRETAIN
 70
     0
  9
$PLINEGEN
 70
     0
  9
$PSLTSCALE
 70
     0
  0
ENDSEC
  0
SECTION
  2
TABLES
  0
TABLE
  2
VPORT
 70
     1
  0
VPORT
  2
*ACTIVE
 70
     0
 10
0.0
 20
0.0
 11
1.0
 21
1.0
 12
93.74713919532617
 22
66.313465060797697
 13
0.0
 23
0.0
 14
5.0
 24
5.0
 15
5.0
 25
5.0
 16
0.0
 26
0.0
 36
1.0
 17
0.0
 27
0.0
 37
0.0
 40
140.15365342376049
 41
2.304913294797688
 42
50.0
 43
0.0
 44
0.0
 50
0.0
 51
0.0
 71
     0
 72
   500
 73
     1
 74
     0
 75
     0
 76
     0
 77
     0
 78
     0
  0
ENDTAB
  0
TABLE
  2
LTYPE
 70
     3
  0
LTYPE
  2
CONTINUOUS
 70
     0
  3
Solid Line
 72
    65
 73
     0
 40
0.0
  0
LTYPE
  2
CENTER
 70
     0
  3
____ _ ____ _ ____ _ ____ _ ____ _ ____ _ ____
 72
    65
 73
     4
 40
2.0
 49
1.25
 49
-0.25
 49
0.25
 49
-0.25
  0
LTYPE
  2
PHANTOM2
 70
     0
  3
___ _ _ ___ _ _ ___ _ _ ___ _ _
 72
    65
 73
     6
 40
1.25
 49
0.625
 49
-0.125
 49
0.125
 49
-0.125
 49
0.125
 49
-0.125
  0
ENDTAB
  0
TABLE
  2
LAYER
 70
     3
  0
LAYER
  2
0
 70
     0
 62
     7
  6
CONTINUOUS
  0
LAYER
  2
1
 70
     0
 62
     1
  6
CENTER
  0
LAYER
  2
3
 70
     0
 62
     3
  6
CONTINUOUS
  0
ENDTAB
  0
TABLE
  2
STYLE
 70
     2
  0
STYLE
  2
STANDARD
 70
     0
 40
0.0
 41
1.0
 50
0.0
 71
     0
 42
0.2
  3
TXT
  4
BIGFONT
  0
STYLE
  2
STANDARD1
 70
     0
 40
0.0
 41
1.0
 50
0.0
 71
     0
 42
3.0
  3
txt
  4

  0
ENDTAB
  0
TABLE
  2
VIEW
 70
     2
  0
VIEW
  2
ALL
 70
     0
 40
135.0
 10
110.4957983193277
 20
67.5
 41
0.0
 11
0.0
 21
0.0
 31
1.0
 12
0.0
 22
0.0
 32
0.0
 42
0.0
 43
0.0
 44
0.0
 50
0.0
 71
     0
  0
VIEW
  2
OLE1
 70
     0
 40
251.45065116082739
 10
87.880690046001078
 20
45.068465883753071
 41
453.1538713365988
 11
0.0
 21
0.0
 31
1.0
 12
0.0
 22
0.0
 32
0.0
 42
50.0
 43
0.0
 44
0.0
 50
0.0
 71
     0
  0
ENDTAB
  0
TABLE
  2
UCS
 70
     0
  0
ENDTAB
  0
TABLE
  2
APPID
 70
     4
  0
APPID
  2
ACAD
 70
     0
  0
APPID
  2
ACAD_EXEMPT_FROM_CAD_STANDARDS
 70
     0
  0
APPID
  2
ACAD_MLEADERVER
 70
     0
  0
APPID
  2
ACAD_NAV_VCDISPLAY
 70
     0
  0
ENDTAB
  0
TABLE
  2
DIMSTYLE
 70
     1
  0
DIMSTYLE
  2
STANDARD
 70
     0
  3

  4

  5

  6

  7

 40
1.0
 41
0.18
 42
0.0625
 43
0.38
 44
0.18
 45
0.0
 46
0.0
 47
0.0
 48
0.0
140
0.18
141
0.09
142
0.0
143
25.399999999999999
144
1.0
145
0.0
146
1.0
147
0.09
 71
     0
 72
     0
 73
     1
 74
     1
 75
     0
 76
     0
 77
     0
 78
     0
170
     0
171
     2
172
     0
173
     0
174
     0
175
     0
176
     0
177
     0
178
     0
  0
ENDTAB
  0
ENDSEC
  0
SECTION
  2
BLOCKS
  0
BLOCK
  8
0
  2
$MODEL_SPACE
 70
     0
 10
0.0
 20
0.0
 30
0.0
  3
$MODEL_SPACE
  1

  0
ENDBLK
  5
11E
  8
0
  0
BLOCK
 67
     1
  8
0
  2
$PAPER_SPACE
 70
     0
 10
0.0
 20
0.0
 30
0.0
  3
$PAPER_SPACE
  1

  0
ENDBLK
  5
11C
 67
     1
  8
0
  0
ENDSEC
  0
SECTION
  2
ENTITIES
  0
LINE
  5
37
  8
0
 10
68.999999999999986
 20
49.599999999999511
 30
0.0
 11
68.999999999999986
 21
20.59999999999954
 31
0.0
  0
LINE
  5
38
  8
0
 10
68.999999999999986
 20
20.59999999999954
 30
0.0
 11
67.999999999999986
 21
19.59999999999954
 31
0.0
  0
LINE
  5
39
  8
3
 10
68.458500000000171
 20
20.058499999999729
 30
0.0
 11
68.458500000000086
 21
48.662094487701147
 31
0.0
  0
LINE
  5
3A
  8
0
 10
62.999999999999979
 20
49.599999999999511
 30
0.0
 11
62.999999999999979
 21
20.59999999999954
 31
0.0
  0
LINE
  5
3B
  8
3
 10
63.541499999999893
 20
20.05849999999964
 30
0.0
 11
63.541499999999893
 21
48.662094487701147
 31
0.0
  0
LINE
  5
3C
  8
0
 10
62.999999999999979
 20
20.59999999999954
 30
0.0
 11
63.999999999999979
 21
19.59999999999954
 31
0.0
  0
LINE
  5
3D
  8
0
 10
62.999999999999979
 20
20.59999999999954
 30
0.0
 11
68.999999999999986
 21
20.59999999999954
 31
0.0
  0
LINE
  5
3E
  8
0
 10
67.999999999999986
 20
19.59999999999954
 30
0.0
 11
63.999999999999979
 21
19.59999999999954
 31
0.0
  0
LINE
  5
3F
  8
0
 10
62.999999999999979
 20
48.662094487701147
 30
0.0
 11
68.999999999999986
 21
48.662094487701147
 31
0.0
  0
LINE
  5
40
  8
3
 10
63.541499999999893
 20
48.662094487701147
 30
0.0
 11
62.999999999999979
 21
49.599999999999511
 31
0.0
  0
LINE
  5
41
  8
3
 10
68.458500000000086
 20
48.662094487701147
 30
0.0
 11
68.999999999999986
 21
49.599999999999511
 31
0.0
  0
ARC
  5
42
  8
0
 10
65.999999999999986
 20
116.3
 30
0.0
 40
27.800000000000001
 50
237.9775676993923
 51
302.0224323006077
  0
ARC
  5
43
  8
0
 10
65.999999999999986
 20
73.699999999999989
 30
0.0
 40
27.800000000000001
 50
57.977567699392317
 51
122.0224323006076
  0
ARC
  5
44
  8
0
 10
52.675849999999812
 20
95.0
 30
0.0
 40
2.6758500000000001
 50
121.9709752355667
 51
237.91514975646081
  0
ARC
  5
45
  8
0
 10
79.324150000000188
 20
95.0
 30
0.0
 40
2.6758500000000001
 50
302.08485024353922
 51
58.029024764433331
  0
LINE
  5
46
  8
1
 10
84.500000000000426
 20
95.0
 30
0.0
 11
47.499999999999922
 21
95.0
 31
0.0
  0
LINE
  5
47
  8
1
 10
65.999999999999986
 20
104.0
 30
0.0
 11
65.999999999999986
 21
85.999999999999986
 31
0.0
  0
LINE
  5
4D
  8
1
 10
66.0
 20
67.099999999999511
 30
0.0
 11
66.000000000000071
 21
17.09999999999954
 31
0.0
  0
LINE
  5
50
  8
1
 10
115.9999999999999
 20
67.099999999999554
 30
0.0
 11
115.9999999999999
 21
17.09999999999954
 31
0.0
  0
LINE
  5
5F
  8
3
 10
118.4585
 20
48.66209448770114
 30
0.0
 11
118.9999999999999
 21
49.599999999999511
 31
0.0
  0
LINE
  5
60
  8
3
 10
113.5414999999998
 20
48.66209448770114
 30
0.0
 11
112.9999999999999
 21
49.599999999999511
 31
0.0
  0
LINE
  5
61
  8
0
 10
112.9999999999999
 20
48.66209448770114
 30
0.0
 11
118.9999999999999
 21
48.66209448770114
 31
0.0
  0
LINE
  5
62
  8
0
 10
117.9999999999999
 20
19.59999999999954
 30
0.0
 11
113.9999999999999
 21
19.59999999999954
 31
0.0
  0
LINE
  5
63
  8
0
 10
112.9999999999999
 20
20.59999999999954
 30
0.0
 11
118.9999999999999
 21
20.59999999999954
 31
0.0
  0
LINE
  5
64
  8
0
 10
112.9999999999999
 20
20.59999999999954
 30
0.0
 11
113.9999999999999
 21
19.59999999999954
 31
0.0
  0
LINE
  5
65
  8
3
 10
113.5414999999998
 20
20.05849999999965
 30
0.0
 11
113.5414999999998
 21
48.66209448770114
 31
0.0
  0
LINE
  5
66
  8
0
 10
112.9999999999999
 20
49.599999999999511
 30
0.0
 11
112.9999999999999
 21
20.59999999999954
 31
0.0
  0
LINE
  5
67
  8
3
 10
118.4585000000001
 20
20.0584999999997
 30
0.0
 11
118.4585
 21
48.66209448770114
 31
0.0
  0
LINE
  5
68
  8
0
 10
118.9999999999999
 20
20.59999999999954
 30
0.0
 11
117.9999999999999
 21
19.59999999999954
 31
0.0
  0
LINE
  5
69
  8
0
 10
118.9999999999999
 20
49.599999999999511
 30
0.0
 11
118.9999999999999
 21
20.59999999999954
 31
0.0
  0
ARC
  5
212
  8
0
 10
66.0
 20
27.199999999999509
 30
0.0
 40
37.399999999999999
 50
67.604486695687541
 51
112.3955133043124
  0
ARC
  5
213
  8
0
 10
52.51267164288663
 20
59.929985850705727
 30
0.0
 40
1.99999999999995
 50
112.3955133043124
 51
176.99999999999989
  0
LINE
  5
214
  8
0
 10
50.515412573377517
 20
60.034657763191618
 30
0.0
 11
50.0
 21
49.99999999999951
 31
0.0
  0
LINE
  5
215
  8
0
 10
62.0
 20
49.599999999999511
 30
0.0
 11
62.0
 21
49.99999999999951
 31
0.0
  0
LINE
  5
216
  8
0
 10
70.0
 20
49.599999999999511
 30
0.0
 11
62.0
 21
49.599999999999511
 31
0.0
  0
LINE
  5
217
  8
0
 10
81.484587426622468
 20
60.034657763191618
 30
0.0
 11
82.0
 21
49.99999999999951
 31
0.0
  0
ARC
  5
218
  8
0
 10
79.48732835711337
 20
59.929985850705727
 30
0.0
 40
1.99999999999995
 50
3.0000000000000129
 51
67.604486695687541
  0
LINE
  5
226
  8
0
 10
82.0
 20
49.99999999999951
 30
0.0
 11
50.0
 21
49.99999999999951
 31
0.0
  0
LINE
  5
227
  8
0
 10
122.4999999999999
 20
49.999999999999588
 30
0.0
 11
109.4999999999999
 21
49.999999999999588
 31
0.0
  0
ARC
  5
229
  8
0
 10
119.9512450923917
 20
60.618495556995427
 30
0.0
 40
2.0000000000000782
 50
2.9999999999996079
 51
36.733512422581747
  0
ARC
  5
22A
  8
0
 10
115.9999999999999
 20
57.669731560082731
 30
0.0
 40
6.9302684399168264
 50
36.733512422581839
 51
143.26648757741779
  0
LINE
  5
22B
  8
0
 10
122.4999999999999
 20
49.999999999999588
 30
0.0
 11
121.9485041619009
 21
60.723167469481311
 31
0.0
  0
LINE
  5
22C
  8
0
 10
109.4999999999999
 20
49.999999999999588
 30
0.0
 11
110.051495838099
 21
60.723167469481311
 31
0.0
  0
ARC
  5
22D
  8
0
 10
112.0487549076082
 20
60.618495556995427
 30
0.0
 40
2.0000000000000782
 50
143.26648757741819
 51
177.0000000000004
  0
LINE
  5
22E
  8
0
 10
119.9999999999999
 20
49.599999999999589
 30
0.0
 11
111.9999999999999
 21
49.599999999999589
 31
0.0
  0
LINE
  5
22F
  8
0
 10
111.9999999999999
 20
49.599999999999589
 30
0.0
 11
111.9999999999999
 21
49.999999999999588
 31
0.0
  0
LINE
  5
230
  8
0
 10
119.9999999999999
 20
49.999999999999588
 30
0.0
 11
119.9999999999999
 21
49.599999999999589
 31
0.0
  0
LINE
  5
231
  8
0
 10
70.0
 20
49.99999999999951
 30
0.0
 11
70.0
 21
49.599999999999511
 31
0.0
  0
TEXT
  5
2E9
  8
0
 62
     3
 10
0.0
 20
0.0
 30
0.0
 40
10.0
  1
LS6X30-SUS
  7
STANDARD1
  0
ENDSEC
  0
EOF
