  0
SECTION
  2
HEADER
  9
$ACADVER
  1
AC1009
  9
$INSBASE
 10
0.0
 20
0.0
 30
0.0
  9
$EXTMIN
 10
0.0
 20
-2.960436562073669
 30
0.0
  9
$EXTMAX
 10
127.75
 20
104.9500000000001
 30
0.0
  9
$LIMMIN
 10
0.0
 20
0.0
  9
$LIMMAX
 10
187.5
 20
135.0
  9
$ORTHOMODE
 70
     1
  9
$REGENMODE
 70
     1
  9
$FILLMODE
 70
     1
  9
$QTEXTMODE
 70
     0
  9
$MIRRTEXT
 70
     0
  9
$DRAGMODE
 70
     2
  9
$LTSCALE
 40
5.0
  9
$OSMODE
 70
    37
  9
$ATTMODE
 70
     1
  9
$TEXTSIZE
 40
2.0000000000000502
  9
$TRACEWID
 40
0.05
  9
$TEXTSTYLE
  7
STANDARD
  9
$CLAYER
  8
0
  9
$CELTYPE
  6
BYLAYER
  9
$CECOLOR
 62
   256
  9
$DIMSCALE
 40
0.5
  9
$DIMASZ
 40
3.0
  9
$DIMEXO
 40
2.0
  9
$DIMDLI
 40
0.38
  9
$DIMRND
 40
0.0
  9
$DIMDLE
 40
0.0
  9
$DIMEXE
 40
2.0
  9
$DIMTP
 40
0.0
  9
$DIMTM
 40
0.0
  9
$DIMTXT
 40
3.2000000000000002
  9
$DIMCEN
 40
0.0
  9
$DIMTSZ
 40
0.0
  9
$DIMTOL
 70
     0
  9
$DIMLIM
 70
     0
  9
$DIMTIH
 70
     0
  9
$DIMTOH
 70
     0
  9
$DIMSE1
 70
     0
  9
$DIMSE2
 70
     0
  9
$DIMTAD
 70
     1
  9
$DIMZIN
 70
     0
  9
$DIMBLK
  1

  9
$DIMASO
 70
     1
  9
$DIMSHO
 70
     0
  9
$DIMPOST
  1

  9
$DIMAPOST
  1

  9
$DIMALT
 70
     0
  9
$DIMALTD
 70
     2
  9
$DIMALTF
 40
25.399999999999999
  9
$DIMLFAC
 40
1.0
  9
$DIMTOFL
 70
     1
  9
$DIMTVP
 40
1.6000000000000001
  9
$DIMTIX
 70
     1
  9
$DIMSOXD
 70
     0
  9
$DIMSAH
 70
     0
  9
$DIMBLK1
  1

  9
$DIMBLK2
  1

  9
$DIMSTYLE
  2
STANDARD
  9
$DIMCLRD
 70
     0
  9
$DIMCLRE
 70
     0
  9
$DIMCLRT
 70
     0
  9
$DIMTFAC
 40
1.0
  9
$DIMGAP
 40
0.09
  9
$LUNITS
 70
     2
  9
$LUPREC
 70
     4
  9
$SKETCHINC
 40
0.1
  9
$FILLETRAD
 40
0.0
  9
$AUNITS
 70
     0
  9
$AUPREC
 70
     4
  9
$MENU
  1
E:\r13\win\SUPPORT\ACAD
  9
$ELEVATION
 40
0.0
  9
$PELEVATION
 40
0.0
  9
$THICKNESS
 40
0.0
  9
$LIMCHECK
 70
     0
  9
$BLIPMODE
 70
     0
  9
$CHAMFERA
 40
0.0
  9
$CHAMFERB
 40
0.0
  9
$SKPOLY
 70
     0
  9
$TDCREATE
 40
2449839.7867129631
  9
$TDUPDATE
 40
2456806.5448201159
  9
$TDINDWG
 40
0.0249371644
  9
$TDUSRTIMER
 40
2456694.237348449
  9
$USRTIMER
 70
     1
  9
$ANGBASE
 50
0.0
  9
$ANGDIR
 70
     0
  9
$PDMODE
 70
     0
  9
$PDSIZE
 40
0.0
  9
$PLINEWID
 40
0.0
  9
$COORDS
 70
     1
  9
$SPLFRAME
 70
     0
  9
$SPLINETYPE
 70
     6
  9
$SPLINESEGS
 70
     8
  9
$ATTDIA
 70
     0
  9
$ATTREQ
 70
     1
  9
$HANDLING
 70
     1
  9
$HANDSEED
  5
3E9
  9
$SURFTAB1
 70
     6
  9
$SURFTAB2
 70
     6
  9
$SURFTYPE
 70
     6
  9
$SURFU
 70
     6
  9
$SURFV
 70
     6
  9
$UCSNAME
  2

  9
$UCSORG
 10
0.0
 20
0.0
 30
0.0
  9
$UCSXDIR
 10
1.0
 20
0.0
 30
0.0
  9
$UCSYDIR
 10
0.0
 20
1.0
 30
0.0
  9
$PUCSNAME
  2

  9
$PUCSORG
 10
0.0
 20
0.0
 30
0.0
  9
$PUCSXDIR
 10
1.0
 20
0.0
 30
0.0
  9
$PUCSYDIR
 10
0.0
 20
1.0
 30
0.0
  9
$USERI1
 70
     0
  9
$USERI2
 70
     1
  9
$USERI3
 70
     1
  9
$USERI4
 70
     0
  9
$USERI5
 70
     0
  9
$USERR1
 40
0.0
  9
$USERR2
 40
0.0
  9
$USERR3
 40
0.0
  9
$USERR4
 40
0.0
  9
$USERR5
 40
0.0
  9
$WORLDVIEW
 70
     1
  9
$SHADEDGE
 70
     3
  9
$SHADEDIF
 70
    70
  9
$TILEMODE
 70
     1
  9
$MAXACTVP
 70
    16
  9
$PLIMCHECK
 70
     0
  9
$PEXTMIN
 10
1.0000000000000000E+020
 20
1.0000000000000000E+020
 30
1.0000000000000000E+020
  9
$PEXTMAX
 10
-1.0000000000000000E+020
 20
-1.0000000000000000E+020
 30
-1.0000000000000000E+020
  9
$PLIMMIN
 10
0.0
 20
0.0
  9
$PLIMMAX
 10
0.0
 20
0.0
  9
$UNITMODE
 70
     0
  9
$VISRETAIN
 70
     0
  9
$PLINEGEN
 70
     0
  9
$PSLTSCALE
 70
     0
  0
ENDSEC
  0
SECTION
  2
TABLES
  0
TABLE
  2
VPORT
 70
     1
  0
VPORT
  2
*ACTIVE
 70
     0
 10
0.0
 20
0.0
 11
1.0
 21
1.0
 12
260.19575856443731
 22
100.0
 13
0.0
 23
0.0
 14
5.0
 24
5.0
 15
5.0
 25
5.0
 16
0.0
 26
0.0
 36
1.0
 17
0.0
 27
0.0
 37
0.0
 40
200.0
 41
2.6019575856443709
 42
50.0
 43
0.0
 44
0.0
 50
0.0
 51
0.0
 71
     0
 72
   500
 73
     1
 74
     0
 75
     0
 76
     0
 77
     0
 78
     2
  0
ENDTAB
  0
TABLE
  2
LTYPE
 70
     3
  0
LTYPE
  2
CONTINUOUS
 70
     0
  3
Solid Line
 72
    65
 73
     0
 40
0.0
  0
LTYPE
  2
CENTER
 70
     0
  3
____ _ ____ _ ____ _ ____ _ ____ _ ____ _ ____
 72
    65
 73
     4
 40
2.0
 49
1.25
 49
-0.25
 49
0.25
 49
-0.25
  0
LTYPE
  2
PHANTOM2
 70
     0
  3
___ _ _ ___ _ _ ___ _ _ ___ _ _
 72
    65
 73
     6
 40
1.25
 49
0.625
 49
-0.125
 49
0.125
 49
-0.125
 49
0.125
 49
-0.125
  0
ENDTAB
  0
TABLE
  2
LAYER
 70
     3
  0
LAYER
  2
0
 70
     0
 62
     7
  6
CONTINUOUS
  0
LAYER
  2
1
 70
     0
 62
     1
  6
CENTER
  0
LAYER
  2
3
 70
     0
 62
     3
  6
CONTINUOUS
  0
ENDTAB
  0
TABLE
  2
STYLE
 70
     2
  0
STYLE
  2
STANDARD
 70
     0
 40
0.0
 41
1.0
 50
0.0
 71
     0
 42
2.0000000000000502
  3
TXT
  4
BIGFONT
  0
STYLE
  2
STANDARD1
 70
     0
 40
0.0
 41
1.0
 50
0.0
 71
     0
 42
3.0
  3
txt
  4

  0
ENDTAB
  0
TABLE
  2
VIEW
 70
     1
  0
VIEW
  2
ALL
 70
     0
 40
135.0
 10
110.4957983193277
 20
67.5
 41
0.0
 11
0.0
 21
0.0
 31
1.0
 12
0.0
 22
0.0
 32
0.0
 42
50.0
 43
0.0
 44
0.0
 50
0.0
 71
     0
  0
ENDTAB
  0
TABLE
  2
UCS
 70
     0
  0
ENDTAB
  0
TABLE
  2
APPID
 70
     5
  0
APPID
  2
ACAD
 70
     0
  0
APPID
  2
ACAD_EXEMPT_FROM_CAD_STAND
 70
     0
  0
APPID
  2
ACAD_MLEADERVER
 70
     0
  0
APPID
  2
ACAD_EXEMPT_FROM_CAD_STANDARDS
 70
     0
  0
APPID
  2
ACAD_NAV_VCDISPLAY
 70
     0
  0
ENDTAB
  0
TABLE
  2
DIMSTYLE
 70
     1
  0
DIMSTYLE
  2
STANDARD
 70
     0
  3

  4

  5

  6

  7

 40
1.0
 41
0.18
 42
0.0625
 43
0.38
 44
0.18
 45
0.0
 46
0.0
 47
0.0
 48
0.0
140
0.18
141
0.09
142
0.0
143
25.399999999999999
144
1.0
145
0.0
146
1.0
147
0.09
 71
     0
 72
     0
 73
     1
 74
     1
 75
     0
 76
     0
 77
     0
 78
     0
170
     0
171
     2
172
     0
173
     0
174
     0
175
     0
176
     0
177
     0
178
     0
  0
ENDTAB
  0
ENDSEC
  0
SECTION
  2
BLOCKS
  0
BLOCK
  8
0
  2
$MODEL_SPACE
 70
     0
 10
0.0
 20
0.0
 30
0.0
  3
$MODEL_SPACE
  1

  0
ENDBLK
  5
C9
  8
0
  0
BLOCK
 67
     1
  8
0
  2
$PAPER_SPACE
 70
     0
 10
0.0
 20
0.0
 30
0.0
  3
$PAPER_SPACE
  1

  0
ENDBLK
  5
C7
 67
     1
  8
0
  0
ENDSEC
  0
SECTION
  2
ENTITIES
  0
LINE
  5
3F
  8
1
 10
70.000000000000028
 20
69.100000000000051
 30
0.0
 11
69.999999999999972
 21
31.099999999999991
 31
0.0
  0
LINE
  5
40
  8
1
 10
70.000000000000028
 20
104.9500000000001
 30
0.0
 11
70.000000000000028
 21
84.250000000000071
 31
0.0
  0
LINE
  5
41
  8
1
 10
47.500000000000327
 20
94.600000000000094
 30
0.0
 11
92.499999999999844
 21
94.600000000000023
 31
0.0
  0
LINE
  5
44
  8
3
 10
66.676499999999891
 20
47.10000000000008
 30
0.0
 11
66.000000000000028
 21
48.271732371320191
 31
0.0
  0
LINE
  5
45
  8
3
 10
73.323500000000109
 20
47.10000000000008
 30
0.0
 11
74.0
 21
48.271732371320191
 31
0.0
  0
LINE
  5
46
  8
0
 10
74.0
 20
47.100000000000058
 30
0.0
 11
65.999999999999972
 21
47.100000000000144
 31
0.0
  0
LINE
  5
47
  8
0
 10
74.0
 20
34.799999999999962
 30
0.0
 11
65.999999999999972
 21
34.800000000000018
 31
0.0
  0
LINE
  5
48
  8
0
 10
67.199999999999974
 20
33.60000000000003
 30
0.0
 11
65.999999999999972
 21
34.800000000000018
 31
0.0
  0
LINE
  5
49
  8
0
 10
73.999999999999972
 20
34.799999999999962
 30
0.0
 11
72.799999999999983
 21
33.59999999999998
 31
0.0
  0
LINE
  5
4A
  8
0
 10
74.0
 20
49.600000000000051
 30
0.0
 11
73.999999999999972
 21
34.799999999999962
 31
0.0
  0
LINE
  5
4B
  8
3
 10
73.323500000000109
 20
47.10000000000008
 30
0.0
 11
73.323500000000081
 21
34.123500000000099
 31
0.0
  0
LINE
  5
4C
  8
3
 10
66.676499999999891
 20
47.100000000000144
 30
0.0
 11
66.676499999999891
 21
34.123500000000163
 31
0.0
  0
LINE
  5
4D
  8
0
 10
66.0
 20
49.600000000000087
 30
0.0
 11
65.999999999999972
 21
34.800000000000018
 31
0.0
  0
LINE
  5
4E
  8
0
 10
72.799999999999983
 20
33.59999999999998
 30
0.0
 11
67.199999999999974
 21
33.60000000000003
 31
0.0
  0
LINE
  5
58
  8
1
 10
120.0
 20
69.100000000000051
 30
0.0
 11
120.0
 21
31.100000000000001
 31
0.0
  0
LINE
  5
62
  8
0
 10
122.8
 20
33.59999999999998
 30
0.0
 11
117.2
 21
33.60000000000003
 31
0.0
  0
LINE
  5
63
  8
0
 10
116.0
 20
49.600000000000087
 30
0.0
 11
116.0
 21
34.800000000000018
 31
0.0
  0
LINE
  5
64
  8
3
 10
116.6764999999999
 20
47.100000000000144
 30
0.0
 11
116.6764999999999
 21
34.123500000000163
 31
0.0
  0
LINE
  5
65
  8
3
 10
123.3235000000001
 20
47.10000000000008
 30
0.0
 11
123.3235000000001
 21
34.123500000000099
 31
0.0
  0
LINE
  5
66
  8
0
 10
124.0
 20
49.600000000000051
 30
0.0
 11
124.0
 21
34.799999999999962
 31
0.0
  0
LINE
  5
67
  8
0
 10
124.0
 20
34.799999999999962
 30
0.0
 11
122.8
 21
33.59999999999998
 31
0.0
  0
LINE
  5
68
  8
0
 10
117.2
 20
33.60000000000003
 30
0.0
 11
116.0
 21
34.800000000000018
 31
0.0
  0
LINE
  5
69
  8
0
 10
124.0
 20
34.799999999999962
 30
0.0
 11
116.0
 21
34.800000000000018
 31
0.0
  0
LINE
  5
6A
  8
0
 10
124.0
 20
47.100000000000058
 30
0.0
 11
116.0
 21
47.100000000000144
 31
0.0
  0
LINE
  5
6B
  8
3
 10
123.3235000000001
 20
47.10000000000008
 30
0.0
 11
124.0
 21
48.271732371320191
 31
0.0
  0
LINE
  5
6C
  8
3
 10
116.6764999999999
 20
47.10000000000008
 30
0.0
 11
116.0
 21
48.271732371320191
 31
0.0
  0
LINE
  5
1C9
  8
0
 10
65.0
 20
49.60000000000008
 30
0.0
 11
75.0
 21
49.60000000000008
 31
0.0
  0
LINE
  5
1CA
  8
0
 10
50.0
 20
50.0
 30
0.0
 11
89.999999999999758
 21
50.000000000000171
 31
0.0
  0
ARC
  5
1CB
  8
0
 10
70.0
 20
18.90000000000008
 30
0.0
 40
47.700000000000003
 50
68.286499750000175
 51
111.71349959828591
  0
LINE
  5
1CC
  8
0
 10
64.999999999999972
 20
50.000000000000071
 30
0.0
 11
65.0
 21
49.60000000000008
 31
0.0
  0
LINE
  5
1CE
  8
0
 10
50.0
 20
50.0
 30
0.0
 11
50.465390234954661
 21
60.559188829922903
 31
0.0
  0
LINE
  5
1CF
  8
0
 10
89.999999999999758
 20
50.000000000000171
 30
0.0
 11
89.534609765045488
 21
60.559188829922867
 31
0.0
  0
ARC
  5
1D8
  8
0
 10
53.462534899700202
 20
60.428330667826913
 30
0.0
 40
3.0
 50
111.71349959828591
 51
177.4999999999998
  0
ARC
  5
1D9
  8
0
 10
86.537465100299869
 20
60.428330667826849
 30
0.0
 40
3.0
 50
2.4999999999997891
 51
68.286500401714093
  0
LINE
  5
1E1
  8
0
 10
75.0
 20
50.000000000000099
 30
0.0
 11
75.0
 21
49.60000000000008
 31
0.0
  0
LINE
  5
1F1
  8
0
 10
115.0
 20
50.000000000000348
 30
0.0
 11
115.0
 21
49.60000000000008
 31
0.0
  0
LINE
  5
1F2
  8
0
 10
125.0
 20
50.000000000000348
 30
0.0
 11
125.0
 21
49.60000000000008
 31
0.0
  0
LINE
  5
1F3
  8
0
 10
112.25
 20
50.000000000000149
 30
0.0
 11
127.75
 21
50.000000000000149
 31
0.0
  0
LINE
  5
1F4
  8
0
 10
115.0
 20
49.60000000000008
 30
0.0
 11
125.0
 21
49.60000000000008
 31
0.0
  0
LINE
  5
1F5
  8
0
 10
127.75
 20
50.000000000000149
 30
0.0
 11
127.3387786563454
 21
61.608893798418023
 31
0.0
  0
LINE
  5
1F6
  8
0
 10
112.25
 20
50.000000000000149
 30
0.0
 11
112.6612213436546
 21
61.6088937984183
 31
0.0
  0
ARC
  5
1F7
  8
0
 10
120.0
 20
58.097429156336958
 30
0.0
 40
8.5025708436631167
 50
37.906052451007767
 51
142.0939475489896
  0
ARC
  5
1F8
  8
0
 10
115.65836600840019
 20
61.478035636322289
 30
0.0
 40
3.0
 50
142.0939475489896
 51
177.4999999999998
  0
ARC
  5
1F9
  8
0
 10
124.34163399159981
 20
61.478035636322012
 30
0.0
 40
3.0
 50
2.5000000000001958
 51
37.906052451007767
  0
LINE
  5
20A
  8
0
 10
54.139866183612781
 20
89.509212605956535
 30
0.0
 11
63.88384336699626
 21
87.480072726672262
 31
0.0
  0
LINE
  5
20B
  8
0
 10
76.11615663300401
 20
87.480072726672262
 30
0.0
 11
85.860133816387446
 21
89.509212605956606
 31
0.0
  0
LINE
  5
20C
  8
0
 10
85.860133816387446
 20
99.690787394043497
 30
0.0
 11
76.116156633004067
 21
101.7199272733278
 31
0.0
  0
LINE
  5
20D
  8
0
 10
63.88384336699626
 20
101.7199272733278
 30
0.0
 11
54.139866183612781
 21
99.690787394043554
 31
0.0
  0
ARC
  5
20E
  8
0
 10
70.000000000000142
 20
72.350000000000051
 30
0.0
 40
30.000000000000021
 50
78.236531596056238
 51
101.7634684039437
  0
ARC
  5
20F
  8
0
 10
70.000000000000426
 20
116.84999999999999
 30
0.0
 40
30.000000000000021
 50
258.23653159605618
 51
281.76346840394211
  0
ARC
  5
210
  8
0
 10
84.799987456161048
 20
94.600000000000065
 30
0.0
 40
5.2000116164699453
 50
337.83024736871971
 51
22.169752631280272
  0
ARC
  5
211
  8
0
 10
84.784530989967067
 20
94.586381653038444
 30
0.0
 40
5.2194686970275654
 50
22.24416805827564
 51
60.47483689322636
  0
ARC
  5
212
  8
0
 10
84.784530989967067
 20
94.613618346961658
 30
0.0
 40
5.2194686970275654
 50
299.52516310677368
 51
337.75583194172401
  0
ARC
  5
213
  8
0
 10
84.798627331859706
 20
94.596349455805026
 30
0.0
 40
5.2038537569053496
 50
60.555801866549629
 51
78.229929894679287
  0
ARC
  5
214
  8
0
 10
84.798627331859706
 20
94.603650544195062
 30
0.0
 40
5.2038537569053496
 50
281.7700701053206
 51
299.4441981334503
  0
ARC
  5
215
  8
0
 10
55.200012543839179
 20
94.600000000000065
 30
0.0
 40
5.2000116164699453
 50
157.83024736872011
 51
202.16975263127989
  0
ARC
  5
216
  8
0
 10
55.215469010033118
 20
94.586381653038444
 30
0.0
 40
5.2194686970275654
 50
119.5251631067736
 51
157.7558319417239
  0
ARC
  5
217
  8
0
 10
55.215469010033118
 20
94.613618346961658
 30
0.0
 40
5.2194686970275654
 50
202.24416805827599
 51
240.4748368932263
  0
ARC
  5
218
  8
0
 10
55.201372668140507
 20
94.596349455805026
 30
0.0
 40
5.2038537569053496
 50
101.7700701053207
 51
119.4441981334504
  0
ARC
  5
219
  8
0
 10
55.201372668140507
 20
94.603650544195062
 30
0.0
 40
5.2038537569053496
 50
240.55580186654959
 51
258.22992989467929
  0
TEXT
  5
2AC
  8
0
 62
     3
 10
0.0
 20
0.0
 30
0.0
 40
10.0
  1
LS8X16B-SUS
  7
STANDARD1
  0
ENDSEC
  0
EOF
