  0
SECTION
  2
HEADER
  9
$ACADVER
  1
AC1009
  9
$INSBASE
 10
0.0
 20
0.0
 30
0.0
  9
$EXTMIN
 10
0.0
 20
-2.960436562073669
 30
0.0
  9
$EXTMAX
 10
122.5
 20
98.999999999999986
 30
0.0
  9
$LIMMIN
 10
0.0
 20
0.0
  9
$LIMMAX
 10
187.5
 20
135.0
  9
$ORTHOMODE
 70
     1
  9
$REGENMODE
 70
     1
  9
$FILLMODE
 70
     1
  9
$QTEXTMODE
 70
     0
  9
$MIRRTEXT
 70
     0
  9
$DRAGMODE
 70
     2
  9
$LTSCALE
 40
5.0
  9
$OSMODE
 70
    37
  9
$ATTMODE
 70
     1
  9
$TEXTSIZE
 40
5.0
  9
$TRACEWID
 40
0.05
  9
$TEXTSTYLE
  7
STANDARD
  9
$CLAYER
  8
0
  9
$CELTYPE
  6
BYLAYER
  9
$CECOLOR
 62
   256
  9
$DIMSCALE
 40
0.5
  9
$DIMASZ
 40
3.0
  9
$DIMEXO
 40
2.0
  9
$DIMDLI
 40
0.38
  9
$DIMRND
 40
0.0
  9
$DIMDLE
 40
0.0
  9
$DIMEXE
 40
2.0
  9
$DIMTP
 40
0.0
  9
$DIMTM
 40
0.0
  9
$DIMTXT
 40
3.2000000000000002
  9
$DIMCEN
 40
0.0
  9
$DIMTSZ
 40
0.0
  9
$DIMTOL
 70
     0
  9
$DIMLIM
 70
     0
  9
$DIMTIH
 70
     0
  9
$DIMTOH
 70
     0
  9
$DIMSE1
 70
     0
  9
$DIMSE2
 70
     0
  9
$DIMTAD
 70
     1
  9
$DIMZIN
 70
     0
  9
$DIMBLK
  1

  9
$DIMASO
 70
     1
  9
$DIMSHO
 70
     0
  9
$DIMPOST
  1

  9
$DIMAPOST
  1

  9
$DIMALT
 70
     0
  9
$DIMALTD
 70
     2
  9
$DIMALTF
 40
25.399999999999999
  9
$DIMLFAC
 40
1.0
  9
$DIMTOFL
 70
     1
  9
$DIMTVP
 40
1.6000000000000001
  9
$DIMTIX
 70
     1
  9
$DIMSOXD
 70
     0
  9
$DIMSAH
 70
     0
  9
$DIMBLK1
  1

  9
$DIMBLK2
  1

  9
$DIMSTYLE
  2
STANDARD
  9
$DIMCLRD
 70
     0
  9
$DIMCLRE
 70
     0
  9
$DIMCLRT
 70
     0
  9
$DIMTFAC
 40
1.0
  9
$DIMGAP
 40
0.09
  9
$LUNITS
 70
     2
  9
$LUPREC
 70
     4
  9
$SKETCHINC
 40
0.1
  9
$FILLETRAD
 40
0.0
  9
$AUNITS
 70
     0
  9
$AUPREC
 70
     4
  9
$MENU
  1
E:\r13\win\SUPPORT\ACAD
  9
$ELEVATION
 40
0.0
  9
$PELEVATION
 40
0.0
  9
$THICKNESS
 40
0.0
  9
$LIMCHECK
 70
     0
  9
$BLIPMODE
 70
     0
  9
$CHAMFERA
 40
0.0
  9
$CHAMFERB
 40
0.0
  9
$SKPOLY
 70
     0
  9
$TDCREATE
 40
2449839.7865972221
  9
$TDUPDATE
 40
2456806.5448378469
  9
$TDINDWG
 40
0.0187388194
  9
$TDUSRTIMER
 40
2456694.2428341089
  9
$USRTIMER
 70
     1
  9
$ANGBASE
 50
0.0
  9
$ANGDIR
 70
     0
  9
$PDMODE
 70
     0
  9
$PDSIZE
 40
0.0
  9
$PLINEWID
 40
0.0
  9
$COORDS
 70
     1
  9
$SPLFRAME
 70
     0
  9
$SPLINETYPE
 70
     6
  9
$SPLINESEGS
 70
     8
  9
$ATTDIA
 70
     0
  9
$ATTREQ
 70
     1
  9
$HANDLING
 70
     1
  9
$HANDSEED
  5
3D1
  9
$SURFTAB1
 70
     6
  9
$SURFTAB2
 70
     6
  9
$SURFTYPE
 70
     6
  9
$SURFU
 70
     6
  9
$SURFV
 70
     6
  9
$UCSNAME
  2

  9
$UCSORG
 10
0.0
 20
0.0
 30
0.0
  9
$UCSXDIR
 10
1.0
 20
0.0
 30
0.0
  9
$UCSYDIR
 10
0.0
 20
1.0
 30
0.0
  9
$PUCSNAME
  2

  9
$PUCSORG
 10
0.0
 20
0.0
 30
0.0
  9
$PUCSXDIR
 10
1.0
 20
0.0
 30
0.0
  9
$PUCSYDIR
 10
0.0
 20
1.0
 30
0.0
  9
$USERI1
 70
     0
  9
$USERI2
 70
     1
  9
$USERI3
 70
     1
  9
$USERI4
 70
     0
  9
$USERI5
 70
     0
  9
$USERR1
 40
0.0
  9
$USERR2
 40
0.0
  9
$USERR3
 40
0.0
  9
$USERR4
 40
0.0
  9
$USERR5
 40
0.0
  9
$WORLDVIEW
 70
     1
  9
$SHADEDGE
 70
     3
  9
$SHADEDIF
 70
    70
  9
$TILEMODE
 70
     1
  9
$MAXACTVP
 70
    16
  9
$PLIMCHECK
 70
     0
  9
$PEXTMIN
 10
1.0000000000000000E+020
 20
1.0000000000000000E+020
 30
1.0000000000000000E+020
  9
$PEXTMAX
 10
-1.0000000000000000E+020
 20
-1.0000000000000000E+020
 30
-1.0000000000000000E+020
  9
$PLIMMIN
 10
0.0
 20
0.0
  9
$PLIMMAX
 10
0.0
 20
0.0
  9
$UNITMODE
 70
     0
  9
$VISRETAIN
 70
     0
  9
$PLINEGEN
 70
     0
  9
$PSLTSCALE
 70
     0
  0
ENDSEC
  0
SECTION
  2
TABLES
  0
TABLE
  2
VPORT
 70
     1
  0
VPORT
  2
*ACTIVE
 70
     0
 10
0.0
 20
0.0
 11
1.0
 21
1.0
 12
260.19575856443731
 22
100.0
 13
0.0
 23
0.0
 14
5.0
 24
5.0
 15
5.0
 25
5.0
 16
0.0
 26
0.0
 36
1.0
 17
0.0
 27
0.0
 37
0.0
 40
200.0
 41
2.6019575856443709
 42
50.0
 43
0.0
 44
0.0
 50
0.0
 51
0.0
 71
     0
 72
   500
 73
     1
 74
     0
 75
     0
 76
     0
 77
     0
 78
     2
  0
ENDTAB
  0
TABLE
  2
LTYPE
 70
     3
  0
LTYPE
  2
CONTINUOUS
 70
     0
  3
Solid Line
 72
    65
 73
     0
 40
0.0
  0
LTYPE
  2
CENTER
 70
     0
  3
____ _ ____ _ ____ _ ____ _ ____ _ ____ _ ____
 72
    65
 73
     4
 40
2.0
 49
1.25
 49
-0.25
 49
0.25
 49
-0.25
  0
LTYPE
  2
PHANTOM2
 70
     0
  3
___ _ _ ___ _ _ ___ _ _ ___ _ _
 72
    65
 73
     6
 40
1.25
 49
0.625
 49
-0.125
 49
0.125
 49
-0.125
 49
0.125
 49
-0.125
  0
ENDTAB
  0
TABLE
  2
LAYER
 70
     3
  0
LAYER
  2
0
 70
     0
 62
     7
  6
CONTINUOUS
  0
LAYER
  2
1
 70
     0
 62
     1
  6
CENTER
  0
LAYER
  2
3
 70
     0
 62
     3
  6
CONTINUOUS
  0
ENDTAB
  0
TABLE
  2
STYLE
 70
     2
  0
STYLE
  2
STANDARD
 70
     0
 40
0.0
 41
1.0
 50
0.0
 71
     0
 42
5.0
  3
TXT
  4
BIGFONT
  0
STYLE
  2
STANDARD1
 70
     0
 40
0.0
 41
1.0
 50
0.0
 71
     0
 42
3.0
  3
txt
  4

  0
ENDTAB
  0
TABLE
  2
VIEW
 70
     1
  0
VIEW
  2
ALL
 70
     0
 40
135.0
 10
110.4957983193277
 20
67.5
 41
0.0
 11
0.0
 21
0.0
 31
1.0
 12
0.0
 22
0.0
 32
0.0
 42
50.0
 43
0.0
 44
0.0
 50
0.0
 71
     0
  0
ENDTAB
  0
TABLE
  2
UCS
 70
     0
  0
ENDTAB
  0
TABLE
  2
APPID
 70
     5
  0
APPID
  2
ACAD
 70
     0
  0
APPID
  2
ACAD_EXEMPT_FROM_CAD_STAND
 70
     0
  0
APPID
  2
ACAD_MLEADERVER
 70
     0
  0
APPID
  2
ACAD_EXEMPT_FROM_CAD_STANDARDS
 70
     0
  0
APPID
  2
ACAD_NAV_VCDISPLAY
 70
     0
  0
ENDTAB
  0
TABLE
  2
DIMSTYLE
 70
     1
  0
DIMSTYLE
  2
STANDARD
 70
     0
  3

  4

  5

  6

  7

 40
1.0
 41
0.18
 42
0.0625
 43
0.38
 44
0.18
 45
0.0
 46
0.0
 47
0.0
 48
0.0
140
0.18
141
0.09
142
0.0
143
25.399999999999999
144
1.0
145
0.0
146
1.0
147
0.09
 71
     0
 72
     0
 73
     1
 74
     1
 75
     0
 76
     0
 77
     0
 78
     0
170
     0
171
     2
172
     0
173
     0
174
     0
175
     0
176
     0
177
     0
178
     0
  0
ENDTAB
  0
ENDSEC
  0
SECTION
  2
BLOCKS
  0
BLOCK
  8
0
  2
$MODEL_SPACE
 70
     0
 10
0.0
 20
0.0
 30
0.0
  3
$MODEL_SPACE
  1

  0
ENDBLK
  5
D5
  8
0
  0
BLOCK
 67
     1
  8
0
  2
$PAPER_SPACE
 70
     0
 10
0.0
 20
0.0
 30
0.0
  3
$PAPER_SPACE
  1

  0
ENDBLK
  5
D3
 67
     1
  8
0
  0
ENDSEC
  0
SECTION
  2
ENTITIES
  0
ARC
  5
34
  8
0
 10
66.000000000000085
 20
111.3
 30
0.0
 40
27.800000000000001
 50
237.97756769939221
 51
302.0224323006077
  0
ARC
  5
35
  8
0
 10
66.000000000000028
 20
68.700000000000003
 30
0.0
 40
27.800000000000001
 50
57.977567699392161
 51
122.0224323006078
  0
ARC
  5
36
  8
0
 10
52.675849999999883
 20
90.000000000000014
 30
0.0
 40
2.6758500000000001
 50
121.9709752355667
 51
237.91514975646081
  0
ARC
  5
37
  8
0
 10
79.324150000000259
 20
90.000000000000014
 30
0.0
 40
2.6758500000000001
 50
302.08485024353922
 51
58.029024764433331
  0
LINE
  5
38
  8
1
 10
84.500000000000242
 20
90.000000000000014
 30
0.0
 11
47.499999999999709
 21
90.000000000000014
 31
0.0
  0
LINE
  5
39
  8
1
 10
66.000000000000071
 20
98.999999999999986
 30
0.0
 11
66.000000000000028
 21
81.000000000000043
 31
0.0
  0
LINE
  5
3A
  8
1
 10
66.000000000000028
 20
66.899999999999466
 30
0.0
 11
66.000000000000028
 21
21.899999999999491
 31
0.0
  0
LINE
  5
43
  8
0
 10
70.0
 20
49.399999999999523
 30
0.0
 11
70.0
 21
25.399999999999519
 31
0.0
  0
LINE
  5
44
  8
0
 10
70.0
 20
25.399999999999519
 30
0.0
 11
69.0
 21
24.399999999999519
 31
0.0
  0
LINE
  5
45
  8
3
 10
69.323500000000109
 20
24.7234999999996
 30
0.0
 11
69.323500000000109
 21
48.149999999999508
 31
0.0
  0
LINE
  5
46
  8
0
 10
62.0
 20
49.399999999999523
 30
0.0
 11
62.0
 21
25.399999999999519
 31
0.0
  0
LINE
  5
47
  8
3
 10
62.676499999999891
 20
24.7234999999996
 30
0.0
 11
62.676499999999891
 21
48.149999999999523
 31
0.0
  0
LINE
  5
48
  8
0
 10
62.0
 20
25.399999999999519
 30
0.0
 11
63.0
 21
24.399999999999519
 31
0.0
  0
LINE
  5
49
  8
0
 10
62.0
 20
25.399999999999519
 30
0.0
 11
70.0
 21
25.399999999999519
 31
0.0
  0
LINE
  5
4A
  8
0
 10
69.0
 20
24.399999999999519
 30
0.0
 11
63.0
 21
24.399999999999519
 31
0.0
  0
LINE
  5
4D
  8
1
 10
116.0
 20
66.899999999999466
 30
0.0
 11
116.0
 21
21.89999999999948
 31
0.0
  0
LINE
  5
54
  8
0
 10
119.0
 20
24.399999999999491
 30
0.0
 11
113.0
 21
24.399999999999491
 31
0.0
  0
LINE
  5
55
  8
0
 10
112.0
 20
25.399999999999491
 30
0.0
 11
120.0
 21
25.399999999999491
 31
0.0
  0
LINE
  5
56
  8
0
 10
112.0
 20
25.399999999999491
 30
0.0
 11
113.0
 21
24.399999999999491
 31
0.0
  0
LINE
  5
57
  8
3
 10
112.6764999999999
 20
24.7234999999996
 30
0.0
 11
112.6764999999999
 21
48.149999999999508
 31
0.0
  0
LINE
  5
58
  8
0
 10
112.0
 20
49.39999999999948
 30
0.0
 11
112.0
 21
25.399999999999491
 31
0.0
  0
LINE
  5
59
  8
3
 10
119.3235000000001
 20
24.7234999999996
 30
0.0
 11
119.3235000000001
 21
48.149999999999508
 31
0.0
  0
LINE
  5
5A
  8
0
 10
120.0
 20
25.399999999999491
 30
0.0
 11
119.0
 21
24.399999999999491
 31
0.0
  0
LINE
  5
5B
  8
0
 10
120.0
 20
49.39999999999948
 30
0.0
 11
120.0
 21
25.399999999999491
 31
0.0
  0
ARC
  5
1EE
  8
0
 10
66.0
 20
26.99999999999952
 30
0.0
 40
37.399999999999999
 50
67.604486695687541
 51
112.3955133043124
  0
ARC
  5
1EF
  8
0
 10
52.51267164288663
 20
59.729985850705738
 30
0.0
 40
1.99999999999995
 50
112.3955133043133
 51
176.99999999999989
  0
LINE
  5
1F0
  8
0
 10
50.515412573377517
 20
59.834657763191629
 30
0.0
 11
50.000000000000028
 21
49.799999999999521
 31
0.0
  0
LINE
  5
1F1
  8
0
 10
61.0
 20
49.399999999999523
 30
0.0
 11
61.0
 21
49.799999999999521
 31
0.0
  0
LINE
  5
1F2
  8
0
 10
71.0
 20
49.399999999999523
 30
0.0
 11
61.0
 21
49.399999999999523
 31
0.0
  0
LINE
  5
1F3
  8
0
 10
81.484587426622468
 20
59.834657763191629
 30
0.0
 11
82.0
 21
49.799999999999521
 31
0.0
  0
ARC
  5
1F4
  8
0
 10
79.487328357113384
 20
59.729985850705738
 30
0.0
 40
1.99999999999995
 50
3.0000000000000129
 51
67.604486695686674
  0
LINE
  5
1F9
  8
0
 10
82.0
 20
49.799999999999521
 30
0.0
 11
50.000000000000028
 21
49.799999999999521
 31
0.0
  0
LINE
  5
1FA
  8
0
 10
122.5
 20
49.799999999999507
 30
0.0
 11
109.5
 21
49.799999999999507
 31
0.0
  0
ARC
  5
1FC
  8
0
 10
119.9512450923917
 20
60.41849555699536
 30
0.0
 40
2.0000000000000782
 50
2.9999999999996079
 51
36.733512422581761
  0
ARC
  5
1FD
  8
0
 10
115.9999999999999
 20
57.469731560082657
 30
0.0
 40
6.9302684399168264
 50
36.733512422581839
 51
143.26648757741779
  0
LINE
  5
1FE
  8
0
 10
122.5
 20
49.799999999999507
 30
0.0
 11
121.948504161901
 21
60.523167469481237
 31
0.0
  0
LINE
  5
1FF
  8
0
 10
109.5
 20
49.799999999999507
 30
0.0
 11
110.0514958380991
 21
60.523167469481237
 31
0.0
  0
ARC
  5
200
  8
0
 10
112.0487549076083
 20
60.41849555699536
 30
0.0
 40
2.0000000000000782
 50
143.26648757741819
 51
177.0000000000004
  0
LINE
  5
201
  8
0
 10
121.0
 20
49.399999999999508
 30
0.0
 11
111.0
 21
49.399999999999508
 31
0.0
  0
LINE
  5
202
  8
0
 10
111.0
 20
49.399999999999508
 30
0.0
 11
111.0
 21
49.799999999999507
 31
0.0
  0
LINE
  5
203
  8
0
 10
121.0
 20
49.799999999999507
 30
0.0
 11
121.0
 21
49.399999999999508
 31
0.0
  0
LINE
  5
204
  8
0
 10
71.0
 20
49.799999999999521
 30
0.0
 11
71.0
 21
49.399999999999523
 31
0.0
  0
TEXT
  5
298
  8
0
 62
     3
 10
0.0
 20
0.0
 30
0.0
 40
10.0
  1
LS8X25-SUS
  7
STANDARD1
  0
LINE
  5
31C
  8
0
 10
70.0
 20
48.149999999999508
 30
0.0
 11
62.0
 21
48.149999999999523
 31
0.0
  0
LINE
  5
31D
  8
0
 10
120.0
 20
48.149999999999508
 30
0.0
 11
112.0
 21
48.149999999999508
 31
0.0
  0
LINE
  5
31E
  8
3
 10
62.676499999999891
 20
48.149999999999523
 30
0.0
 11
62.0
 21
49.321732371319662
 31
0.0
  0
LINE
  5
31F
  8
3
 10
69.323500000000109
 20
48.149999999999473
 30
0.0
 11
70.000000000000028
 21
49.321732371319591
 31
0.0
  0
LINE
  5
320
  8
3
 10
112.6764999999999
 20
48.149999999999508
 30
0.0
 11
112.0
 21
49.321732371319648
 31
0.0
  0
LINE
  5
321
  8
3
 10
119.3235000000001
 20
48.149999999999451
 30
0.0
 11
120.0
 21
49.321732371319577
 31
0.0
  0
ENDSEC
  0
EOF
