  0
SECTION
  2
HEADER
  9
$ACADVER
  1
AC1009
  9
$INSBASE
 10
0.0
 20
0.0
 30
0.0
  9
$EXTMIN
 10
0.0
 20
-2.960436562073669
 30
0.0
  9
$EXTMAX
 10
160.66917472478971
 20
125.1470890809196
 30
0.0
  9
$LIMMIN
 10
0.0
 20
0.0
  9
$LIMMAX
 10
375.0
 20
270.0
  9
$ORTHOMODE
 70
     1
  9
$REGENMODE
 70
     1
  9
$FILLMODE
 70
     1
  9
$QTEXTMODE
 70
     0
  9
$MIRRTEXT
 70
     0
  9
$DRAGMODE
 70
     2
  9
$LTSCALE
 40
10.0
  9
$OSMODE
 70
    37
  9
$ATTMODE
 70
     1
  9
$TEXTSIZE
 40
0.2
  9
$TRACEWID
 40
0.05
  9
$TEXTSTYLE
  7
STANDARD
  9
$CLAYER
  8
0
  9
$CELTYPE
  6
BYLAYER
  9
$CECOLOR
 62
   256
  9
$DIMSCALE
 40
1.0
  9
$DIMASZ
 40
3.0
  9
$DIMEXO
 40
2.0
  9
$DIMDLI
 40
10.0
  9
$DIMRND
 40
0.0
  9
$DIMDLE
 40
0.0
  9
$DIMEXE
 40
2.0
  9
$DIMTP
 40
0.0
  9
$DIMTM
 40
0.0
  9
$DIMTXT
 40
3.2000000000000002
  9
$DIMCEN
 40
0.09
  9
$DIMTSZ
 40
0.0
  9
$DIMTOL
 70
     0
  9
$DIMLIM
 70
     0
  9
$DIMTIH
 70
     0
  9
$DIMTOH
 70
     0
  9
$DIMSE1
 70
     0
  9
$DIMSE2
 70
     0
  9
$DIMTAD
 70
     1
  9
$DIMZIN
 70
     8
  9
$DIMBLK
  1

  9
$DIMASO
 70
     0
  9
$DIMSHO
 70
     0
  9
$DIMPOST
  1

  9
$DIMAPOST
  1

  9
$DIMALT
 70
     0
  9
$DIMALTD
 70
     2
  9
$DIMALTF
 40
25.399999999999999
  9
$DIMLFAC
 40
1.0
  9
$DIMTOFL
 70
     1
  9
$DIMTVP
 40
1.6000000000000001
  9
$DIMTIX
 70
     0
  9
$DIMSOXD
 70
     0
  9
$DIMSAH
 70
     0
  9
$DIMBLK1
  1

  9
$DIMBLK2
  1

  9
$DIMSTYLE
  2
STANDARD
  9
$DIMCLRD
 70
   256
  9
$DIMCLRE
 70
     0
  9
$DIMCLRT
 70
     0
  9
$DIMTFAC
 40
1.0
  9
$DIMGAP
 40
0.09
  9
$LUNITS
 70
     2
  9
$LUPREC
 70
     4
  9
$SKETCHINC
 40
0.1
  9
$FILLETRAD
 40
0.0
  9
$AUNITS
 70
     0
  9
$AUPREC
 70
     0
  9
$MENU
  1
E:\r13\win\SUPPORT\ACAD
  9
$ELEVATION
 40
0.0
  9
$PELEVATION
 40
0.0
  9
$THICKNESS
 40
0.0
  9
$LIMCHECK
 70
     0
  9
$BLIPMODE
 70
     0
  9
$CHAMFERA
 40
0.0
  9
$CHAMFERB
 40
0.0
  9
$SKPOLY
 70
     0
  9
$TDCREATE
 40
2449840.6171180559
  9
$TDUPDATE
 40
2456806.544856065
  9
$TDINDWG
 40
0.1709415856
  9
$TDUSRTIMER
 40
2456694.2386795608
  9
$USRTIMER
 70
     1
  9
$ANGBASE
 50
0.0
  9
$ANGDIR
 70
     0
  9
$PDMODE
 70
     0
  9
$PDSIZE
 40
0.0
  9
$PLINEWID
 40
0.0
  9
$COORDS
 70
     1
  9
$SPLFRAME
 70
     0
  9
$SPLINETYPE
 70
     6
  9
$SPLINESEGS
 70
     8
  9
$ATTDIA
 70
     0
  9
$ATTREQ
 70
     1
  9
$HANDLING
 70
     1
  9
$HANDSEED
  5
2C3B
  9
$SURFTAB1
 70
     6
  9
$SURFTAB2
 70
     6
  9
$SURFTYPE
 70
     6
  9
$SURFU
 70
     6
  9
$SURFV
 70
     6
  9
$UCSNAME
  2

  9
$UCSORG
 10
0.0
 20
0.0
 30
0.0
  9
$UCSXDIR
 10
1.0
 20
0.0
 30
0.0
  9
$UCSYDIR
 10
0.0
 20
1.0
 30
0.0
  9
$PUCSNAME
  2

  9
$PUCSORG
 10
0.0
 20
0.0
 30
0.0
  9
$PUCSXDIR
 10
1.0
 20
0.0
 30
0.0
  9
$PUCSYDIR
 10
0.0
 20
1.0
 30
0.0
  9
$USERI1
 70
     0
  9
$USERI2
 70
     1
  9
$USERI3
 70
     0
  9
$USERI4
 70
     0
  9
$USERI5
 70
     0
  9
$USERR1
 40
0.0
  9
$USERR2
 40
0.0
  9
$USERR3
 40
0.0
  9
$USERR4
 40
0.0
  9
$USERR5
 40
0.0
  9
$WORLDVIEW
 70
     1
  9
$SHADEDGE
 70
     3
  9
$SHADEDIF
 70
    70
  9
$TILEMODE
 70
     1
  9
$MAXACTVP
 70
    16
  9
$PLIMCHECK
 70
     0
  9
$PEXTMIN
 10
1.0000000000000000E+020
 20
1.0000000000000000E+020
 30
1.0000000000000000E+020
  9
$PEXTMAX
 10
-1.0000000000000000E+020
 20
-1.0000000000000000E+020
 30
-1.0000000000000000E+020
  9
$PLIMMIN
 10
0.0
 20
0.0
  9
$PLIMMAX
 10
0.0
 20
0.0
  9
$UNITMODE
 70
     0
  9
$VISRETAIN
 70
     0
  9
$PLINEGEN
 70
     0
  9
$PSLTSCALE
 70
     0
  0
ENDSEC
  0
SECTION
  2
TABLES
  0
TABLE
  2
VPORT
 70
     1
  0
VPORT
  2
*ACTIVE
 70
     0
 10
0.0
 20
0.0
 11
1.0
 21
1.0
 12
260.19575856443731
 22
100.0
 13
0.0
 23
0.0
 14
10.0
 24
10.0
 15
10.0
 25
10.0
 16
0.0
 26
0.0
 36
1.0
 17
0.0
 27
0.0
 37
0.0
 40
200.0
 41
2.6019575856443709
 42
50.0
 43
0.0
 44
0.0
 50
0.0
 51
0.0
 71
     0
 72
   100
 73
     1
 74
     0
 75
     0
 76
     0
 77
     0
 78
     0
  0
ENDTAB
  0
TABLE
  2
LTYPE
 70
     3
  0
LTYPE
  2
CONTINUOUS
 70
     0
  3
Solid Line
 72
    65
 73
     0
 40
0.0
  0
LTYPE
  2
CENTER
 70
     0
  3
____ _ ____ _ ____ _ ____ _ ____ _ ____ _ ____
 72
    65
 73
     4
 40
2.0
 49
1.25
 49
-0.25
 49
0.25
 49
-0.25
  0
LTYPE
  2
PHANTOM2
 70
     0
  3
___ _ _ ___ _ _ ___ _ _ ___ _ _
 72
    65
 73
     6
 40
1.25
 49
0.625
 49
-0.125
 49
0.125
 49
-0.125
 49
0.125
 49
-0.125
  0
ENDTAB
  0
TABLE
  2
LAYER
 70
     3
  0
LAYER
  2
0
 70
     0
 62
     7
  6
CONTINUOUS
  0
LAYER
  2
1
 70
     0
 62
     1
  6
CENTER
  0
LAYER
  2
3
 70
     0
 62
     3
  6
CONTINUOUS
  0
ENDTAB
  0
TABLE
  2
STYLE
 70
     2
  0
STYLE
  2
STANDARD
 70
     0
 40
0.0
 41
1.0
 50
0.0
 71
     0
 42
0.2
  3
TXT
  4
BIGFONT
  0
STYLE
  2
STANDARD1
 70
     0
 40
0.0
 41
1.0
 50
0.0
 71
     0
 42
3.0
  3
txt
  4

  0
ENDTAB
  0
TABLE
  2
VIEW
 70
     1
  0
VIEW
  2
ALL
 70
     0
 40
270.0
 10
220.99159700000001
 20
135.0
 41
0.0
 11
0.0
 21
0.0
 31
1.0
 12
0.0
 22
0.0
 32
0.0
 42
50.0
 43
0.0
 44
0.0
 50
0.0
 71
     0
  0
ENDTAB
  0
TABLE
  2
UCS
 70
     0
  0
ENDTAB
  0
TABLE
  2
APPID
 70
     5
  0
APPID
  2
ACAD
 70
     0
  0
APPID
  2
ACAD_EXEMPT_FROM_CAD_STAND
 70
     0
  0
APPID
  2
ACAD_MLEADERVER
 70
     0
  0
APPID
  2
ACAD_EXEMPT_FROM_CAD_STANDARDS
 70
     0
  0
APPID
  2
ACAD_NAV_VCDISPLAY
 70
     0
  0
ENDTAB
  0
TABLE
  2
DIMSTYLE
 70
     1
  0
DIMSTYLE
  2
STANDARD
 70
     0
  3

  4

  5

  6

  7

 40
1.0
 41
0.18
 42
0.0625
 43
0.38
 44
0.18
 45
0.0
 46
0.0
 47
0.0
 48
0.0
140
0.18
141
0.09
142
0.0
143
25.399999999999999
144
1.0
145
0.0
146
1.0
147
0.09
 71
     0
 72
     0
 73
     1
 74
     1
 75
     0
 76
     0
 77
     0
 78
     0
170
     0
171
     2
172
     0
173
     0
174
     0
175
     0
176
     0
177
     0
178
     0
  0
ENDTAB
  0
ENDSEC
  0
SECTION
  2
BLOCKS
  0
BLOCK
  8
0
  2
$MODEL_SPACE
 70
     0
 10
0.0
 20
0.0
 30
0.0
  3
$MODEL_SPACE
  1

  0
ENDBLK
  5
E8
  8
0
  0
BLOCK
 67
     1
  8
0
  2
$PAPER_SPACE
 70
     0
 10
0.0
 20
0.0
 30
0.0
  3
$PAPER_SPACE
  1

  0
ENDBLK
  5
E6
 67
     1
  8
0
  0
ENDSEC
  0
SECTION
  2
ENTITIES
  0
LINE
  5
2A4B
  8
1
 10
47.000016909792564
 20
112.6470890809196
 30
0.0
 11
101.00001691083619
 21
112.6470890809196
 31
0.0
  0
LINE
  5
2A4C
  8
1
 10
74.000016910314372
 20
125.1470890809196
 30
0.0
 11
74.000016910314372
 21
100.1470890809195
 31
0.0
  0
ARC
  5
2A4D
  8
0
 10
91.758509021176749
 20
112.6430522594639
 30
0.0
 40
6.2442697856262832
 50
44.86736996533083
 51
77.275388533390327
  0
LINE
  5
2A4E
  8
0
 10
81.926291563313882
 20
121.26366878517349
 30
0.0
 11
93.133904516834306
 21
118.7339628963236
 31
0.0
  0
ARC
  5
2A4F
  8
0
 10
74.000016910314343
 20
86.147089080919216
 30
0.0
 40
36.000000000000398
 50
77.280729565331072
 51
102.7192704346689
  0
LINE
  5
2A50
  8
0
 10
54.866129303794452
 20
118.7339628963236
 30
0.0
 11
66.073742257314876
 21
121.26366878517349
 31
0.0
  0
LINE
  5
2A51
  8
0
 10
147.1691916334965
 20
25.366992954838839
 30
0.0
 11
147.93619163349649
 21
24.59999295483885
 31
0.0
  0
LINE
  5
2A52
  8
0
 10
154.4021916334965
 20
24.59999295483885
 30
0.0
 11
155.1691916334965
 21
25.366992954838839
 31
0.0
  0
LINE
  5
2A53
  8
0
 10
147.1691916334965
 20
49.599992954838847
 30
0.0
 11
147.1691916334965
 21
25.366992954838839
 31
0.0
  0
LINE
  5
2A54
  8
0
 10
155.1691916334965
 20
25.366992954838839
 30
0.0
 11
155.1691916334965
 21
49.599992954838847
 31
0.0
  0
LINE
  5
2A55
  8
0
 10
147.93619163349649
 20
24.59999295483885
 30
0.0
 11
154.4021916334965
 21
24.59999295483885
 31
0.0
  0
LINE
  5
2A56
  8
0
 10
147.1691916334965
 20
25.366992954838839
 30
0.0
 11
155.1691916334965
 21
25.366992954838839
 31
0.0
  0
LINE
  5
2A59
  8
0
 10
147.1691916334965
 20
47.999992954838817
 30
0.0
 11
155.1691916334965
 21
47.999992954838817
 31
0.0
  0
LINE
  5
2A5C
  8
1
 10
151.1691916334965
 20
21.599992954838839
 30
0.0
 11
151.1691916334965
 21
71.599999389052414
 31
0.0
  0
LINE
  5
2A5D
  8
1
 10
74.000016910314372
 20
21.599992954838839
 30
0.0
 11
74.000016910314372
 21
71.599999999997209
 31
0.0
  0
LINE
  5
2A60
  8
0
 10
70.000016910314372
 20
47.999992954838817
 30
0.0
 11
78.000016910314372
 21
47.999992954838817
 31
0.0
  0
LINE
  5
2A63
  8
0
 10
70.000016910314372
 20
25.366992954838839
 30
0.0
 11
78.000016910314372
 21
25.366992954838839
 31
0.0
  0
LINE
  5
2A64
  8
0
 10
70.767016910314368
 20
24.59999295483885
 30
0.0
 11
77.233016910314376
 21
24.59999295483885
 31
0.0
  0
LINE
  5
2A65
  8
0
 10
78.000016910314372
 20
25.366992954838839
 30
0.0
 11
78.000016910314372
 21
49.599992954838847
 31
0.0
  0
LINE
  5
2A66
  8
0
 10
70.000016910314372
 20
49.599992954838847
 30
0.0
 11
70.000016910314372
 21
25.366992954838839
 31
0.0
  0
LINE
  5
2A67
  8
0
 10
77.233016910314376
 20
24.59999295483885
 30
0.0
 11
78.000016910314372
 21
25.366992954838839
 31
0.0
  0
LINE
  5
2A68
  8
0
 10
70.000016910314372
 20
25.366992954838839
 30
0.0
 11
70.767016910314368
 21
24.59999295483885
 31
0.0
  0
ARC
  5
2A69
  8
0
 10
74.000016910314258
 20
139.1470890809199
 30
0.0
 40
36.000000000000398
 50
257.28072956533128
 51
282.71927043466911
  0
LINE
  5
2A6A
  8
0
 10
54.86612930379448
 20
106.5602152655154
 30
0.0
 11
66.073742257314905
 21
104.03050937666561
 31
0.0
  0
LINE
  5
2A6B
  8
0
 10
81.926291563313924
 20
104.03050937666561
 30
0.0
 11
93.13390451683432
 21
106.5602152655155
 31
0.0
  0
ARC
  5
2A6C
  8
0
 10
91.75845885982298
 20
112.64694741988551
 30
0.0
 40
6.2415580520989993
 50
315.15829700176272
 51
44.841702998237253
  0
ARC
  5
2A6D
  8
0
 10
91.758508771814135
 20
112.6508425835104
 30
0.0
 40
6.2442697856262832
 50
282.72827945926758
 51
315.13629802732697
  0
ARC
  5
2A6E
  8
0
 10
56.241574960805821
 20
112.64694741988539
 30
0.0
 40
6.2415580520989993
 50
135.15829700176289
 51
224.84170299823751
  0
ARC
  5
2A6F
  8
0
 10
56.241525048814658
 20
112.6508425835103
 30
0.0
 40
6.2442697856262832
 50
224.8637019726732
 51
257.2717205407327
  0
ARC
  5
2A70
  8
0
 10
56.241524799452051
 20
112.6430522594638
 30
0.0
 40
6.2442697856262832
 50
102.7246114666098
 51
135.13263003466929
  0
LINE
  5
2A71
  8
0
 10
160.66917472478971
 20
50.0
 30
0.0
 11
141.66917472478971
 21
50.0
 31
0.0
  0
ARC
  5
2A72
  8
0
 10
74.000000001009653
 20
20.710723663106769
 30
0.0
 40
47.889276336893253
 50
63.782903829344967
 51
116.217096170655
  0
ARC
  5
2A73
  8
0
 10
92.805915779778843
 20
59.500331114296479
 30
0.0
 40
4.7894649078379059
 50
5.7934453092831593
 51
60.611889687003561
  0
LINE
  5
2A74
  8
0
 10
97.570917361709974
 20
59.9837915859014
 30
0.0
 11
98.000000001607532
 21
50.0
 31
0.0
  0
LINE
  5
2A75
  8
0
 10
50.430306961178871
 20
59.975978684980653
 30
0.0
 11
50.0
 21
50.0
 31
0.0
  0
ARC
  5
2A76
  8
0
 10
55.221956893558293
 20
59.48472857673773
 30
0.0
 40
4.8167661084300217
 50
119.58591827955919
 51
174.1463668215363
  0
LINE
  5
2A77
  8
0
 10
50.0
 20
50.0
 30
0.0
 11
98.000000607179985
 21
49.999985909687453
 31
0.0
  0
ARC
  5
2A78
  8
0
 10
144.6691864098367
 20
65.59998940278976
 30
0.0
 40
3.0000136485678461
 50
89.910473145348547
 51
180.07046813481099
  0
LINE
  5
2A79
  8
0
 10
141.66917503026349
 20
65.596268019080185
 30
0.0
 11
141.66917503026349
 21
49.99999998989518
 31
0.0
  0
LINE
  5
2A7A
  8
0
 10
157.66447540518871
 20
68.599999389052414
 30
0.0
 11
144.67390012142289
 21
68.599999389052414
 31
0.0
  0
ARC
  5
2A7B
  8
0
 10
157.6691630397427
 20
65.59998940278976
 30
0.0
 40
3.0000136485678461
 50
359.92953186518912
 51
90.089526854651425
  0
LINE
  5
2A7C
  8
0
 10
160.66917441931591
 20
49.99999998989518
 30
0.0
 11
160.66917441931591
 21
65.596299684047722
 31
0.0
  0
LINE
  5
2A7D
  8
0
 10
67.846170756468268
 20
49.999992954838852
 30
0.0
 11
67.846170756468268
 21
49.599992954838847
 31
0.0
  0
LINE
  5
2A7E
  8
0
 10
80.153863064160518
 20
49.599992954838847
 30
0.0
 11
80.153863064160518
 21
49.999992954838852
 31
0.0
  0
LINE
  5
2A7F
  8
0
 10
67.846170756468268
 20
49.599992954838847
 30
0.0
 11
80.153863064160518
 21
49.599992954838847
 31
0.0
  0
LINE
  5
2A80
  8
0
 10
145.01534547965039
 20
49.599992954838847
 30
0.0
 11
157.32303778734271
 21
49.599992954838847
 31
0.0
  0
LINE
  5
2A81
  8
0
 10
157.32303778734271
 20
49.599992954838847
 30
0.0
 11
157.32303778734271
 21
49.999992954838852
 31
0.0
  0
LINE
  5
2A82
  8
0
 10
145.01534547965039
 20
49.999992954838852
 30
0.0
 11
145.01534547965039
 21
49.599992954838847
 31
0.0
  0
TEXT
  5
2B0A
  8
0
 62
     3
 10
0.0
 20
0.0
 30
0.0
 40
10.0
  1
LS8X25C-SUS
  7
STANDARD1
  0
LINE
  5
2B95
  8
3
 10
77.323516910314481
 20
24.690492954838948
 30
0.0
 11
77.323516910314481
 21
47.999992954838817
 31
0.0
  0
LINE
  5
2B96
  8
3
 10
70.676516910314263
 20
24.690492954838948
 30
0.0
 11
70.676516910314263
 21
47.999992954838817
 31
0.0
  0
LINE
  5
2B97
  8
3
 10
154.49269163349661
 20
24.690492954838948
 30
0.0
 11
154.49269163349661
 21
47.999992954838817
 31
0.0
  0
LINE
  5
2B98
  8
3
 10
147.84569163349639
 20
24.690492954838948
 30
0.0
 11
147.84569163349639
 21
47.999992954838817
 31
0.0
  0
LINE
  5
2B99
  8
3
 10
70.676516910314263
 20
47.999992954838817
 30
0.0
 11
70.000016910314372
 21
49.17172532615897
 31
0.0
  0
LINE
  5
2B9A
  8
3
 10
77.323516910314481
 20
47.999992954838817
 30
0.0
 11
78.000016910314372
 21
49.17172532615897
 31
0.0
  0
LINE
  5
2B9B
  8
3
 10
147.84569163349639
 20
47.99999295483881
 30
0.0
 11
147.1691916334965
 21
49.17172532615897
 31
0.0
  0
LINE
  5
2B9C
  8
3
 10
154.49269163349661
 20
47.99999295483881
 30
0.0
 11
155.1691916334965
 21
49.17172532615897
 31
0.0
  0
ENDSEC
  0
EOF
