  0
SECTION
  2
HEADER
  9
$ACADVER
  1
AC1009
  9
$INSBASE
 10
0.0
 20
0.0
 30
0.0
  9
$EXTMIN
 10
0.0
 20
-2.960436562073669
 30
0.0
  9
$EXTMAX
 10
122.5
 20
99.200000000000472
 30
0.0
  9
$LIMMIN
 10
0.0
 20
0.0
  9
$LIMMAX
 10
187.5
 20
135.0
  9
$ORTHOMODE
 70
     1
  9
$REGENMODE
 70
     1
  9
$FILLMODE
 70
     1
  9
$QTEXTMODE
 70
     0
  9
$MIRRTEXT
 70
     0
  9
$DRAGMODE
 70
     2
  9
$LTSCALE
 40
5.0
  9
$OSMODE
 70
  3071
  9
$ATTMODE
 70
     1
  9
$TEXTSIZE
 40
5.0
  9
$TRACEWID
 40
0.05
  9
$TEXTSTYLE
  7
STANDARD
  9
$CLAYER
  8
0
  9
$CELTYPE
  6
BYLAYER
  9
$CECOLOR
 62
   256
  9
$DIMSCALE
 40
0.5
  9
$DIMASZ
 40
3.0
  9
$DIMEXO
 40
2.0
  9
$DIMDLI
 40
0.38
  9
$DIMRND
 40
0.0
  9
$DIMDLE
 40
0.0
  9
$DIMEXE
 40
2.0
  9
$DIMTP
 40
0.0
  9
$DIMTM
 40
0.0
  9
$DIMTXT
 40
3.2000000000000002
  9
$DIMCEN
 40
0.0
  9
$DIMTSZ
 40
0.0
  9
$DIMTOL
 70
     0
  9
$DIMLIM
 70
     0
  9
$DIMTIH
 70
     0
  9
$DIMTOH
 70
     0
  9
$DIMSE1
 70
     0
  9
$DIMSE2
 70
     0
  9
$DIMTAD
 70
     1
  9
$DIMZIN
 70
     0
  9
$DIMBLK
  1

  9
$DIMASO
 70
     1
  9
$DIMSHO
 70
     0
  9
$DIMPOST
  1

  9
$DIMAPOST
  1

  9
$DIMALT
 70
     0
  9
$DIMALTD
 70
     2
  9
$DIMALTF
 40
25.399999999999999
  9
$DIMLFAC
 40
1.0
  9
$DIMTOFL
 70
     1
  9
$DIMTVP
 40
1.6000000000000001
  9
$DIMTIX
 70
     1
  9
$DIMSOXD
 70
     0
  9
$DIMSAH
 70
     0
  9
$DIMBLK1
  1

  9
$DIMBLK2
  1

  9
$DIMSTYLE
  2
STANDARD
  9
$DIMCLRD
 70
     0
  9
$DIMCLRE
 70
     0
  9
$DIMCLRT
 70
     0
  9
$DIMTFAC
 40
1.0
  9
$DIMGAP
 40
0.09
  9
$LUNITS
 70
     2
  9
$LUPREC
 70
     4
  9
$SKETCHINC
 40
0.1
  9
$FILLETRAD
 40
0.0
  9
$AUNITS
 70
     0
  9
$AUPREC
 70
     4
  9
$MENU
  1
E:\r13\win\SUPPORT\ACAD
  9
$ELEVATION
 40
0.0
  9
$PELEVATION
 40
0.0
  9
$THICKNESS
 40
0.0
  9
$LIMCHECK
 70
     0
  9
$BLIPMODE
 70
     0
  9
$CHAMFERA
 40
0.0
  9
$CHAMFERB
 40
0.0
  9
$SKPOLY
 70
     0
  9
$TDCREATE
 40
2449839.7866203701
  9
$TDUPDATE
 40
2456597.6064292588
  9
$TDINDWG
 40
0.0166465856
  9
$TDUSRTIMER
 40
0.0166465856
  9
$USRTIMER
 70
     1
  9
$ANGBASE
 50
0.0
  9
$ANGDIR
 70
     0
  9
$PDMODE
 70
     0
  9
$PDSIZE
 40
0.0
  9
$PLINEWID
 40
0.0
  9
$COORDS
 70
     1
  9
$SPLFRAME
 70
     0
  9
$SPLINETYPE
 70
     6
  9
$SPLINESEGS
 70
     8
  9
$ATTDIA
 70
     0
  9
$ATTREQ
 70
     1
  9
$HANDLING
 70
     1
  9
$HANDSEED
  5
2F6
  9
$SURFTAB1
 70
     6
  9
$SURFTAB2
 70
     6
  9
$SURFTYPE
 70
     6
  9
$SURFU
 70
     6
  9
$SURFV
 70
     6
  9
$UCSNAME
  2

  9
$UCSORG
 10
0.0
 20
0.0
 30
0.0
  9
$UCSXDIR
 10
1.0
 20
0.0
 30
0.0
  9
$UCSYDIR
 10
0.0
 20
1.0
 30
0.0
  9
$PUCSNAME
  2

  9
$PUCSORG
 10
0.0
 20
0.0
 30
0.0
  9
$PUCSXDIR
 10
1.0
 20
0.0
 30
0.0
  9
$PUCSYDIR
 10
0.0
 20
1.0
 30
0.0
  9
$USERI1
 70
     0
  9
$USERI2
 70
     1
  9
$USERI3
 70
     1
  9
$USERI4
 70
     0
  9
$USERI5
 70
     0
  9
$USERR1
 40
0.0
  9
$USERR2
 40
0.0
  9
$USERR3
 40
0.0
  9
$USERR4
 40
0.0
  9
$USERR5
 40
0.0
  9
$WORLDVIEW
 70
     1
  9
$SHADEDGE
 70
     3
  9
$SHADEDIF
 70
    70
  9
$TILEMODE
 70
     1
  9
$MAXACTVP
 70
    16
  9
$PLIMCHECK
 70
     0
  9
$PEXTMIN
 10
1.0000000000000000E+020
 20
1.0000000000000000E+020
 30
1.0000000000000000E+020
  9
$PEXTMAX
 10
-1.0000000000000000E+020
 20
-1.0000000000000000E+020
 30
-1.0000000000000000E+020
  9
$PLIMMIN
 10
0.0
 20
0.0
  9
$PLIMMAX
 10
12.0
 20
9.0
  9
$UNITMODE
 70
     0
  9
$VISRETAIN
 70
     0
  9
$PLINEGEN
 70
     0
  9
$PSLTSCALE
 70
     0
  0
ENDSEC
  0
SECTION
  2
TABLES
  0
TABLE
  2
VPORT
 70
     1
  0
VPORT
  2
*ACTIVE
 70
     0
 10
0.0
 20
0.0
 11
1.0
 21
1.0
 12
93.74713919532617
 22
66.313465060797697
 13
0.0
 23
0.0
 14
5.0
 24
5.0
 15
5.0
 25
5.0
 16
0.0
 26
0.0
 36
1.0
 17
0.0
 27
0.0
 37
0.0
 40
140.15365342376049
 41
2.304913294797688
 42
50.0
 43
0.0
 44
0.0
 50
0.0
 51
0.0
 71
     0
 72
   500
 73
     1
 74
     0
 75
     0
 76
     0
 77
     0
 78
     2
  0
ENDTAB
  0
TABLE
  2
LTYPE
 70
     3
  0
LTYPE
  2
CONTINUOUS
 70
     0
  3
Solid Line
 72
    65
 73
     0
 40
0.0
  0
LTYPE
  2
CENTER
 70
     0
  3
____ _ ____ _ ____ _ ____ _ ____ _ ____ _ ____
 72
    65
 73
     4
 40
2.0
 49
1.25
 49
-0.25
 49
0.25
 49
-0.25
  0
LTYPE
  2
PHANTOM2
 70
     0
  3
___ _ _ ___ _ _ ___ _ _ ___ _ _
 72
    65
 73
     6
 40
1.25
 49
0.625
 49
-0.125
 49
0.125
 49
-0.125
 49
0.125
 49
-0.125
  0
ENDTAB
  0
TABLE
  2
LAYER
 70
     3
  0
LAYER
  2
0
 70
     0
 62
     7
  6
CONTINUOUS
  0
LAYER
  2
1
 70
     0
 62
     1
  6
CENTER
  0
LAYER
  2
3
 70
     0
 62
     3
  6
CONTINUOUS
  0
ENDTAB
  0
TABLE
  2
STYLE
 70
     2
  0
STYLE
  2
STANDARD
 70
     0
 40
0.0
 41
1.0
 50
0.0
 71
     0
 42
5.0
  3
TXT
  4
BIGFONT
  0
STYLE
  2
STANDARD1
 70
     0
 40
0.0
 41
1.0
 50
0.0
 71
     0
 42
3.0
  3
txt
  4

  0
ENDTAB
  0
TABLE
  2
VIEW
 70
     1
  0
VIEW
  2
ALL
 70
     0
 40
135.0
 10
110.4957983193277
 20
67.5
 41
0.0
 11
0.0
 21
0.0
 31
1.0
 12
0.0
 22
0.0
 32
0.0
 42
0.0
 43
0.0
 44
0.0
 50
0.0
 71
     0
  0
ENDTAB
  0
TABLE
  2
UCS
 70
     0
  0
ENDTAB
  0
TABLE
  2
APPID
 70
     4
  0
APPID
  2
ACAD
 70
     0
  0
APPID
  2
ACAD_EXEMPT_FROM_CAD_STANDARDS
 70
     0
  0
APPID
  2
ACAD_MLEADERVER
 70
     0
  0
APPID
  2
ACAD_NAV_VCDISPLAY
 70
     0
  0
ENDTAB
  0
TABLE
  2
DIMSTYLE
 70
     1
  0
DIMSTYLE
  2
STANDARD
 70
     0
  3

  4

  5

  6

  7

 40
1.0
 41
0.18
 42
0.0625
 43
0.38
 44
0.18
 45
0.0
 46
0.0
 47
0.0
 48
0.0
140
0.18
141
0.09
142
0.0
143
25.399999999999999
144
1.0
145
0.0
146
1.0
147
0.09
 71
     0
 72
     0
 73
     1
 74
     1
 75
     0
 76
     0
 77
     0
 78
     0
170
     0
171
     2
172
     0
173
     0
174
     0
175
     0
176
     0
177
     0
178
     0
  0
ENDTAB
  0
ENDSEC
  0
SECTION
  2
BLOCKS
  0
BLOCK
  8
0
  2
$MODEL_SPACE
 70
     0
 10
0.0
 20
0.0
 30
0.0
  3
$MODEL_SPACE
  1

  0
ENDBLK
  5
D5
  8
0
  0
BLOCK
 67
     1
  8
0
  2
$PAPER_SPACE
 70
     0
 10
0.0
 20
0.0
 30
0.0
  3
$PAPER_SPACE
  1

  0
ENDBLK
  5
D3
 67
     1
  8
0
  0
ENDSEC
  0
SECTION
  2
ENTITIES
  0
ARC
  5
34
  8
0
 10
66.000000000000057
 20
111.5000000000005
 30
0.0
 40
27.800000000000001
 50
237.9775676993921
 51
302.0224323006077
  0
ARC
  5
35
  8
0
 10
66.0
 20
68.900000000000489
 30
0.0
 40
27.800000000000001
 50
57.977567699392111
 51
122.0224323006079
  0
ARC
  5
36
  8
0
 10
52.675849999999862
 20
90.200000000000514
 30
0.0
 40
2.6758500000000001
 50
121.9709752355666
 51
237.91514975646081
  0
ARC
  5
37
  8
0
 10
79.32415000000023
 20
90.200000000000514
 30
0.0
 40
2.6758500000000001
 50
302.08485024353922
 51
58.029024764433267
  0
LINE
  5
38
  8
1
 10
84.500000000000213
 20
90.200000000000514
 30
0.0
 11
47.49999999999968
 21
90.200000000000514
 31
0.0
  0
LINE
  5
39
  8
1
 10
66.000000000000043
 20
99.200000000000472
 30
0.0
 11
66.0
 21
81.200000000000514
 31
0.0
  0
LINE
  5
3A
  8
1
 10
66.0
 20
67.099999999999966
 30
0.0
 11
66.0
 21
7.0999999999999757
 31
0.0
  0
LINE
  5
43
  8
0
 10
69.999999999999972
 20
49.600000000000001
 30
0.0
 11
69.999999999999972
 21
10.60000000000001
 31
0.0
  0
LINE
  5
44
  8
0
 10
69.999999999999972
 20
10.60000000000001
 30
0.0
 11
68.999999999999972
 21
9.6000000000000085
 31
0.0
  0
LINE
  5
45
  8
3
 10
69.323500000000081
 20
9.9235000000000895
 30
0.0
 11
69.323500000000081
 21
49.600000000000001
 31
0.0
  0
LINE
  5
46
  8
0
 10
61.999999999999972
 20
49.600000000000001
 30
0.0
 11
61.999999999999972
 21
10.60000000000001
 31
0.0
  0
LINE
  5
47
  8
3
 10
62.676499999999862
 20
9.9235000000000895
 30
0.0
 11
62.676499999999862
 21
49.600000000000001
 31
0.0
  0
LINE
  5
48
  8
0
 10
61.999999999999972
 20
10.60000000000001
 30
0.0
 11
62.999999999999972
 21
9.6000000000000085
 31
0.0
  0
LINE
  5
49
  8
0
 10
61.999999999999972
 20
10.60000000000001
 30
0.0
 11
69.999999999999972
 21
10.60000000000001
 31
0.0
  0
LINE
  5
4A
  8
0
 10
68.999999999999972
 20
9.6000000000000085
 30
0.0
 11
62.999999999999972
 21
9.6000000000000085
 31
0.0
  0
LINE
  5
4D
  8
1
 10
116.0
 20
67.099999999999952
 30
0.0
 11
116.0
 21
7.0999999999999686
 31
0.0
  0
LINE
  5
54
  8
0
 10
118.9999999999999
 20
9.5999999999999712
 30
0.0
 11
112.9999999999999
 21
9.5999999999999712
 31
0.0
  0
LINE
  5
55
  8
0
 10
111.9999999999999
 20
10.599999999999969
 30
0.0
 11
119.9999999999999
 21
10.599999999999969
 31
0.0
  0
LINE
  5
56
  8
0
 10
111.9999999999999
 20
10.599999999999969
 30
0.0
 11
112.9999999999999
 21
9.5999999999999712
 31
0.0
  0
LINE
  5
57
  8
3
 10
112.67649999999981
 20
9.9235000000000824
 30
0.0
 11
112.67649999999981
 21
49.599999999999973
 31
0.0
  0
LINE
  5
58
  8
0
 10
111.9999999999999
 20
49.599999999999973
 30
0.0
 11
111.9999999999999
 21
10.599999999999969
 31
0.0
  0
LINE
  5
59
  8
3
 10
119.3235000000001
 20
9.9235000000000824
 30
0.0
 11
119.3235000000001
 21
49.599999999999973
 31
0.0
  0
LINE
  5
5A
  8
0
 10
119.9999999999999
 20
10.599999999999969
 30
0.0
 11
118.9999999999999
 21
9.5999999999999712
 31
0.0
  0
LINE
  5
5B
  8
0
 10
119.9999999999999
 20
49.599999999999973
 30
0.0
 11
119.9999999999999
 21
10.599999999999969
 31
0.0
  0
ARC
  5
1EB
  8
0
 10
66.0
 20
27.20000000000001
 30
0.0
 40
37.399999999999999
 50
67.604486695687541
 51
112.3955133043124
  0
ARC
  5
1EC
  8
0
 10
52.51267164288663
 20
59.929985850706231
 30
0.0
 40
1.99999999999995
 50
112.3955133043124
 51
176.99999999999989
  0
LINE
  5
1ED
  8
0
 10
50.515412573377517
 20
60.034657763192108
 30
0.0
 11
50.0
 21
50.0
 31
0.0
  0
LINE
  5
1EE
  8
0
 10
61.0
 20
49.600000000000001
 30
0.0
 11
61.0
 21
50.0
 31
0.0
  0
LINE
  5
1EF
  8
0
 10
71.0
 20
49.600000000000001
 30
0.0
 11
61.0
 21
49.600000000000001
 31
0.0
  0
LINE
  5
1F0
  8
0
 10
81.484587426622511
 20
60.034657763192108
 30
0.0
 11
82.0
 21
50.0
 31
0.0
  0
ARC
  5
1F1
  8
0
 10
79.48732835711337
 20
59.929985850706231
 30
0.0
 40
1.99999999999995
 50
3.000000000000095
 51
67.604486695687541
  0
LINE
  5
1F6
  8
0
 10
82.0
 20
50.0
 30
0.0
 11
50.0
 21
50.0
 31
0.0
  0
LINE
  5
1F7
  8
0
 10
122.5
 20
50.0
 30
0.0
 11
109.5
 21
50.0
 31
0.0
  0
ARC
  5
1F9
  8
0
 10
119.9512450923917
 20
60.618495556995853
 30
0.0
 40
2.0000000000000782
 50
2.9999999999994849
 51
36.733512422581782
  0
ARC
  5
1FA
  8
0
 10
115.9999999999999
 20
57.66973156008315
 30
0.0
 40
6.9302684399168264
 50
36.73351242258191
 51
143.26648757741791
  0
LINE
  5
1FB
  8
0
 10
122.5
 20
50.0
 30
0.0
 11
121.948504161901
 21
60.723167469481723
 31
0.0
  0
LINE
  5
1FC
  8
0
 10
109.5
 20
50.0
 30
0.0
 11
110.0514958380991
 21
60.723167469481723
 31
0.0
  0
ARC
  5
1FD
  8
0
 10
112.0487549076083
 20
60.618495556995853
 30
0.0
 40
2.0000000000000782
 50
143.26648757741819
 51
177.00000000000031
  0
LINE
  5
1FE
  8
0
 10
121.0
 20
49.600000000000001
 30
0.0
 11
111.0
 21
49.600000000000001
 31
0.0
  0
LINE
  5
1FF
  8
0
 10
111.0
 20
49.600000000000001
 30
0.0
 11
111.0
 21
50.0
 31
0.0
  0
LINE
  5
200
  8
0
 10
121.0
 20
50.0
 30
0.0
 11
121.0
 21
49.600000000000001
 31
0.0
  0
LINE
  5
201
  8
0
 10
71.0
 20
50.0
 30
0.0
 11
71.0
 21
49.600000000000001
 31
0.0
  0
TEXT
  5
296
  8
0
 62
     3
 10
0.0
 20
0.0
 30
0.0
 40
10.0
  1
LS8X40
  7
STANDARD1
  0
ENDSEC
  0
EOF
