  0
SECTION
  2
HEADER
  9
$ACADVER
  1
AC1009
  9
$INSBASE
 10
0.0
 20
0.0
 30
0.0
  9
$EXTMIN
 10
0.0
 20
-2.960436562073669
 30
0.0
  9
$EXTMAX
 10
109.4952251023192
 20
172.4091096702407
 30
0.0
  9
$LIMMIN
 10
0.0
 20
0.0
  9
$LIMMAX
 10
375.0
 20
270.0
  9
$ORTHOMODE
 70
     1
  9
$REGENMODE
 70
     1
  9
$FILLMODE
 70
     1
  9
$QTEXTMODE
 70
     0
  9
$MIRRTEXT
 70
     0
  9
$DRAGMODE
 70
     2
  9
$LTSCALE
 40
6.0
  9
$OSMODE
 70
    37
  9
$ATTMODE
 70
     1
  9
$TEXTSIZE
 40
0.2
  9
$TRACEWID
 40
0.05
  9
$TEXTSTYLE
  7
STANDARD
  9
$CLAYER
  8
0
  9
$CELTYPE
  6
BYLAYER
  9
$CECOLOR
 62
   256
  9
$DIMSCALE
 40
1.0
  9
$DIMASZ
 40
3.0
  9
$DIMEXO
 40
1.0
  9
$DIMDLI
 40
6.0
  9
$DIMRND
 40
0.0
  9
$DIMDLE
 40
0.0
  9
$DIMEXE
 40
1.0
  9
$DIMTP
 40
495.0
  9
$DIMTM
 40
0.0
  9
$DIMTXT
 40
3.0
  9
$DIMCEN
 40
0.0
  9
$DIMTSZ
 40
0.0
  9
$DIMTOL
 70
     0
  9
$DIMLIM
 70
     0
  9
$DIMTIH
 70
     0
  9
$DIMTOH
 70
     0
  9
$DIMSE1
 70
     0
  9
$DIMSE2
 70
     0
  9
$DIMTAD
 70
     1
  9
$DIMZIN
 70
     0
  9
$DIMBLK
  1

  9
$DIMASO
 70
     0
  9
$DIMSHO
 70
     0
  9
$DIMPOST
  1

  9
$DIMAPOST
  1

  9
$DIMALT
 70
     0
  9
$DIMALTD
 70
     2
  9
$DIMALTF
 40
25.399999999999999
  9
$DIMLFAC
 40
1.0
  9
$DIMTOFL
 70
     1
  9
$DIMTVP
 40
0.0
  9
$DIMTIX
 70
     1
  9
$DIMSOXD
 70
     0
  9
$DIMSAH
 70
     0
  9
$DIMBLK1
  1

  9
$DIMBLK2
  1

  9
$DIMSTYLE
  2
STANDARD
  9
$DIMCLRD
 70
     0
  9
$DIMCLRE
 70
     0
  9
$DIMCLRT
 70
     4
  9
$DIMTFAC
 40
1.0
  9
$DIMGAP
 40
1.0
  9
$LUNITS
 70
     2
  9
$LUPREC
 70
     4
  9
$SKETCHINC
 40
0.1
  9
$FILLETRAD
 40
2.0
  9
$AUNITS
 70
     0
  9
$AUPREC
 70
     0
  9
$MENU
  1
C:\R13\WIN\SUPPORT\ACAD-I
  9
$ELEVATION
 40
0.0
  9
$PELEVATION
 40
0.0
  9
$THICKNESS
 40
0.0
  9
$LIMCHECK
 70
     0
  9
$BLIPMODE
 70
     0
  9
$CHAMFERA
 40
0.0
  9
$CHAMFERB
 40
0.0
  9
$SKPOLY
 70
     0
  9
$TDCREATE
 40
2451961.7073381478
  9
$TDUPDATE
 40
2456598.717244884
  9
$TDINDWG
 40
0.0424026505
  9
$TDUSRTIMER
 40
2456598.0071753711
  9
$USRTIMER
 70
     1
  9
$ANGBASE
 50
0.0
  9
$ANGDIR
 70
     0
  9
$PDMODE
 70
     0
  9
$PDSIZE
 40
0.0
  9
$PLINEWID
 40
0.0
  9
$COORDS
 70
     1
  9
$SPLFRAME
 70
     0
  9
$SPLINETYPE
 70
     6
  9
$SPLINESEGS
 70
     8
  9
$ATTDIA
 70
     0
  9
$ATTREQ
 70
     1
  9
$HANDLING
 70
     1
  9
$HANDSEED
  5
1A88
  9
$SURFTAB1
 70
     6
  9
$SURFTAB2
 70
     6
  9
$SURFTYPE
 70
     6
  9
$SURFU
 70
     6
  9
$SURFV
 70
     6
  9
$UCSNAME
  2

  9
$UCSORG
 10
0.0
 20
0.0
 30
0.0
  9
$UCSXDIR
 10
1.0
 20
0.0
 30
0.0
  9
$UCSYDIR
 10
0.0
 20
1.0
 30
0.0
  9
$PUCSNAME
  2

  9
$PUCSORG
 10
0.0
 20
0.0
 30
0.0
  9
$PUCSXDIR
 10
1.0
 20
0.0
 30
0.0
  9
$PUCSYDIR
 10
0.0
 20
1.0
 30
0.0
  9
$USERI1
 70
     4
  9
$USERI2
 70
     1
  9
$USERI3
 70
     0
  9
$USERI4
 70
     0
  9
$USERI5
 70
     0
  9
$USERR1
 40
1.0
  9
$USERR2
 40
3.0
  9
$USERR3
 40
3.0
  9
$USERR4
 40
3.0
  9
$USERR5
 40
10.0
  9
$WORLDVIEW
 70
     1
  9
$SHADEDGE
 70
     3
  9
$SHADEDIF
 70
    70
  9
$TILEMODE
 70
     1
  9
$MAXACTVP
 70
    16
  9
$PLIMCHECK
 70
     0
  9
$PEXTMIN
 10
1.0000000000000000E+020
 20
1.0000000000000000E+020
 30
1.0000000000000000E+020
  9
$PEXTMAX
 10
-1.0000000000000000E+020
 20
-1.0000000000000000E+020
 30
-1.0000000000000000E+020
  9
$PLIMMIN
 10
0.0
 20
0.0
  9
$PLIMMAX
 10
12.0
 20
9.0
  9
$UNITMODE
 70
     0
  9
$VISRETAIN
 70
     0
  9
$PLINEGEN
 70
     0
  9
$PSLTSCALE
 70
     0
  0
ENDSEC
  0
SECTION
  2
TABLES
  0
TABLE
  2
VPORT
 70
     1
  0
VPORT
  2
*ACTIVE
 70
     0
 10
0.0
 20
0.0
 11
1.0
 21
1.0
 12
187.49427839065231
 22
177.52205812711131
 13
0.0
 23
0.0
 14
10.0
 24
10.0
 15
10.0
 25
10.0
 16
0.0
 26
0.0
 36
1.0
 17
0.0
 27
0.0
 37
0.0
 40
364.13085016302909
 41
1.755244755244755
 42
50.0
 43
0.0
 44
0.0
 50
0.0
 51
0.0
 71
    16
 72
   100
 73
     1
 74
     0
 75
     0
 76
     0
 77
     0
 78
     0
  0
ENDTAB
  0
TABLE
  2
LTYPE
 70
     3
  0
LTYPE
  2
CONTINUOUS
 70
     0
  3
Solid Line
 72
    65
 73
     0
 40
0.0
  0
LTYPE
  2
PHANTOM2
 70
     0
  3
___ _ _ ___ _ _ ___ _ _ ___ _ _
 72
    65
 73
     6
 40
1.25
 49
0.625
 49
-0.125
 49
0.125
 49
-0.125
 49
0.125
 49
-0.125
  0
LTYPE
  2
CENTER
 70
     0
  3
____ _ ____ _ ____ _ ____ _ ____ _ ____ _ ____
 72
    65
 73
     4
 40
2.0
 49
1.25
 49
-0.25
 49
0.25
 49
-0.25
  0
ENDTAB
  0
TABLE
  2
LAYER
 70
     3
  0
LAYER
  2
0
 70
     0
 62
     7
  6
CONTINUOUS
  0
LAYER
  2
1
 70
     0
 62
     1
  6
CENTER
  0
LAYER
  2
3
 70
     0
 62
     3
  6
CONTINUOUS
  0
ENDTAB
  0
TABLE
  2
STYLE
 70
     3
  0
STYLE
  2
STANDARD
 70
     0
 40
0.0
 41
1.0
 50
0.0
 71
     0
 42
0.2
  3
SIMPLEX
  4
BIGFONT
  0
STYLE
  2
ANNOTATIVE
 70
     0
 40
0.0
 41
1.0
 50
0.0
 71
     0
 42
0.2
  3
txt
  4

  0
STYLE
  2
STANDARD1
 70
     0
 40
0.0
 41
1.0
 50
0.0
 71
     0
 42
3.0
  3
txt
  4

  0
ENDTAB
  0
TABLE
  2
VIEW
 70
     0
  0
ENDTAB
  0
TABLE
  2
UCS
 70
     0
  0
ENDTAB
  0
TABLE
  2
APPID
 70
    29
  0
APPID
  2
ACAD
 70
     0
  0
APPID
  2
ACADANNOTATIVE
 70
     0
  0
APPID
  2
GENIUS_GENOREF_13
 70
     0
  0
APPID
  2
GENIUS_GENOENT_13
 70
     0
  0
APPID
  2
GENIUS_GENBH_13
 70
     0
  0
APPID
  2
GENIUS_GENOBJ_13
 70
     0
  0
APPID
  2
GENIUS_GENODEF_13
 70
     0
  0
APPID
  2
GENIUS_GENOLIS_13
 70
     0
  0
APPID
  2
GENIUS_GENOBJ-NBEHI-BHF_13
 70
     0
  0
APPID
  2
GENIUS_GENOBJ-NBEHI-BHB_13
 70
     0
  0
APPID
  2
GENIUS_GENOBJ-F-PART_13
 70
     0
  0
APPID
  2
GENIUS_GEFSTDP_13
 70
     0
  0
APPID
  2
GENIUS_GENOBJ-N-RSSYM_13
 70
     0
  0
APPID
  2
GENIUS_GENSYMENT_13
 70
     0
  0
APPID
  2
GENIUS_GENOBJ-N-TIT_13
 70
     0
  0
APPID
  2
GENIUS_GENTITLE_13
 70
     0
  0
APPID
  2
GENIUS_GENZVEED_13
 70
     0
  0
APPID
  2
GENIUS_GENOBJ-N-LEADER_13
 70
     0
  0
APPID
  2
GENIUS_GENOBJ-N-FIL_13
 70
     0
  0
APPID
  2
GENIUS_GENOBJ-N-SEC_13
 70
     0
  0
APPID
  2
GENIUS_GENOBJ-N-CRS_13
 70
     0
  0
APPID
  2
GENIUS_GENOBJ-N-ZOO_13
 70
     0
  0
APPID
  2
GENIUS_GENZOO_13
 70
     0
  0
APPID
  2
GENIUS_GENOBJ-F-TOL_13
 70
     0
  0
APPID
  2
GENIUS_GENFIL_13
 70
     0
  0
APPID
  2
GENIUS_GENOBJ-N-CHA_13
 70
     0
  0
APPID
  2
ACAD_MLEADERVER
 70
     0
  0
APPID
  2
ACAD_EXEMPT_FROM_CAD_STANDARDS
 70
     0
  0
APPID
  2
ACAD_NAV_VCDISPLAY
 70
     0
  0
ENDTAB
  0
TABLE
  2
DIMSTYLE
 70
     2
  0
DIMSTYLE
  2
STANDARD
 70
     0
  3

  4

  5

  6

  7

 40
1.0
 41
0.18
 42
0.0625
 43
0.38
 44
0.18
 45
0.0
 46
0.0
 47
0.0
 48
0.0
140
0.18
141
0.09
142
0.0
143
25.399999999999999
144
1.0
145
0.0
146
1.0
147
0.09
 71
     0
 72
     0
 73
     1
 74
     1
 75
     0
 76
     0
 77
     0
 78
     0
170
     0
171
     2
172
     0
173
     0
174
     0
175
     0
176
     0
177
     0
178
     0
  0
DIMSTYLE
  2
ANNOTATIVE
 70
     0
  3

  4

  5

  6

  7

 40
1.0
 41
0.18
 42
0.0625
 43
0.38
 44
0.18
 45
0.0
 46
0.0
 47
0.0
 48
0.0
140
0.18
141
0.09
142
0.0
143
25.399999999999999
144
1.0
145
0.0
146
1.0
147
0.09
 71
     0
 72
     0
 73
     1
 74
     1
 75
     0
 76
     0
 77
     0
 78
     0
170
     0
171
     2
172
     0
173
     0
174
     0
175
     0
176
     0
177
     0
178
     0
  0
ENDTAB
  0
ENDSEC
  0
SECTION
  2
BLOCKS
  0
BLOCK
  8
0
  2
$MODEL_SPACE
 70
     0
 10
0.0
 20
0.0
 30
0.0
  3
$MODEL_SPACE
  1

  0
ENDBLK
  5
194F
  8
0
  0
BLOCK
 67
     1
  8
0
  2
$PAPER_SPACE
 70
     0
 10
0.0
 20
0.0
 30
0.0
  3
$PAPER_SPACE
  1

  0
ENDBLK
  5
194B
 67
     1
  8
0
  0
ENDSEC
  0
SECTION
  2
ENTITIES
  0
CIRCLE
  5
13D1
  8
0
 10
29.791621199125991
 20
153.40910967024081
 30
0.0
 40
15.99999999999994
  0
CIRCLE
  5
13D3
  8
0
 10
29.791621199125991
 20
153.40910967024081
 30
0.0
 40
10.999999999999901
  0
LINE
  5
13D4
  8
1
 10
29.791621199125871
 20
25.122783298225801
 30
0.0
 11
29.791621199125991
 21
124.1227832982258
 31
0.0
  0
LINE
  5
13D5
  8
1
 10
82.91187136830645
 20
25.122783298225801
 30
0.0
 11
82.911871368306592
 21
123.8910837860638
 31
0.0
  0
LINE
  5
13EB
  8
0
 10
92.411871368306478
 20
73.834108163630944
 30
0.0
 11
91.911871368306464
 21
74.122783298225841
 31
0.0
  0
ARC
  5
13EC
  8
0
 10
87.661871368306507
 20
60.114424273637837
 30
0.0
 40
13.719683889993171
 50
69.743841999613011
 51
110.256158000387
  0
LINE
  5
13ED
  8
0
 10
91.911871368306464
 20
64.122783298225841
 30
0.0
 11
92.411871368306478
 21
64.483255202545934
 31
0.0
  0
LINE
  5
13EE
  8
0
 10
92.411871368306478
 20
64.483255202545934
 30
0.0
 11
92.411871368306478
 21
73.834108163630944
 31
0.0
  0
ARC
  5
13EF
  8
0
 10
87.661871368306507
 20
78.131142322813844
 30
0.0
 40
13.719683889993171
 50
249.7438419996115
 51
290.25615800038707
  0
ARC
  5
13F0
  8
0
 10
78.161871368306507
 20
78.131142322813844
 30
0.0
 40
13.719683889993171
 50
249.7438419996115
 51
290.25615800038707
  0
LINE
  5
13F1
  8
0
 10
73.411871368306507
 20
64.483255202545934
 30
0.0
 11
73.411871368306507
 21
73.834108163630944
 31
0.0
  0
LINE
  5
13F2
  8
0
 10
73.911871368306507
 20
64.122783298225841
 30
0.0
 11
73.411871368306507
 21
64.483255202545934
 31
0.0
  0
ARC
  5
13F3
  8
0
 10
78.161871368306507
 20
60.114424273637837
 30
0.0
 40
13.719683889993171
 50
69.743841999613011
 51
110.256158000387
  0
LINE
  5
13F4
  8
0
 10
73.411871368306507
 20
73.834108163630944
 30
0.0
 11
73.911871368306507
 21
74.122783298225841
 31
0.0
  0
LINE
  5
13F5
  8
0
 10
73.911871368306507
 20
74.122783298225841
 30
0.0
 11
91.911871368306464
 21
74.122783298225841
 31
0.0
  0
LINE
  5
13F6
  8
0
 10
91.911871368306464
 20
64.122783298225841
 30
0.0
 11
73.911871368306507
 21
64.122783298225841
 31
0.0
  0
LINE
  5
13F7
  8
0
 10
82.911871368303295
 20
72.985602387600011
 30
0.0
 11
82.91187136830645
 21
65.25996420885167
 31
0.0
  0
LINE
  5
13F8
  8
0
 10
78.911871368306592
 20
121.1227832982258
 30
0.0
 11
86.911871368306592
 21
121.1227832982257
 31
0.0
  0
LINE
  5
13F9
  8
0
 10
88.911871368306507
 20
53.122783298225713
 30
0.0
 11
88.911871368306507
 21
64.122783298225841
 31
0.0
  0
LINE
  5
13FA
  8
3
 10
87.964871368306603
 20
55.122783298225727
 30
0.0
 11
87.964871368306603
 21
64.122783298225841
 31
0.0
  0
LINE
  5
13FB
  8
0
 10
86.911871368306592
 20
121.1227832982257
 30
0.0
 11
88.911871368306592
 21
119.1227832982257
 31
0.0
  0
LINE
  5
13FC
  8
0
 10
76.911871368306592
 20
119.1227832982257
 30
0.0
 11
88.911871368306691
 21
119.1227832982257
 31
0.0
  0
LINE
  5
13FD
  8
0
 10
88.911871368306507
 20
55.122783298225727
 30
0.0
 11
76.911871368306507
 21
55.122783298225727
 31
0.0
  0
LINE
  5
13FE
  8
3
 10
87.964871368306603
 20
55.122783298225727
 30
0.0
 11
88.911871368306507
 21
53.482531183458022
 31
0.0
  0
LINE
  5
13FF
  8
0
 10
76.911871368306507
 20
53.122783298225713
 30
0.0
 11
76.911871368306507
 21
64.122783298225727
 31
0.0
  0
LINE
  5
1400
  8
3
 10
77.858871368306609
 20
55.122783298225727
 30
0.0
 11
77.858871368306609
 21
64.122783298225841
 31
0.0
  0
LINE
  5
1401
  8
0
 10
78.911871368306592
 20
121.1227832982258
 30
0.0
 11
76.911871368306592
 21
119.1227832982258
 31
0.0
  0
LINE
  5
1402
  8
3
 10
77.858871368306609
 20
55.122783298225727
 30
0.0
 11
76.911871368306507
 21
53.482531183458022
 31
0.0
  0
LINE
  5
1403
  8
3
 10
77.858871368306609
 20
74.122783298225727
 30
0.0
 11
77.858871368306609
 21
120.0697832982258
 31
0.0
  0
LINE
  5
1404
  8
0
 10
76.911871368306592
 20
74.122783298225954
 30
0.0
 11
76.911871368306592
 21
119.1227832982258
 31
0.0
  0
LINE
  5
1405
  8
3
 10
87.964871368306603
 20
74.122783298225841
 30
0.0
 11
87.964871368306603
 21
120.0697832982256
 31
0.0
  0
LINE
  5
1406
  8
0
 10
88.911871368306507
 20
74.122783298225841
 30
0.0
 11
88.911871368306592
 21
119.1227832982257
 31
0.0
  0
LINE
  5
1419
  8
3
 10
34.844621199125989
 20
55.122783298225841
 30
0.0
 11
35.791621199125991
 21
53.48253118345815
 31
0.0
  0
LINE
  5
141A
  8
3
 10
24.738621199125991
 20
55.122783298225841
 30
0.0
 11
23.791621199125981
 21
53.48253118345815
 31
0.0
  0
LINE
  5
141B
  8
0
 10
35.791621199125991
 20
55.122783298225841
 30
0.0
 11
23.791621199125981
 21
55.122783298225841
 31
0.0
  0
LINE
  5
141C
  8
0
 10
23.791621199126041
 20
119.1227832982258
 30
0.0
 11
35.791621199126098
 21
119.1227832982258
 31
0.0
  0
LINE
  5
141D
  8
0
 10
33.791621199126041
 20
121.1227832982258
 30
0.0
 11
35.791621199125991
 21
119.1227832982258
 31
0.0
  0
LINE
  5
141E
  8
0
 10
25.791621199126041
 20
121.1227832982258
 30
0.0
 11
23.791621199126041
 21
119.1227832982258
 31
0.0
  0
LINE
  5
141F
  8
0
 10
23.791621199125981
 20
53.122783298225841
 30
0.0
 11
23.791621199125981
 21
64.122783298225841
 31
0.0
  0
LINE
  5
1420
  8
3
 10
24.738621199125991
 20
55.122783298225841
 30
0.0
 11
24.738621199125991
 21
64.122783298225841
 31
0.0
  0
LINE
  5
1421
  8
3
 10
34.844621199126102
 20
55.122783298225841
 30
0.0
 11
34.844621199126102
 21
64.122783298225841
 31
0.0
  0
LINE
  5
1422
  8
0
 10
35.791621199125991
 20
53.122783298225841
 30
0.0
 11
35.791621199125991
 21
64.122783298225841
 31
0.0
  0
LINE
  5
1423
  8
0
 10
25.791621199126041
 20
121.1227832982258
 30
0.0
 11
33.791621199126041
 21
121.1227832982258
 31
0.0
  0
LINE
  5
1424
  8
0
 10
18.821966084523069
 20
72.985602387600011
 30
0.0
 11
20.79162119912473
 21
74.122783298225841
 31
0.0
  0
ARC
  5
1425
  8
0
 10
21.564379863173709
 20
68.978044941622542
 30
0.0
 40
4.8560632220084567
 50
55.615752531983411
 51
115.6157525319127
  0
ARC
  5
1426
  8
0
 10
29.791621199126109
 20
55.682613939645528
 30
0.0
 40
18.15149422398537
 50
72.412046226036352
 51
107.5879537739636
  0
ARC
  5
1427
  8
0
 10
38.01886253507849
 20
68.978044941622542
 30
0.0
 40
4.8560632220084567
 50
64.384247468087224
 51
124.3842474680164
  0
LINE
  5
1428
  8
0
 10
40.761276313729113
 20
72.985602387600011
 30
0.0
 11
38.791621199127448
 21
74.122783298225841
 31
0.0
  0
LINE
  5
1429
  8
0
 10
20.79162119912473
 20
74.122783298225841
 30
0.0
 11
38.791621199127448
 21
74.122783298225841
 31
0.0
  0
LINE
  5
142A
  8
0
 10
20.79162119912473
 20
64.122783298225841
 30
0.0
 11
38.791621199127448
 21
64.122783298225841
 31
0.0
  0
LINE
  5
142B
  8
0
 10
40.761276313729113
 20
65.25996420885167
 30
0.0
 11
38.791621199127448
 21
64.122783298225841
 31
0.0
  0
ARC
  5
142C
  8
0
 10
38.01886253507849
 20
69.267521654829125
 30
0.0
 40
4.8560632220084567
 50
235.6157525319833
 51
295.61575253191268
  0
ARC
  5
142D
  8
0
 10
29.791621199126109
 20
82.562952656806146
 30
0.0
 40
18.15149422398537
 50
252.41204622603641
 51
287.5879537739637
  0
ARC
  5
142E
  8
0
 10
21.564379863173709
 20
69.267521654829125
 30
0.0
 40
4.8560632220084567
 50
244.3842474680873
 51
304.3842474680165
  0
LINE
  5
142F
  8
0
 10
18.821966084523069
 20
65.25996420885167
 30
0.0
 11
20.79162119912473
 21
64.122783298225841
 31
0.0
  0
LINE
  5
1430
  8
0
 10
18.821966084523069
 20
72.985602387600011
 30
0.0
 11
18.821966084523069
 21
65.259964208851443
 31
0.0
  0
LINE
  5
1431
  8
0
 10
24.3067936418289
 20
72.985602387600011
 30
0.0
 11
24.306793641824811
 21
65.259964208851216
 31
0.0
  0
LINE
  5
1432
  8
0
 10
40.761276313729113
 20
72.985602387600011
 30
0.0
 11
40.761276313729113
 21
65.259964208851443
 31
0.0
  0
LINE
  5
1433
  8
0
 10
35.276448756423292
 20
72.985602387600011
 30
0.0
 11
35.276448756427392
 21
65.259964208851216
 31
0.0
  0
LINE
  5
1434
  8
0
 10
35.791621199125991
 20
74.122783298225841
 30
0.0
 11
35.791621199125991
 21
119.1227832982258
 31
0.0
  0
LINE
  5
1435
  8
3
 10
34.844621199126102
 20
74.122783298225841
 30
0.0
 11
34.844621199126102
 21
120.0697832982257
 31
0.0
  0
LINE
  5
1436
  8
3
 10
24.738621199125991
 20
74.122783298225841
 30
0.0
 11
24.738621199126062
 21
120.0697832982258
 31
0.0
  0
LINE
  5
1437
  8
0
 10
23.791621199125981
 20
74.122783298225841
 30
0.0
 11
23.791621199126041
 21
119.1227832982258
 31
0.0
  0
LINE
  5
1438
  8
1
 10
29.791621199125991
 20
172.4091096702407
 30
0.0
 11
29.791621199125991
 21
134.40910967024081
 31
0.0
  0
LINE
  5
1439
  8
1
 10
48.791621199125977
 20
153.40910967024081
 30
0.0
 11
10.7916211991261
 21
153.40910967024081
 31
0.0
  0
LINE
  5
143A
  8
0
 10
24.30679364182458
 20
143.90910967024081
 30
0.0
 11
35.276448756427271
 21
143.90910967024081
 31
0.0
  0
CIRCLE
  5
143B
  8
0
 10
29.791621199125991
 20
153.40910967024081
 30
0.0
 40
9.0
  0
CIRCLE
  5
143C
  8
0
 10
29.791621199125991
 20
153.40910967024081
 30
0.0
 40
6.0
  0
CIRCLE
  5
143D
  8
3
 10
29.791621199125991
 20
153.40910967024081
 30
0.0
 40
5.052999999999999
  0
LINE
  5
143E
  8
0
 10
35.276448756427271
 20
143.90910967024081
 30
0.0
 11
40.761276313728771
 21
153.40910967024081
 31
0.0
  0
LINE
  5
143F
  8
0
 10
40.761276313728771
 20
153.40910967024081
 30
0.0
 11
35.276448756427492
 21
162.90910967024081
 31
0.0
  0
LINE
  5
1440
  8
0
 10
35.276448756427492
 20
162.90910967024081
 30
0.0
 11
24.306793641824701
 21
162.90910967024081
 31
0.0
  0
LINE
  5
1441
  8
0
 10
24.306793641824701
 20
162.90910967024081
 30
0.0
 11
18.821966084523069
 21
153.40910967024081
 31
0.0
  0
LINE
  5
1442
  8
0
 10
18.821966084523069
 20
153.40910967024081
 30
0.0
 11
24.30679364182458
 21
143.90910967024081
 31
0.0
  0
LINE
  5
1622
  8
0
 10
41.613794044807619
 20
38.122783298225798
 30
0.0
 11
40.791621199125728
 21
43.122783298225791
 31
0.0
  0
LINE
  5
1623
  8
0
 10
45.791621199125728
 20
33.122783298225798
 30
0.0
 11
41.613794044807619
 21
38.122783298225798
 31
0.0
  0
LINE
  5
1624
  8
0
 10
45.291621199125721
 20
28.122783298225801
 30
0.0
 11
45.791621199125728
 21
28.622783298225801
 31
0.0
  0
LINE
  5
1625
  8
0
 10
13.79162119912573
 20
28.622783298225801
 30
0.0
 11
14.29162119912573
 21
28.122783298225801
 31
0.0
  0
LINE
  5
1628
  8
0
 10
40.791621199125728
 20
43.122783298225791
 30
0.0
 11
18.791621199125721
 21
43.122783298225791
 31
0.0
  0
LINE
  5
1629
  8
0
 10
45.791621199125728
 20
33.122783298225798
 30
0.0
 11
13.79162119912573
 21
33.122783298225798
 31
0.0
  0
LINE
  5
162A
  8
0
 10
45.291621199125721
 20
28.122783298225801
 30
0.0
 11
14.29162119912573
 21
28.122783298225801
 31
0.0
  0
LINE
  5
162C
  8
0
 10
45.791621199125728
 20
28.622783298225801
 30
0.0
 11
45.791621199125728
 21
33.122783298225883
 31
0.0
  0
LINE
  5
162D
  8
0
 10
13.79162119912573
 20
28.622783298225801
 30
0.0
 11
13.79162119912573
 21
33.122783298225883
 31
0.0
  0
LINE
  5
162E
  8
0
 10
17.96944835344382
 20
38.122783298225798
 30
0.0
 11
41.613794044807619
 21
38.122783298225798
 31
0.0
  0
LINE
  5
162F
  8
0
 10
17.96944835344382
 20
38.122783298225798
 30
0.0
 11
18.791621199125721
 21
43.122783298225791
 31
0.0
  0
LINE
  5
1630
  8
0
 10
13.79162119912573
 20
33.122783298225798
 30
0.0
 11
17.96944835344382
 21
38.122783298225798
 31
0.0
  0
ARC
  5
1631
  8
0
 10
29.791621199125899
 20
39.7926562793036
 30
0.0
 40
7.0
 50
28.407049271739051
 51
38.213210701736912
  0
ARC
  5
1632
  8
0
 10
29.791621199125899
 20
39.7926562793036
 30
0.0
 40
7.0
 50
141.78678929826299
 51
151.5929507282608
  0
LINE
  5
1633
  8
0
 10
35.291621199125899
 20
44.122783298225798
 30
0.0
 11
35.291621199125899
 21
48.122783298225812
 31
0.0
  0
LINE
  5
1634
  8
0
 10
24.291621199125899
 20
44.122783298225798
 30
0.0
 11
24.291621199125899
 21
48.122783298225812
 31
0.0
  0
LINE
  5
1635
  8
0
 10
35.291621199125899
 20
44.122783298225798
 30
0.0
 11
24.291621199125899
 21
44.122783298225798
 31
0.0
  0
LINE
  5
1636
  8
0
 10
29.791621199125789
 20
52.342128058796362
 30
0.0
 11
29.79162119912576
 21
48.903438537655241
 31
0.0
  0
LINE
  5
1637
  8
0
 10
22.791621199125782
 20
52.96734284113554
 30
0.0
 11
22.791621199125782
 21
48.278223755316027
 31
0.0
  0
LINE
  5
1638
  8
0
 10
36.791621199125792
 20
52.96734284113554
 30
0.0
 11
36.791621199125792
 21
48.278223755316027
 31
0.0
  0
LINE
  5
1639
  8
0
 10
36.522390429893747
 20
53.122783298225812
 30
0.0
 11
23.060851968357781
 21
53.122783298225812
 31
0.0
  0
ARC
  5
163A
  8
0
 10
26.291621199125899
 20
42.858102080098149
 30
0.0
 40
10.10924076103746
 50
69.743841999583211
 51
110.2561580004167
  0
LINE
  5
163B
  8
0
 10
22.791621199125782
 20
52.96734284113554
 30
0.0
 11
23.060851968357781
 21
53.122783298225812
 31
0.0
  0
LINE
  5
163C
  8
0
 10
36.791621199125792
 20
52.96734284113554
 30
0.0
 11
36.522390429893747
 21
53.122783298225812
 31
0.0
  0
ARC
  5
163D
  8
0
 10
33.291621199125672
 20
42.858102080098149
 30
0.0
 40
10.10924076103746
 50
69.743841999583211
 51
110.2561580004167
  0
LINE
  5
163E
  8
0
 10
36.522390429893747
 20
48.122783298225812
 30
0.0
 11
23.060851968357781
 21
48.122783298225812
 31
0.0
  0
ARC
  5
163F
  8
0
 10
26.291621199125899
 20
58.387464516353432
 30
0.0
 40
10.10924076103746
 50
249.7438419995832
 51
290.25615800041669
  0
LINE
  5
1640
  8
0
 10
22.791621199125782
 20
48.278223755316027
 30
0.0
 11
23.060851968357781
 21
48.122783298225812
 31
0.0
  0
LINE
  5
1641
  8
0
 10
36.791621199125792
 20
48.278223755316027
 30
0.0
 11
36.522390429893747
 21
48.122783298225812
 31
0.0
  0
ARC
  5
1642
  8
0
 10
33.291621199125672
 20
58.387464516353432
 30
0.0
 40
10.10924076103746
 50
249.7438419995832
 51
290.25615800041669
  0
LINE
  5
1643
  8
0
 10
88.411871368306535
 20
44.122783298225798
 30
0.0
 11
77.411871368306535
 21
44.122783298225798
 31
0.0
  0
LINE
  5
1644
  8
0
 10
77.411871368306535
 20
44.122783298225798
 30
0.0
 11
77.411871368306535
 21
48.122783298225812
 31
0.0
  0
LINE
  5
1645
  8
0
 10
88.411871368306535
 20
44.122783298225798
 30
0.0
 11
88.411871368306535
 21
48.122783298225812
 31
0.0
  0
ARC
  5
1646
  8
0
 10
82.911871368306535
 20
39.7926562793036
 30
0.0
 40
7.0
 50
141.78678929826299
 51
151.5929507282608
  0
ARC
  5
1647
  8
0
 10
82.911871368306535
 20
39.7926562793036
 30
0.0
 40
7.0
 50
28.407049271739041
 51
38.213210701736898
  0
LINE
  5
1648
  8
0
 10
66.91187136830635
 20
33.122783298225798
 30
0.0
 11
71.08969852262446
 21
38.122783298225798
 31
0.0
  0
LINE
  5
1649
  8
0
 10
71.08969852262446
 20
38.122783298225798
 30
0.0
 11
71.911871368306336
 21
43.122783298225791
 31
0.0
  0
LINE
  5
164A
  8
0
 10
71.08969852262446
 20
38.122783298225798
 30
0.0
 11
94.734044213988227
 21
38.122783298225798
 31
0.0
  0
LINE
  5
164B
  8
0
 10
66.911871368306322
 20
28.622783298225801
 30
0.0
 11
66.911871368306322
 21
33.122783298225883
 31
0.0
  0
LINE
  5
164C
  8
0
 10
98.911871368306294
 20
28.622783298225801
 30
0.0
 11
98.911871368306294
 21
33.122783298225883
 31
0.0
  0
LINE
  5
164E
  8
0
 10
98.411871368306308
 20
28.122783298225801
 30
0.0
 11
67.411871368306322
 21
28.122783298225801
 31
0.0
  0
LINE
  5
164F
  8
0
 10
98.911871368306294
 20
33.122783298225798
 30
0.0
 11
66.91187136830635
 21
33.122783298225798
 31
0.0
  0
LINE
  5
1650
  8
0
 10
93.911871368306365
 20
43.122783298225791
 30
0.0
 11
71.911871368306336
 21
43.122783298225791
 31
0.0
  0
LINE
  5
1653
  8
0
 10
66.911871368306322
 20
28.622783298225801
 30
0.0
 11
67.411871368306322
 21
28.122783298225801
 31
0.0
  0
LINE
  5
1654
  8
0
 10
98.411871368306308
 20
28.122783298225801
 30
0.0
 11
98.911871368306294
 21
28.622783298225801
 31
0.0
  0
LINE
  5
1655
  8
0
 10
98.911871368306294
 20
33.122783298225798
 30
0.0
 11
94.734044213988227
 21
38.122783298225798
 31
0.0
  0
LINE
  5
1656
  8
0
 10
94.734044213988227
 20
38.122783298225798
 30
0.0
 11
93.911871368306365
 21
43.122783298225791
 31
0.0
  0
LINE
  5
1657
  8
0
 10
89.642640599074227
 20
48.122783298225933
 30
0.0
 11
76.181102137538502
 21
48.122783298225933
 31
0.0
  0
LINE
  5
1658
  8
0
 10
76.181102137537053
 20
53.122783298225812
 30
0.0
 11
89.642640599074014
 21
53.122783298225812
 31
0.0
  0
ARC
  5
1659
  8
0
 10
88.974049194797217
 20
49.389190993343128
 30
0.0
 40
3.5781518477924039
 50
64.384247467826086
 51
124.3842474680382
  0
LINE
  5
165A
  8
0
 10
90.994775136961053
 20
52.342128058796291
 30
0.0
 11
89.642640599074227
 21
53.122783298225812
 31
0.0
  0
LINE
  5
165B
  8
0
 10
90.994775136961053
 20
48.903438537655489
 30
0.0
 11
89.642640599074227
 21
48.122783298225933
 31
0.0
  0
ARC
  5
165C
  8
0
 10
88.974049194797217
 20
51.856375603108603
 30
0.0
 40
3.5781518477924039
 50
235.61575253196179
 51
295.61575253217387
  0
LINE
  5
165D
  8
0
 10
90.994775136960996
 20
52.342128058796298
 30
0.0
 11
90.994775136961053
 21
48.903438537655489
 31
0.0
  0
LINE
  5
165E
  8
0
 10
86.95332325263189
 20
52.34212805879681
 30
0.0
 11
86.953323252633652
 21
48.903438537657131
 31
0.0
  0
LINE
  5
165F
  8
0
 10
78.870419483980612
 20
52.342128058795097
 30
0.0
 11
78.87041948397885
 21
48.903438537657131
 31
0.0
  0
LINE
  5
1660
  8
0
 10
74.828967599651449
 20
52.342128058796291
 30
0.0
 11
74.828967599651449
 21
48.903438537655489
 31
0.0
  0
ARC
  5
1661
  8
0
 10
82.911871368307231
 20
61.653008972969957
 30
0.0
 40
13.374785217653811
 50
252.4120462259954
 51
287.58795377400293
  0
ARC
  5
1662
  8
0
 10
76.849693541815256
 20
51.856375603108603
 30
0.0
 40
3.5781518477924039
 50
244.3842474678261
 51
304.38424746803821
  0
LINE
  5
1663
  8
0
 10
74.828967599651449
 20
48.903438537655489
 30
0.0
 11
76.181102137538261
 21
48.122783298225933
 31
0.0
  0
LINE
  5
1664
  8
0
 10
74.828967599651449
 20
52.342128058796291
 30
0.0
 11
76.181102137538261
 21
53.122783298225812
 31
0.0
  0
ARC
  5
1665
  8
0
 10
82.911871368307231
 20
39.592557623481781
 30
0.0
 40
13.374785217653811
 50
72.412046225997074
 51
107.5879537740046
  0
ARC
  5
1666
  8
0
 10
76.849693541815256
 20
49.389190993343128
 30
0.0
 40
3.5781518477924039
 50
55.615752531961753
 51
115.6157525321739
  0
CIRCLE
  5
16C0
  8
0
 10
29.791621199125991
 20
153.40910967024081
 30
0.0
 40
11.822172845681649
  0
TEXT
  5
19CF
  8
0
 62
     3
 10
0.0
 20
0.0
 30
0.0
 40
10.0
  1
LSA32S12B-SUS
  7
STANDARD1
  0
ENDSEC
  0
EOF
