  0
SECTION
  2
HEADER
  9
$ACADVER
  1
AC1009
  9
$INSBASE
 10
0.0
 20
0.0
 30
0.0
  9
$EXTMIN
 10
0.0
 20
-2.960436562073669
 30
0.0
  9
$EXTMAX
 10
117.7991166979381
 20
261.33462602703111
 30
0.0
  9
$LIMMIN
 10
0.0
 20
0.0
  9
$LIMMAX
 10
375.0
 20
270.0
  9
$ORTHOMODE
 70
     1
  9
$REGENMODE
 70
     1
  9
$FILLMODE
 70
     1
  9
$QTEXTMODE
 70
     0
  9
$MIRRTEXT
 70
     0
  9
$DRAGMODE
 70
     2
  9
$LTSCALE
 40
6.0
  9
$OSMODE
 70
  3071
  9
$ATTMODE
 70
     1
  9
$TEXTSIZE
 40
0.2
  9
$TRACEWID
 40
0.05
  9
$TEXTSTYLE
  7
STANDARD
  9
$CLAYER
  8
0
  9
$CELTYPE
  6
BYLAYER
  9
$CECOLOR
 62
   256
  9
$DIMSCALE
 40
1.0
  9
$DIMASZ
 40
3.0
  9
$DIMEXO
 40
1.0
  9
$DIMDLI
 40
6.0
  9
$DIMRND
 40
0.0
  9
$DIMDLE
 40
0.0
  9
$DIMEXE
 40
1.0
  9
$DIMTP
 40
495.0
  9
$DIMTM
 40
0.0
  9
$DIMTXT
 40
3.0
  9
$DIMCEN
 40
0.0
  9
$DIMTSZ
 40
0.0
  9
$DIMTOL
 70
     0
  9
$DIMLIM
 70
     0
  9
$DIMTIH
 70
     0
  9
$DIMTOH
 70
     0
  9
$DIMSE1
 70
     0
  9
$DIMSE2
 70
     0
  9
$DIMTAD
 70
     1
  9
$DIMZIN
 70
     0
  9
$DIMBLK
  1

  9
$DIMASO
 70
     0
  9
$DIMSHO
 70
     0
  9
$DIMPOST
  1

  9
$DIMAPOST
  1

  9
$DIMALT
 70
     0
  9
$DIMALTD
 70
     2
  9
$DIMALTF
 40
25.399999999999999
  9
$DIMLFAC
 40
1.0
  9
$DIMTOFL
 70
     1
  9
$DIMTVP
 40
0.0
  9
$DIMTIX
 70
     1
  9
$DIMSOXD
 70
     0
  9
$DIMSAH
 70
     0
  9
$DIMBLK1
  1

  9
$DIMBLK2
  1

  9
$DIMSTYLE
  2
STANDARD
  9
$DIMCLRD
 70
     0
  9
$DIMCLRE
 70
     0
  9
$DIMCLRT
 70
     4
  9
$DIMTFAC
 40
1.0
  9
$DIMGAP
 40
1.0
  9
$LUNITS
 70
     2
  9
$LUPREC
 70
     4
  9
$SKETCHINC
 40
0.1
  9
$FILLETRAD
 40
2.0
  9
$AUNITS
 70
     0
  9
$AUPREC
 70
     0
  9
$MENU
  1
C:\R13\WIN\SUPPORT\ACAD-I
  9
$ELEVATION
 40
0.0
  9
$PELEVATION
 40
0.0
  9
$THICKNESS
 40
0.0
  9
$LIMCHECK
 70
     0
  9
$BLIPMODE
 70
     0
  9
$CHAMFERA
 40
0.0
  9
$CHAMFERB
 40
0.0
  9
$SKPOLY
 70
     0
  9
$TDCREATE
 40
2451961.7096777428
  9
$TDUPDATE
 40
2456597.6068302779
  9
$TDINDWG
 40
0.0141947222
  9
$TDUSRTIMER
 40
2456548.2329650228
  9
$USRTIMER
 70
     1
  9
$ANGBASE
 50
0.0
  9
$ANGDIR
 70
     0
  9
$PDMODE
 70
     0
  9
$PDSIZE
 40
0.0
  9
$PLINEWID
 40
0.0
  9
$COORDS
 70
     1
  9
$SPLFRAME
 70
     0
  9
$SPLINETYPE
 70
     6
  9
$SPLINESEGS
 70
     8
  9
$ATTDIA
 70
     0
  9
$ATTREQ
 70
     1
  9
$HANDLING
 70
     1
  9
$HANDSEED
  5
202C
  9
$SURFTAB1
 70
     6
  9
$SURFTAB2
 70
     6
  9
$SURFTYPE
 70
     6
  9
$SURFU
 70
     6
  9
$SURFV
 70
     6
  9
$UCSNAME
  2

  9
$UCSORG
 10
0.0
 20
0.0
 30
0.0
  9
$UCSXDIR
 10
1.0
 20
0.0
 30
0.0
  9
$UCSYDIR
 10
0.0
 20
1.0
 30
0.0
  9
$PUCSNAME
  2

  9
$PUCSORG
 10
0.0
 20
0.0
 30
0.0
  9
$PUCSXDIR
 10
1.0
 20
0.0
 30
0.0
  9
$PUCSYDIR
 10
0.0
 20
1.0
 30
0.0
  9
$USERI1
 70
     4
  9
$USERI2
 70
     1
  9
$USERI3
 70
     0
  9
$USERI4
 70
     0
  9
$USERI5
 70
     0
  9
$USERR1
 40
1.0
  9
$USERR2
 40
3.0
  9
$USERR3
 40
3.0
  9
$USERR4
 40
3.0
  9
$USERR5
 40
10.0
  9
$WORLDVIEW
 70
     1
  9
$SHADEDGE
 70
     3
  9
$SHADEDIF
 70
    70
  9
$TILEMODE
 70
     1
  9
$MAXACTVP
 70
    16
  9
$PLIMCHECK
 70
     0
  9
$PEXTMIN
 10
1.0000000000000000E+020
 20
1.0000000000000000E+020
 30
1.0000000000000000E+020
  9
$PEXTMAX
 10
-1.0000000000000000E+020
 20
-1.0000000000000000E+020
 30
-1.0000000000000000E+020
  9
$PLIMMIN
 10
0.0
 20
0.0
  9
$PLIMMAX
 10
12.0
 20
9.0
  9
$UNITMODE
 70
     0
  9
$VISRETAIN
 70
     0
  9
$PLINEGEN
 70
     0
  9
$PSLTSCALE
 70
     0
  0
ENDSEC
  0
SECTION
  2
TABLES
  0
TABLE
  2
VPORT
 70
     1
  0
VPORT
  2
*ACTIVE
 70
     0
 10
0.0
 20
0.0
 11
1.0
 21
1.0
 12
187.49427839065231
 22
134.10366293909439
 13
0.0
 23
0.0
 14
10.0
 24
10.0
 15
10.0
 25
10.0
 16
0.0
 26
0.0
 36
1.0
 17
0.0
 27
0.0
 37
0.0
 40
277.29405978699532
 41
2.304913294797688
 42
50.0
 43
0.0
 44
0.0
 50
0.0
 51
0.0
 71
    16
 72
   100
 73
     1
 74
     0
 75
     0
 76
     0
 77
     0
 78
     0
  0
ENDTAB
  0
TABLE
  2
LTYPE
 70
     3
  0
LTYPE
  2
CONTINUOUS
 70
     0
  3
Solid Line
 72
    65
 73
     0
 40
0.0
  0
LTYPE
  2
PHANTOM2
 70
     0
  3
___ _ _ ___ _ _ ___ _ _ ___ _ _
 72
    65
 73
     6
 40
1.25
 49
0.625
 49
-0.125
 49
0.125
 49
-0.125
 49
0.125
 49
-0.125
  0
LTYPE
  2
CENTER
 70
     0
  3
____ _ ____ _ ____ _ ____ _ ____ _ ____ _ ____
 72
    65
 73
     4
 40
2.0
 49
1.25
 49
-0.25
 49
0.25
 49
-0.25
  0
ENDTAB
  0
TABLE
  2
LAYER
 70
     3
  0
LAYER
  2
0
 70
     0
 62
     7
  6
CONTINUOUS
  0
LAYER
  2
1
 70
     0
 62
     1
  6
CENTER
  0
LAYER
  2
3
 70
     0
 62
     3
  6
CONTINUOUS
  0
ENDTAB
  0
TABLE
  2
STYLE
 70
     3
  0
STYLE
  2
STANDARD
 70
     0
 40
0.0
 41
1.0
 50
0.0
 71
     0
 42
0.2
  3
SIMPLEX
  4
BIGFONT
  0
STYLE
  2
ANNOTATIVE
 70
     0
 40
0.0
 41
1.0
 50
0.0
 71
     0
 42
0.2
  3
txt
  4

  0
STYLE
  2
STANDARD1
 70
     0
 40
0.0
 41
1.0
 50
0.0
 71
     0
 42
3.0
  3
txt
  4

  0
ENDTAB
  0
TABLE
  2
VIEW
 70
     0
  0
ENDTAB
  0
TABLE
  2
UCS
 70
     0
  0
ENDTAB
  0
TABLE
  2
APPID
 70
    29
  0
APPID
  2
ACAD
 70
     0
  0
APPID
  2
ACADANNOTATIVE
 70
     0
  0
APPID
  2
GENIUS_GENOREF_13
 70
     0
  0
APPID
  2
GENIUS_GENOENT_13
 70
     0
  0
APPID
  2
GENIUS_GENBH_13
 70
     0
  0
APPID
  2
GENIUS_GENOBJ_13
 70
     0
  0
APPID
  2
GENIUS_GENODEF_13
 70
     0
  0
APPID
  2
GENIUS_GENOLIS_13
 70
     0
  0
APPID
  2
GENIUS_GENOBJ-NBEHI-BHF_13
 70
     0
  0
APPID
  2
GENIUS_GENOBJ-NBEHI-BHB_13
 70
     0
  0
APPID
  2
GENIUS_GENOBJ-F-PART_13
 70
     0
  0
APPID
  2
GENIUS_GEFSTDP_13
 70
     0
  0
APPID
  2
GENIUS_GENOBJ-N-RSSYM_13
 70
     0
  0
APPID
  2
GENIUS_GENSYMENT_13
 70
     0
  0
APPID
  2
GENIUS_GENOBJ-N-TIT_13
 70
     0
  0
APPID
  2
GENIUS_GENTITLE_13
 70
     0
  0
APPID
  2
GENIUS_GENZVEED_13
 70
     0
  0
APPID
  2
GENIUS_GENOBJ-N-LEADER_13
 70
     0
  0
APPID
  2
GENIUS_GENOBJ-N-FIL_13
 70
     0
  0
APPID
  2
GENIUS_GENOBJ-N-SEC_13
 70
     0
  0
APPID
  2
GENIUS_GENOBJ-N-CRS_13
 70
     0
  0
APPID
  2
GENIUS_GENOBJ-N-ZOO_13
 70
     0
  0
APPID
  2
GENIUS_GENZOO_13
 70
     0
  0
APPID
  2
GENIUS_GENOBJ-F-TOL_13
 70
     0
  0
APPID
  2
GENIUS_GENFIL_13
 70
     0
  0
APPID
  2
GENIUS_GENOBJ-N-CHA_13
 70
     0
  0
APPID
  2
ACAD_MLEADERVER
 70
     0
  0
APPID
  2
ACAD_EXEMPT_FROM_CAD_STANDARDS
 70
     0
  0
APPID
  2
ACAD_NAV_VCDISPLAY
 70
     0
  0
ENDTAB
  0
TABLE
  2
DIMSTYLE
 70
     2
  0
DIMSTYLE
  2
STANDARD
 70
     0
  3

  4

  5

  6

  7

 40
1.0
 41
0.18
 42
0.0625
 43
0.38
 44
0.18
 45
0.0
 46
0.0
 47
0.0
 48
0.0
140
0.18
141
0.09
142
0.0
143
25.399999999999999
144
1.0
145
0.0
146
1.0
147
0.09
 71
     0
 72
     0
 73
     1
 74
     1
 75
     0
 76
     0
 77
     0
 78
     0
170
     0
171
     2
172
     0
173
     0
174
     0
175
     0
176
     0
177
     0
178
     0
  0
DIMSTYLE
  2
ANNOTATIVE
 70
     0
  3

  4

  5

  6

  7

 40
1.0
 41
0.18
 42
0.0625
 43
0.38
 44
0.18
 45
0.0
 46
0.0
 47
0.0
 48
0.0
140
0.18
141
0.09
142
0.0
143
25.399999999999999
144
1.0
145
0.0
146
1.0
147
0.09
 71
     0
 72
     0
 73
     1
 74
     1
 75
     0
 76
     0
 77
     0
 78
     0
170
     0
171
     2
172
     0
173
     0
174
     0
175
     0
176
     0
177
     0
178
     0
  0
ENDTAB
  0
ENDSEC
  0
SECTION
  2
BLOCKS
  0
BLOCK
  8
0
  2
$MODEL_SPACE
 70
     0
 10
0.0
 20
0.0
 30
0.0
  3
$MODEL_SPACE
  1

  0
ENDBLK
  5
1F4F
  8
0
  0
BLOCK
 67
     1
  8
0
  2
$PAPER_SPACE
 70
     0
 10
0.0
 20
0.0
 30
0.0
  3
$PAPER_SPACE
  1

  0
ENDBLK
  5
1F4B
 67
     1
  8
0
  0
ENDSEC
  0
SECTION
  2
ENTITIES
  0
LINE
  5
18CD
  8
1
 10
101.7991166979379
 20
31.351523289039051
 30
0.0
 11
101.7991166979379
 21
210.35152328903899
 31
0.0
  0
LINE
  5
18CE
  8
1
 10
48.678866528757567
 20
31.351523289039051
 30
0.0
 11
48.678866528757567
 21
210.35152328903899
 31
0.0
  0
CIRCLE
  5
18CF
  8
3
 10
48.67886652875768
 20
242.33462602703139
 30
0.0
 40
6.9175000000000004
  0
CIRCLE
  5
18D0
  8
0
 10
48.67886652875768
 20
242.33462602703139
 30
0.0
 40
8.0
  0
CIRCLE
  5
18D1
  8
0
 10
48.67886652875768
 20
242.33462602703139
 30
0.0
 40
11.5
  0
LINE
  5
18D2
  8
0
 10
62.535272989308623
 20
242.33462602703139
 30
0.0
 11
55.607069759033251
 21
254.33462602703139
 31
0.0
  0
LINE
  5
18D3
  8
0
 10
55.607069759033251
 20
230.33462602703139
 30
0.0
 11
62.535272989308623
 21
242.33462602703139
 31
0.0
  0
LINE
  5
18D4
  8
0
 10
41.750663298482202
 20
230.33462602703139
 30
0.0
 11
55.607069759033251
 21
230.33462602703139
 31
0.0
  0
LINE
  5
18D5
  8
0
 10
34.822460068206631
 20
242.33462602703139
 30
0.0
 11
41.750663298482202
 21
230.33462602703139
 31
0.0
  0
LINE
  5
18D6
  8
0
 10
41.750663298482202
 20
254.33462602703139
 30
0.0
 11
34.822460068206631
 21
242.33462602703139
 31
0.0
  0
LINE
  5
18D7
  8
0
 10
55.607069759033251
 20
254.33462602703139
 30
0.0
 11
41.750663298482202
 21
254.33462602703139
 31
0.0
  0
LINE
  5
18D8
  8
3
 10
108.71661669793841
 20
100.140198423654
 30
0.0
 11
108.71661669793841
 21
206.434023289039
 31
0.0
  0
LINE
  5
18D9
  8
0
 10
109.7991166979384
 20
100.140198423656
 30
0.0
 11
109.7991166979384
 21
205.35152328903899
 31
0.0
  0
LINE
  5
18DA
  8
0
 10
93.799116697938388
 20
100.140198423629
 30
0.0
 11
93.799116697938388
 21
205.35152328903899
 31
0.0
  0
LINE
  5
18DB
  8
3
 10
94.881616697938384
 20
100.14019842363081
 30
0.0
 11
94.881616697938384
 21
206.434023289039
 31
0.0
  0
LINE
  5
18DD
  8
0
 10
93.799116697938388
 20
205.35152328903899
 30
0.0
 11
95.799116697938402
 21
207.35152328903899
 31
0.0
  0
LINE
  5
18DE
  8
0
 10
93.799116697938445
 20
59.215676166877358
 30
0.0
 11
93.799116697938388
 21
87.140198423617619
 31
0.0
  0
LINE
  5
18DF
  8
3
 10
94.881616697938384
 20
61.351523289039598
 30
0.0
 11
94.881616697938384
 21
87.140198423615558
 31
0.0
  0
LINE
  5
18E2
  8
0
 10
109.7991166979384
 20
205.35152328903899
 30
0.0
 11
93.799116697938388
 21
205.35152328903899
 31
0.0
  0
LINE
  5
18E3
  8
0
 10
107.7991166979384
 20
207.35152328903899
 30
0.0
 11
109.7991166979384
 21
205.35152328903899
 31
0.0
  0
LINE
  5
18E4
  8
3
 10
108.71661669793841
 20
61.351523289039271
 30
0.0
 11
108.71661669793841
 21
87.140198423592608
 31
0.0
  0
LINE
  5
18E5
  8
0
 10
109.7991166979384
 20
59.215676166876918
 30
0.0
 11
109.7991166979384
 21
87.140198423590775
 31
0.0
  0
LINE
  5
18E6
  8
0
 10
95.799116697938402
 20
207.35152328903899
 30
0.0
 11
107.7991166979384
 21
207.35152328903899
 31
0.0
  0
LINE
  5
18F7
  8
0
 10
113.2991166979367
 20
87.140198423584906
 30
0.0
 11
90.299116697870346
 21
87.140198423623289
 31
0.0
  0
LINE
  5
18F8
  8
0
 10
90.299116697870346
 20
100.1401984236233
 30
0.0
 11
113.2991166979367
 21
100.1401984236617
 31
0.0
  0
ARC
  5
18F9
  8
0
 10
95.799116697936725
 20
82.521396271725024
 30
0.0
 40
17.330127017333279
 50
69.7438419976407
 51
110.2561580023593
  0
LINE
  5
18FA
  8
0
 10
89.799116697921733
 20
99.851523289058306
 30
0.0
 11
90.299116697936725
 21
100.1401984236617
 31
0.0
  0
LINE
  5
18FB
  8
0
 10
89.799116697921733
 20
87.4288735581883
 30
0.0
 11
90.299116697936725
 21
87.140198423584906
 31
0.0
  0
ARC
  5
18FC
  8
0
 10
95.799116697936725
 20
104.7590005755216
 30
0.0
 40
17.330127017333279
 50
249.74384199764069
 51
290.25615800235931
  0
LINE
  5
18FD
  8
0
 10
89.799116697921733
 20
99.851523289058306
 30
0.0
 11
89.799116697936739
 21
87.42887355817966
 31
0.0
  0
LINE
  5
18FE
  8
0
 10
101.7991166979367
 20
88.500670328017534
 30
0.0
 11
101.7991166979367
 21
98.779726519229101
 31
0.0
  0
LINE
  5
18FF
  8
0
 10
113.7991166979517
 20
99.851523289058306
 30
0.0
 11
113.7991166979367
 21
87.42887355817966
 31
0.0
  0
ARC
  5
1900
  8
0
 10
107.7991166979367
 20
104.7590005755216
 30
0.0
 40
17.330127017333279
 50
249.74384199764069
 51
290.25615800235931
  0
LINE
  5
1901
  8
0
 10
113.7991166979517
 20
87.4288735581883
 30
0.0
 11
113.2991166979367
 21
87.140198423584906
 31
0.0
  0
LINE
  5
1902
  8
0
 10
113.7991166979517
 20
99.851523289058306
 30
0.0
 11
113.2991166979367
 21
100.1401984236617
 31
0.0
  0
ARC
  5
1903
  8
0
 10
107.7991166979367
 20
82.521396271725024
 30
0.0
 40
17.330127017333279
 50
69.7438419976407
 51
110.2561580023593
  0
LINE
  5
1909
  8
0
 10
40.678866528757553
 20
100.14019842360401
 30
0.0
 11
40.678866528757553
 21
205.35152328903899
 31
0.0
  0
LINE
  5
190A
  8
3
 10
41.761366528757527
 20
100.14019842360401
 30
0.0
 11
41.761366528757527
 21
206.434023289039
 31
0.0
  0
LINE
  5
190B
  8
0
 10
56.67886652875746
 20
100.14019842360401
 30
0.0
 11
56.67886652875746
 21
205.35152328903899
 31
0.0
  0
LINE
  5
190C
  8
3
 10
55.596366528757457
 20
100.14019842360401
 30
0.0
 11
55.596366528757457
 21
206.434023289039
 31
0.0
  0
LINE
  5
191A
  8
0
 10
42.678866528757553
 20
207.35152328903899
 30
0.0
 11
54.67886652875746
 21
207.35152328903899
 31
0.0
  0
LINE
  5
191B
  8
0
 10
56.678866528757432
 20
59.21567616687642
 30
0.0
 11
56.67886652875746
 21
87.14019842360382
 31
0.0
  0
LINE
  5
191C
  8
3
 10
55.59636652875745
 20
61.351523289039271
 30
0.0
 11
55.596366528757457
 21
87.14019842360382
 31
0.0
  0
LINE
  5
191D
  8
3
 10
41.761366528757527
 20
61.351523289039271
 30
0.0
 11
41.761366528757527
 21
87.14019842360382
 31
0.0
  0
LINE
  5
191E
  8
0
 10
40.678866528757553
 20
59.215676166876278
 30
0.0
 11
40.678866528757553
 21
87.140198423604033
 31
0.0
  0
LINE
  5
191F
  8
0
 10
40.678866528757553
 20
205.35152328903899
 30
0.0
 11
42.678866528757553
 21
207.35152328903899
 31
0.0
  0
LINE
  5
1920
  8
0
 10
54.67886652875746
 20
207.35152328903899
 30
0.0
 11
56.67886652875746
 21
205.35152328903899
 31
0.0
  0
LINE
  5
1921
  8
0
 10
56.67886652875746
 20
205.35152328903899
 30
0.0
 11
40.678866528757553
 21
205.35152328903899
 31
0.0
  0
LINE
  5
1925
  8
0
 10
60.178866528649451
 20
87.140198423604033
 30
0.0
 11
37.178866528865001
 21
87.140198423604033
 31
0.0
  0
LINE
  5
1926
  8
0
 10
37.178866528757233
 20
100.14019842360401
 30
0.0
 11
60.178866528649451
 21
100.14019842360401
 31
0.0
  0
ARC
  5
1927
  8
0
 10
59.07117137417071
 20
93.717548693318122
 30
0.0
 40
6.1339745957208196
 50
64.38424746985207
 51
124.3842474712113
  0
LINE
  5
1928
  8
0
 10
62.535272989330217
 20
98.779726519209802
 30
0.0
 11
60.178866528649451
 21
100.14019842360401
 31
0.0
  0
LINE
  5
1929
  8
0
 10
62.535272989330217
 20
88.500670327998264
 30
0.0
 11
60.178866528649451
 21
87.140198423604033
 31
0.0
  0
ARC
  5
192A
  8
0
 10
59.07117137417071
 20
93.562848153889718
 30
0.0
 40
6.1339745957208196
 50
235.6157525287887
 51
295.61575253014792
  0
LINE
  5
192B
  8
0
 10
62.535272989308403
 20
98.779726519209802
 30
0.0
 11
62.535272989308403
 21
88.500670327985503
 31
0.0
  0
LINE
  5
192C
  8
0
 10
55.607069759032584
 20
98.779726519209802
 30
0.0
 11
55.607069759032584
 21
88.500670327998264
 31
0.0
  0
LINE
  5
192D
  8
0
 10
41.750663298481868
 20
98.779726519209802
 30
0.0
 11
41.750663298481868
 21
88.500670327998264
 31
0.0
  0
LINE
  5
192E
  8
0
 10
34.82246006820607
 20
98.779726519209802
 30
0.0
 11
34.82246006820607
 21
88.500670327985503
 31
0.0
  0
ARC
  5
192F
  8
0
 10
48.678866528757212
 20
110.3570767863084
 30
0.0
 40
22.928203228139491
 50
252.41204622431411
 51
287.58795377568589
  0
ARC
  5
1930
  8
0
 10
38.286561683343741
 20
93.562848153889718
 30
0.0
 40
6.1339745957208196
 50
244.38424746985211
 51
304.38424747121132
  0
LINE
  5
1931
  8
0
 10
34.822460068184242
 20
88.500670327998264
 30
0.0
 11
37.178866528865001
 21
87.140198423604033
 31
0.0
  0
LINE
  5
1932
  8
0
 10
34.822460068184242
 20
98.779726519209802
 30
0.0
 11
37.178866528865001
 21
100.14019842360401
 31
0.0
  0
ARC
  5
1933
  8
0
 10
38.286561683343741
 20
93.717548693318122
 30
0.0
 40
6.1339745957208196
 50
55.61575252878869
 51
115.6157525301479
  0
ARC
  5
1934
  8
0
 10
48.678866528757212
 20
76.923320060899414
 30
0.0
 40
22.928203228139491
 50
72.412046224314139
 51
107.5879537756858
  0
CIRCLE
  5
1967
  8
0
 10
48.67886652875768
 20
242.33462602703139
 30
0.0
 40
15.99999999999994
  0
LINE
  5
1968
  8
1
 10
48.67886652875768
 20
261.33462602703111
 30
0.0
 11
48.67886652875768
 21
223.33462602703139
 31
0.0
  0
LINE
  5
1969
  8
1
 10
67.67886652875768
 20
242.33462602703139
 30
0.0
 11
29.67886652875768
 21
242.33462602703139
 31
0.0
  0
LINE
  5
1C35
  8
3
 10
94.881616697938284
 20
61.351523289039399
 30
0.0
 11
93.799116697938288
 21
59.476578289846103
 31
0.0
  0
LINE
  5
1C36
  8
3
 10
108.71661669793831
 20
61.351523289039399
 30
0.0
 11
109.7991166979383
 21
59.476578289846103
 31
0.0
  0
LINE
  5
1C37
  8
0
 10
93.799116697938288
 20
61.351523289039399
 30
0.0
 11
109.7991166979383
 21
61.351523289039399
 31
0.0
  0
LINE
  5
1C38
  8
0
 10
40.678866528757553
 20
61.351523289039278
 30
0.0
 11
56.678866528757581
 21
61.351523289039278
 31
0.0
  0
LINE
  5
1C39
  8
3
 10
41.761366528757527
 20
61.351523289039278
 30
0.0
 11
40.678866528757553
 21
59.476578289845989
 31
0.0
  0
LINE
  5
1C3A
  8
3
 10
55.596366528757592
 20
61.351523289039278
 30
0.0
 11
56.678866528757581
 21
59.476578289845989
 31
0.0
  0
LINE
  5
1C3B
  8
0
 10
60.501039374439422
 20
44.351523289039051
 30
0.0
 11
59.678866528757503
 21
49.351523289039051
 31
0.0
  0
LINE
  5
1C3C
  8
0
 10
64.67886652875751
 20
39.351523289039051
 30
0.0
 11
60.501039374439422
 21
44.351523289039051
 31
0.0
  0
LINE
  5
1C3D
  8
0
 10
64.178866528757496
 20
34.351523289039051
 30
0.0
 11
64.67886652875751
 21
34.851523289039051
 31
0.0
  0
LINE
  5
1C3E
  8
0
 10
32.67886652875751
 20
34.851523289039051
 30
0.0
 11
33.17886652875751
 21
34.351523289039051
 31
0.0
  0
LINE
  5
1C41
  8
0
 10
59.678866528757503
 20
49.351523289039051
 30
0.0
 11
37.67886652875751
 21
49.351523289039029
 31
0.0
  0
LINE
  5
1C42
  8
0
 10
64.67886652875751
 20
39.351523289039051
 30
0.0
 11
32.67886652875751
 21
39.351523289039051
 31
0.0
  0
LINE
  5
1C43
  8
0
 10
64.178866528757496
 20
34.351523289039051
 30
0.0
 11
33.17886652875751
 21
34.351523289039051
 31
0.0
  0
LINE
  5
1C45
  8
0
 10
64.67886652875751
 20
34.851523289039051
 30
0.0
 11
64.67886652875751
 21
39.351523289039143
 31
0.0
  0
LINE
  5
1C46
  8
0
 10
32.67886652875751
 20
34.851523289039051
 30
0.0
 11
32.67886652875751
 21
39.351523289039143
 31
0.0
  0
LINE
  5
1C47
  8
0
 10
36.856693683075612
 20
44.351523289039051
 30
0.0
 11
60.501039374439422
 21
44.351523289039051
 31
0.0
  0
LINE
  5
1C48
  8
0
 10
36.856693683075612
 20
44.351523289039051
 30
0.0
 11
37.67886652875751
 21
49.351523289039051
 31
0.0
  0
LINE
  5
1C49
  8
0
 10
32.67886652875751
 20
39.351523289039051
 30
0.0
 11
36.856693683075612
 21
44.351523289039051
 31
0.0
  0
ARC
  5
1C4A
  8
0
 10
48.67886652875768
 20
46.021396270116853
 30
0.0
 40
7.0
 50
28.407049271739091
 51
38.213210701736742
  0
ARC
  5
1C4B
  8
0
 10
48.67886652875768
 20
46.021396270116853
 30
0.0
 40
7.0
 50
141.78678929826319
 51
151.59295072826089
  0
LINE
  5
1C4C
  8
0
 10
54.17886652875768
 20
50.351523289039051
 30
0.0
 11
54.17886652875768
 21
54.351523289039072
 31
0.0
  0
LINE
  5
1C4D
  8
0
 10
43.17886652875768
 20
50.351523289039051
 30
0.0
 11
43.17886652875768
 21
54.351523289039072
 31
0.0
  0
LINE
  5
1C4E
  8
0
 10
54.17886652875768
 20
50.351523289039051
 30
0.0
 11
43.17886652875768
 21
50.351523289039051
 31
0.0
  0
LINE
  5
1C4F
  8
0
 10
107.2991166979383
 20
50.351523289039051
 30
0.0
 11
96.299116697938288
 21
50.351523289039051
 31
0.0
  0
LINE
  5
1C50
  8
0
 10
96.299116697938288
 20
50.351523289039051
 30
0.0
 11
96.299116697938288
 21
54.351523289039072
 31
0.0
  0
LINE
  5
1C51
  8
0
 10
107.2991166979383
 20
50.351523289039051
 30
0.0
 11
107.2991166979383
 21
54.351523289039072
 31
0.0
  0
ARC
  5
1C52
  8
0
 10
101.7991166979383
 20
46.021396270116853
 30
0.0
 40
7.0
 50
141.78678929826319
 51
151.59295072826089
  0
ARC
  5
1C53
  8
0
 10
101.7991166979383
 20
46.021396270116853
 30
0.0
 40
7.0
 50
28.407049271739091
 51
38.213210701736742
  0
LINE
  5
1C54
  8
0
 10
85.799116697938146
 20
39.351523289039051
 30
0.0
 11
89.976943852256227
 21
44.351523289039051
 31
0.0
  0
LINE
  5
1C55
  8
0
 10
89.976943852256227
 20
44.351523289039051
 30
0.0
 11
90.799116697938146
 21
49.351523289039051
 31
0.0
  0
LINE
  5
1C56
  8
0
 10
89.976943852256227
 20
44.351523289039051
 30
0.0
 11
113.62128954361999
 21
44.351523289039051
 31
0.0
  0
LINE
  5
1C57
  8
0
 10
85.799116697938075
 20
34.851523289039051
 30
0.0
 11
85.799116697938075
 21
39.351523289039143
 31
0.0
  0
LINE
  5
1C58
  8
0
 10
117.7991166979381
 20
34.851523289039051
 30
0.0
 11
117.7991166979381
 21
39.351523289039143
 31
0.0
  0
LINE
  5
1C5A
  8
0
 10
117.2991166979381
 20
34.351523289039051
 30
0.0
 11
86.299116697938103
 21
34.351523289039051
 31
0.0
  0
LINE
  5
1C5B
  8
0
 10
117.7991166979381
 20
39.351523289039051
 30
0.0
 11
85.799116697938146
 21
39.351523289039051
 31
0.0
  0
LINE
  5
1C5C
  8
0
 10
112.7991166979381
 20
49.351523289039051
 30
0.0
 11
90.799116697938146
 21
49.351523289039029
 31
0.0
  0
LINE
  5
1C5F
  8
0
 10
85.799116697938075
 20
34.851523289039051
 30
0.0
 11
86.299116697938103
 21
34.351523289039051
 31
0.0
  0
LINE
  5
1C60
  8
0
 10
117.2991166979381
 20
34.351523289039051
 30
0.0
 11
117.7991166979381
 21
34.851523289039051
 31
0.0
  0
LINE
  5
1C61
  8
0
 10
117.7991166979381
 20
39.351523289039051
 30
0.0
 11
113.62128954361999
 21
44.351523289039051
 31
0.0
  0
LINE
  5
1C62
  8
0
 10
113.62128954361999
 20
44.351523289039051
 30
0.0
 11
112.7991166979381
 21
49.351523289039051
 31
0.0
  0
LINE
  5
1C63
  8
0
 10
109.5638225802913
 20
54.351523289039278
 30
0.0
 11
94.034410815584849
 21
54.351523289039278
 31
0.0
  0
LINE
  5
1C64
  8
0
 10
94.034410815585105
 20
59.351523289039399
 30
0.0
 11
109.5638225802912
 21
59.351523289039172
 31
0.0
  0
ARC
  5
1C65
  8
0
 10
108.7273199282136
 20
55.126359769395563
 30
0.0
 40
4.0893163974808306
 50
64.384247467889409
 51
124.3842474680048
  0
LINE
  5
1C66
  8
0
 10
111.03672100497199
 20
58.501144987060812
 30
0.0
 11
109.563822580291
 21
59.351523289039399
 31
0.0
  0
LINE
  5
1C67
  8
0
 10
111.03672100497199
 20
55.201901591017652
 30
0.0
 11
109.563822580291
 21
54.351523289039072
 31
0.0
  0
ARC
  5
1C68
  8
0
 10
108.7273199282136
 20
58.576686808682901
 30
0.0
 40
4.0893163974808306
 50
235.61575253199521
 51
295.61575253211072
  0
LINE
  5
1C69
  8
0
 10
111.03672100497199
 20
58.501144987060812
 30
0.0
 11
111.03672100497199
 21
55.201901591017652
 31
0.0
  0
LINE
  5
1C6A
  8
0
 10
106.41791885145599
 20
58.501144987060812
 30
0.0
 11
106.4179188514554
 21
55.201901591017418
 31
0.0
  0
LINE
  5
1C6B
  8
0
 10
97.180314544420085
 20
58.501144987060812
 30
0.0
 11
97.180314544420725
 21
55.201901591017418
 31
0.0
  0
LINE
  5
1C6C
  8
0
 10
92.561512390904142
 20
58.501144987060812
 30
0.0
 11
92.561512390904142
 21
55.201901591017652
 31
0.0
  0
ARC
  5
1C6D
  8
0
 10
101.79911669793761
 20
69.772839231405911
 30
0.0
 40
15.28546882020385
 50
252.41204622602959
 51
287.58795377396882
  0
ARC
  5
1C6E
  8
0
 10
94.870913467662561
 20
58.576686808682901
 30
0.0
 40
4.0893163974808306
 50
244.3842474678894
 51
304.38424746800479
  0
LINE
  5
1C6F
  8
0
 10
92.561512390904142
 20
55.201901591017652
 30
0.0
 11
94.034410815585105
 21
54.351523289039072
 31
0.0
  0
LINE
  5
1C70
  8
0
 10
92.561512390904142
 20
58.501144987060812
 30
0.0
 11
94.034410815585105
 21
59.351523289039399
 31
0.0
  0
ARC
  5
1C71
  8
0
 10
101.79911669793761
 20
43.930207346672539
 30
0.0
 40
15.28546882020385
 50
72.412046226031165
 51
107.58795377396881
  0
ARC
  5
1C72
  8
0
 10
94.870913467662561
 20
55.126359769395563
 30
0.0
 40
4.0893163974808306
 50
55.615752531995199
 51
115.6157525321106
  0
LINE
  5
1C73
  8
0
 10
40.914160646404611
 20
54.351523289039072
 30
0.0
 11
56.443572411110523
 21
54.351523289039072
 31
0.0
  0
LINE
  5
1C74
  8
0
 10
56.443572411109557
 20
59.351523289039072
 30
0.0
 11
40.91416064640562
 21
59.351523289039072
 31
0.0
  0
ARC
  5
1C75
  8
0
 10
44.678866528757652
 20
47.662258154249017
 30
0.0
 40
11.55341801262729
 50
69.743841999609131
 51
110.2561580003908
  0
LINE
  5
1C76
  8
0
 10
40.678866528757588
 20
59.215676166876278
 30
0.0
 11
40.91416064640562
 21
59.351523289039072
 31
0.0
  0
ARC
  5
1C77
  8
0
 10
44.678866528757581
 20
66.040788423828545
 30
0.0
 40
11.55341801262729
 50
249.74384199960909
 51
290.25615800039083
  0
LINE
  5
1C78
  8
0
 10
40.678866528757531
 20
54.487370411201383
 30
0.0
 11
40.91416064640557
 21
54.351523289038497
 31
0.0
  0
LINE
  5
1C79
  8
0
 10
40.678866528757588
 20
59.215676166876278
 30
0.0
 11
40.678866528757588
 21
54.487370411201383
 31
0.0
  0
LINE
  5
1C7A
  8
0
 10
48.678866528757638
 20
58.501144987060357
 30
0.0
 11
48.678866528757602
 21
55.201901591016977
 31
0.0
  0
LINE
  5
1C7B
  8
0
 10
56.678866528757709
 20
59.215676166876278
 30
0.0
 11
56.678866528757581
 21
54.487370411201383
 31
0.0
  0
ARC
  5
1C7C
  8
0
 10
52.678866528757588
 20
66.040788423828545
 30
0.0
 40
11.55341801262729
 50
249.74384199960909
 51
290.25615800039083
  0
LINE
  5
1C7D
  8
0
 10
56.678866528757652
 20
54.487370411201383
 30
0.0
 11
56.443572411109557
 21
54.351523289038497
 31
0.0
  0
LINE
  5
1C7E
  8
0
 10
56.678866528757709
 20
59.215676166876278
 30
0.0
 11
56.443572411109621
 21
59.351523289039072
 31
0.0
  0
ARC
  5
1C7F
  8
0
 10
52.678866528757638
 20
47.662258154249017
 30
0.0
 40
11.55341801262729
 50
69.743841999609131
 51
110.2561580003908
  0
TEXT
  5
1FCF
  8
0
 62
     3
 10
0.0
 20
0.0
 30
0.0
 40
10.0
  1
LSA32S16C-SUS
  7
STANDARD1
  0
ENDSEC
  0
EOF
