  0
SECTION
  2
HEADER
  9
$ACADVER
  1
AC1009
  9
$INSBASE
 10
0.0
 20
0.0
 30
0.0
  9
$EXTMIN
 10
0.0
 20
-2.960436562073669
 30
0.0
  9
$EXTMAX
 10
110.26603001364251
 20
268.54523804328119
 30
0.0
  9
$LIMMIN
 10
0.0
 20
0.0
  9
$LIMMAX
 10
375.0
 20
270.0
  9
$ORTHOMODE
 70
     1
  9
$REGENMODE
 70
     1
  9
$FILLMODE
 70
     1
  9
$QTEXTMODE
 70
     0
  9
$MIRRTEXT
 70
     0
  9
$DRAGMODE
 70
     2
  9
$LTSCALE
 40
6.0
  9
$OSMODE
 70
  3071
  9
$ATTMODE
 70
     1
  9
$TEXTSIZE
 40
0.2
  9
$TRACEWID
 40
0.05
  9
$TEXTSTYLE
  7
STANDARD
  9
$CLAYER
  8
0
  9
$CELTYPE
  6
BYLAYER
  9
$CECOLOR
 62
   256
  9
$DIMSCALE
 40
1.0
  9
$DIMASZ
 40
3.0
  9
$DIMEXO
 40
1.0
  9
$DIMDLI
 40
6.0
  9
$DIMRND
 40
0.0
  9
$DIMDLE
 40
0.0
  9
$DIMEXE
 40
1.0
  9
$DIMTP
 40
495.0
  9
$DIMTM
 40
0.0
  9
$DIMTXT
 40
3.0
  9
$DIMCEN
 40
0.0
  9
$DIMTSZ
 40
0.0
  9
$DIMTOL
 70
     0
  9
$DIMLIM
 70
     0
  9
$DIMTIH
 70
     0
  9
$DIMTOH
 70
     0
  9
$DIMSE1
 70
     0
  9
$DIMSE2
 70
     0
  9
$DIMTAD
 70
     1
  9
$DIMZIN
 70
     0
  9
$DIMBLK
  1

  9
$DIMASO
 70
     0
  9
$DIMSHO
 70
     0
  9
$DIMPOST
  1

  9
$DIMAPOST
  1

  9
$DIMALT
 70
     0
  9
$DIMALTD
 70
     2
  9
$DIMALTF
 40
25.399999999999999
  9
$DIMLFAC
 40
1.0
  9
$DIMTOFL
 70
     1
  9
$DIMTVP
 40
0.0
  9
$DIMTIX
 70
     1
  9
$DIMSOXD
 70
     0
  9
$DIMSAH
 70
     0
  9
$DIMBLK1
  1

  9
$DIMBLK2
  1

  9
$DIMSTYLE
  2
STANDARD
  9
$DIMCLRD
 70
     0
  9
$DIMCLRE
 70
     0
  9
$DIMCLRT
 70
     4
  9
$DIMTFAC
 40
1.0
  9
$DIMGAP
 40
1.0
  9
$LUNITS
 70
     2
  9
$LUPREC
 70
     4
  9
$SKETCHINC
 40
0.1
  9
$FILLETRAD
 40
2.0
  9
$AUNITS
 70
     0
  9
$AUPREC
 70
     0
  9
$MENU
  1
C:\R13\WIN\SUPPORT\ACAD-I
  9
$ELEVATION
 40
0.0
  9
$PELEVATION
 40
0.0
  9
$THICKNESS
 40
0.0
  9
$LIMCHECK
 70
     0
  9
$BLIPMODE
 70
     0
  9
$CHAMFERA
 40
0.0
  9
$CHAMFERB
 40
0.0
  9
$SKPOLY
 70
     0
  9
$TDCREATE
 40
2451961.7101526158
  9
$TDUPDATE
 40
2456597.6068494208
  9
$TDINDWG
 40
0.1565659491
  9
$TDUSRTIMER
 40
2456548.0970377079
  9
$USRTIMER
 70
     1
  9
$ANGBASE
 50
0.0
  9
$ANGDIR
 70
     0
  9
$PDMODE
 70
     0
  9
$PDSIZE
 40
0.0
  9
$PLINEWID
 40
0.0
  9
$COORDS
 70
     1
  9
$SPLFRAME
 70
     0
  9
$SPLINETYPE
 70
     6
  9
$SPLINESEGS
 70
     8
  9
$ATTDIA
 70
     0
  9
$ATTREQ
 70
     1
  9
$HANDLING
 70
     1
  9
$HANDSEED
  5
217A
  9
$SURFTAB1
 70
     6
  9
$SURFTAB2
 70
     6
  9
$SURFTYPE
 70
     6
  9
$SURFU
 70
     6
  9
$SURFV
 70
     6
  9
$UCSNAME
  2

  9
$UCSORG
 10
0.0
 20
0.0
 30
0.0
  9
$UCSXDIR
 10
1.0
 20
0.0
 30
0.0
  9
$UCSYDIR
 10
0.0
 20
1.0
 30
0.0
  9
$PUCSNAME
  2

  9
$PUCSORG
 10
0.0
 20
0.0
 30
0.0
  9
$PUCSXDIR
 10
1.0
 20
0.0
 30
0.0
  9
$PUCSYDIR
 10
0.0
 20
1.0
 30
0.0
  9
$USERI1
 70
     4
  9
$USERI2
 70
     1
  9
$USERI3
 70
     0
  9
$USERI4
 70
     0
  9
$USERI5
 70
     0
  9
$USERR1
 40
1.0
  9
$USERR2
 40
3.0
  9
$USERR3
 40
3.0
  9
$USERR4
 40
3.0
  9
$USERR5
 40
10.0
  9
$WORLDVIEW
 70
     1
  9
$SHADEDGE
 70
     3
  9
$SHADEDIF
 70
    70
  9
$TILEMODE
 70
     1
  9
$MAXACTVP
 70
    16
  9
$PLIMCHECK
 70
     0
  9
$PEXTMIN
 10
1.0000000000000000E+020
 20
1.0000000000000000E+020
 30
1.0000000000000000E+020
  9
$PEXTMAX
 10
-1.0000000000000000E+020
 20
-1.0000000000000000E+020
 30
-1.0000000000000000E+020
  9
$PLIMMIN
 10
0.0
 20
0.0
  9
$PLIMMAX
 10
12.0
 20
9.0
  9
$UNITMODE
 70
     0
  9
$VISRETAIN
 70
     0
  9
$PLINEGEN
 70
     0
  9
$PSLTSCALE
 70
     0
  0
ENDSEC
  0
SECTION
  2
TABLES
  0
TABLE
  2
VPORT
 70
     1
  0
VPORT
  2
*ACTIVE
 70
     0
 10
0.0
 20
0.0
 11
1.0
 21
1.0
 12
187.49427839065231
 22
134.10366293909439
 13
0.0
 23
0.0
 14
10.0
 24
10.0
 15
10.0
 25
10.0
 16
0.0
 26
0.0
 36
1.0
 17
0.0
 27
0.0
 37
0.0
 40
277.29405978699532
 41
2.304913294797688
 42
50.0
 43
0.0
 44
0.0
 50
0.0
 51
0.0
 71
    16
 72
   100
 73
     1
 74
     0
 75
     0
 76
     0
 77
     0
 78
     0
  0
ENDTAB
  0
TABLE
  2
LTYPE
 70
     3
  0
LTYPE
  2
CONTINUOUS
 70
     0
  3
Solid Line
 72
    65
 73
     0
 40
0.0
  0
LTYPE
  2
PHANTOM2
 70
     0
  3
___ _ _ ___ _ _ ___ _ _ ___ _ _
 72
    65
 73
     6
 40
1.25
 49
0.625
 49
-0.125
 49
0.125
 49
-0.125
 49
0.125
 49
-0.125
  0
LTYPE
  2
CENTER
 70
     0
  3
____ _ ____ _ ____ _ ____ _ ____ _ ____ _ ____
 72
    65
 73
     4
 40
2.0
 49
1.25
 49
-0.25
 49
0.25
 49
-0.25
  0
ENDTAB
  0
TABLE
  2
LAYER
 70
     3
  0
LAYER
  2
0
 70
     0
 62
     7
  6
CONTINUOUS
  0
LAYER
  2
1
 70
     0
 62
     1
  6
CENTER
  0
LAYER
  2
3
 70
     0
 62
     3
  6
CONTINUOUS
  0
ENDTAB
  0
TABLE
  2
STYLE
 70
     3
  0
STYLE
  2
STANDARD
 70
     0
 40
0.0
 41
1.0
 50
0.0
 71
     0
 42
0.2
  3
SIMPLEX
  4
BIGFONT
  0
STYLE
  2
ANNOTATIVE
 70
     0
 40
0.0
 41
1.0
 50
0.0
 71
     0
 42
0.2
  3
txt
  4

  0
STYLE
  2
STANDARD1
 70
     0
 40
0.0
 41
1.0
 50
0.0
 71
     0
 42
3.0
  3
txt
  4

  0
ENDTAB
  0
TABLE
  2
VIEW
 70
     0
  0
ENDTAB
  0
TABLE
  2
UCS
 70
     0
  0
ENDTAB
  0
TABLE
  2
APPID
 70
    29
  0
APPID
  2
ACAD
 70
     0
  0
APPID
  2
ACADANNOTATIVE
 70
     0
  0
APPID
  2
GENIUS_GENOREF_13
 70
     0
  0
APPID
  2
GENIUS_GENOENT_13
 70
     0
  0
APPID
  2
GENIUS_GENBH_13
 70
     0
  0
APPID
  2
GENIUS_GENOBJ_13
 70
     0
  0
APPID
  2
GENIUS_GENODEF_13
 70
     0
  0
APPID
  2
GENIUS_GENOLIS_13
 70
     0
  0
APPID
  2
GENIUS_GENOBJ-NBEHI-BHF_13
 70
     0
  0
APPID
  2
GENIUS_GENOBJ-NBEHI-BHB_13
 70
     0
  0
APPID
  2
GENIUS_GENOBJ-F-PART_13
 70
     0
  0
APPID
  2
GENIUS_GEFSTDP_13
 70
     0
  0
APPID
  2
GENIUS_GENOBJ-N-RSSYM_13
 70
     0
  0
APPID
  2
GENIUS_GENSYMENT_13
 70
     0
  0
APPID
  2
GENIUS_GENOBJ-N-TIT_13
 70
     0
  0
APPID
  2
GENIUS_GENTITLE_13
 70
     0
  0
APPID
  2
GENIUS_GENZVEED_13
 70
     0
  0
APPID
  2
GENIUS_GENOBJ-N-LEADER_13
 70
     0
  0
APPID
  2
GENIUS_GENOBJ-N-FIL_13
 70
     0
  0
APPID
  2
GENIUS_GENOBJ-N-SEC_13
 70
     0
  0
APPID
  2
GENIUS_GENOBJ-N-CRS_13
 70
     0
  0
APPID
  2
GENIUS_GENOBJ-N-ZOO_13
 70
     0
  0
APPID
  2
GENIUS_GENZOO_13
 70
     0
  0
APPID
  2
GENIUS_GENOBJ-F-TOL_13
 70
     0
  0
APPID
  2
GENIUS_GENFIL_13
 70
     0
  0
APPID
  2
GENIUS_GENOBJ-N-CHA_13
 70
     0
  0
APPID
  2
ACAD_MLEADERVER
 70
     0
  0
APPID
  2
ACAD_EXEMPT_FROM_CAD_STANDARDS
 70
     0
  0
APPID
  2
ACAD_NAV_VCDISPLAY
 70
     0
  0
ENDTAB
  0
TABLE
  2
DIMSTYLE
 70
     2
  0
DIMSTYLE
  2
STANDARD
 70
     0
  3

  4

  5

  6

  7

 40
1.0
 41
0.18
 42
0.0625
 43
0.38
 44
0.18
 45
0.0
 46
0.0
 47
0.0
 48
0.0
140
0.18
141
0.09
142
0.0
143
25.399999999999999
144
1.0
145
0.0
146
1.0
147
0.09
 71
     0
 72
     0
 73
     1
 74
     1
 75
     0
 76
     0
 77
     0
 78
     0
170
     0
171
     2
172
     0
173
     0
174
     0
175
     0
176
     0
177
     0
178
     0
  0
DIMSTYLE
  2
ANNOTATIVE
 70
     0
  3

  4

  5

  6

  7

 40
1.0
 41
0.18
 42
0.0625
 43
0.38
 44
0.18
 45
0.0
 46
0.0
 47
0.0
 48
0.0
140
0.18
141
0.09
142
0.0
143
25.399999999999999
144
1.0
145
0.0
146
1.0
147
0.09
 71
     0
 72
     0
 73
     1
 74
     1
 75
     0
 76
     0
 77
     0
 78
     0
170
     0
171
     2
172
     0
173
     0
174
     0
175
     0
176
     0
177
     0
178
     0
  0
ENDTAB
  0
ENDSEC
  0
SECTION
  2
BLOCKS
  0
BLOCK
  8
0
  2
$MODEL_SPACE
 70
     0
 10
0.0
 20
0.0
 30
0.0
  3
$MODEL_SPACE
  1

  0
ENDBLK
  5
209D
  8
0
  0
BLOCK
 67
     1
  8
0
  2
$PAPER_SPACE
 70
     0
 10
0.0
 20
0.0
 30
0.0
  3
$PAPER_SPACE
  1

  0
ENDBLK
  5
2099
 67
     1
  8
0
  0
ENDSEC
  0
SECTION
  2
ENTITIES
  0
LINE
  5
1A12
  8
0
 10
52.177087206709757
 20
75.711282344248261
 30
0.0
 11
49.820680746028977
 21
74.350810439854044
 31
0.0
  0
LINE
  5
1A13
  8
0
 10
52.177087206709757
 20
85.990338535459841
 30
0.0
 11
49.820680746028977
 21
87.350810439854044
 31
0.0
  0
ARC
  5
1A14
  8
0
 10
48.712985591550243
 20
80.928160709568118
 30
0.0
 40
6.1339745957208196
 50
64.38424746985207
 51
124.3842474712113
  0
LINE
  5
1A15
  8
0
 10
26.820680746136759
 20
87.350810439854044
 30
0.0
 11
49.820680746028977
 21
87.350810439854044
 31
0.0
  0
LINE
  5
1A16
  8
0
 10
49.820680746028977
 20
74.350810439854044
 30
0.0
 11
26.82068074624453
 21
74.350810439854044
 31
0.0
  0
LINE
  5
1A1A
  8
0
 10
46.320680746136972
 20
212.5621353052891
 30
0.0
 11
30.32068074613699
 21
212.5621353052891
 31
0.0
  0
LINE
  5
1A1B
  8
0
 10
44.320680746136979
 20
214.5621353052891
 30
0.0
 11
46.320680746136972
 21
212.5621353052891
 31
0.0
  0
LINE
  5
1A1C
  8
0
 10
30.32068074613699
 20
212.5621353052891
 30
0.0
 11
32.320680746137
 21
214.5621353052891
 31
0.0
  0
LINE
  5
1A1D
  8
0
 10
30.32068074613699
 20
46.426288183126317
 30
0.0
 11
30.32068074613699
 21
74.350810439854044
 31
0.0
  0
LINE
  5
1A1E
  8
3
 10
31.403180746136972
 20
48.562135305289317
 30
0.0
 11
31.403180746136972
 21
74.350810439853817
 31
0.0
  0
LINE
  5
1A1F
  8
3
 10
45.238180746137012
 20
48.562135305289317
 30
0.0
 11
45.23818074613699
 21
74.350810439853817
 31
0.0
  0
LINE
  5
1A20
  8
0
 10
46.320680746136972
 20
46.426288183126402
 30
0.0
 11
46.320680746136972
 21
74.350810439853817
 31
0.0
  0
LINE
  5
1A21
  8
0
 10
32.320680746137
 20
214.5621353052891
 30
0.0
 11
44.320680746136979
 21
214.5621353052891
 31
0.0
  0
LINE
  5
1A2F
  8
3
 10
45.23818074613699
 20
87.350810439854044
 30
0.0
 11
45.23818074613699
 21
213.64463530528911
 31
0.0
  0
LINE
  5
1A30
  8
0
 10
46.320680746136972
 20
87.350810439854044
 30
0.0
 11
46.320680746136972
 21
212.5621353052891
 31
0.0
  0
LINE
  5
1A31
  8
3
 10
31.403180746136972
 20
87.350810439854044
 30
0.0
 11
31.403180746136972
 21
213.64463530528911
 31
0.0
  0
LINE
  5
1A32
  8
0
 10
30.32068074613699
 20
87.350810439854044
 30
0.0
 11
30.32068074613699
 21
212.5621353052891
 31
0.0
  0
ARC
  5
1A38
  8
0
 10
97.440930915350705
 20
69.732008287936537
 30
0.0
 40
17.330127017333279
 50
69.7438419976407
 51
110.2561580023593
  0
LINE
  5
1A39
  8
0
 10
103.4409309153657
 20
87.062135305269848
 30
0.0
 11
102.94093091535071
 21
87.350810439873257
 31
0.0
  0
LINE
  5
1A3A
  8
0
 10
103.4409309153657
 20
74.639485574399842
 30
0.0
 11
102.94093091535071
 21
74.350810439796433
 31
0.0
  0
ARC
  5
1A3B
  8
0
 10
97.440930915350705
 20
91.969612591733153
 30
0.0
 40
17.330127017333279
 50
249.74384199764069
 51
290.25615800235931
  0
LINE
  5
1A3C
  8
0
 10
103.4409309153657
 20
87.062135305269848
 30
0.0
 11
103.44093091535071
 21
74.639485574391202
 31
0.0
  0
LINE
  5
1A3E
  8
0
 10
79.440930915335684
 20
87.062135305269848
 30
0.0
 11
79.440930915350691
 21
74.639485574391202
 31
0.0
  0
ARC
  5
1A3F
  8
0
 10
85.440930915350691
 20
91.969612591733153
 30
0.0
 40
17.330127017333279
 50
249.74384199764069
 51
290.25615800235931
  0
LINE
  5
1A40
  8
0
 10
79.440930915335684
 20
74.639485574399842
 30
0.0
 11
79.940930915350691
 21
74.350810439796433
 31
0.0
  0
LINE
  5
1A41
  8
0
 10
79.440930915335684
 20
87.062135305269848
 30
0.0
 11
79.940930915350691
 21
87.350810439873257
 31
0.0
  0
ARC
  5
1A42
  8
0
 10
85.440930915350691
 20
69.732008287936537
 30
0.0
 40
17.330127017333279
 50
69.7438419976407
 51
110.2561580023593
  0
LINE
  5
1A43
  8
0
 10
79.940930915284298
 20
87.350810439834845
 30
0.0
 11
102.94093091535071
 21
87.350810439873257
 31
0.0
  0
LINE
  5
1A44
  8
0
 10
102.94093091535071
 20
74.350810439796433
 30
0.0
 11
79.940930915284298
 21
74.350810439834845
 31
0.0
  0
LINE
  5
1A55
  8
0
 10
85.440930915317949
 20
214.5621353052891
 30
0.0
 11
97.440930915317935
 21
214.5621353052891
 31
0.0
  0
LINE
  5
1A56
  8
0
 10
99.440930915317949
 20
46.426288183126928
 30
0.0
 11
99.440930915317949
 21
74.350810439840828
 31
0.0
  0
LINE
  5
1A57
  8
3
 10
98.358430915317996
 20
48.56213530528904
 30
0.0
 11
98.358430915317953
 21
74.350810439842647
 31
0.0
  0
LINE
  5
1A58
  8
0
 10
97.440930915317935
 20
214.5621353052891
 30
0.0
 11
99.440930915317949
 21
212.5621353052891
 31
0.0
  0
LINE
  5
1A59
  8
0
 10
99.440930915317949
 20
212.5621353052891
 30
0.0
 11
83.440930915317935
 21
212.5621353052891
 31
0.0
  0
LINE
  5
1A5C
  8
3
 10
84.523430915317903
 20
48.562135305289807
 30
0.0
 11
84.523430915317903
 21
74.350810439865626
 31
0.0
  0
LINE
  5
1A5D
  8
0
 10
83.440930915317935
 20
46.426288183127433
 30
0.0
 11
83.440930915317935
 21
74.350810439867658
 31
0.0
  0
LINE
  5
1A5E
  8
0
 10
83.440930915317935
 20
212.5621353052891
 30
0.0
 11
85.440930915317949
 21
214.5621353052891
 31
0.0
  0
LINE
  5
1A60
  8
3
 10
84.523430915317903
 20
87.350810439880874
 30
0.0
 11
84.523430915317903
 21
213.64463530528911
 31
0.0
  0
LINE
  5
1A61
  8
0
 10
83.440930915317935
 20
87.350810439879055
 30
0.0
 11
83.440930915317935
 21
212.5621353052891
 31
0.0
  0
LINE
  5
1A62
  8
0
 10
99.440930915317949
 20
87.350810439906084
 30
0.0
 11
99.440930915317949
 21
212.5621353052891
 31
0.0
  0
LINE
  5
1A63
  8
3
 10
98.358430915317953
 20
87.350810439904023
 30
0.0
 11
98.358430915317953
 21
213.64463530528911
 31
0.0
  0
LINE
  5
1A64
  8
0
 10
45.248883976412792
 20
261.54523804328142
 30
0.0
 11
31.392477515861628
 21
261.54523804328142
 31
0.0
  0
LINE
  5
1A65
  8
0
 10
31.392477515861628
 20
261.54523804328142
 30
0.0
 11
24.464274285586271
 21
249.5452380432813
 31
0.0
  0
LINE
  5
1A66
  8
0
 10
24.464274285586271
 20
249.5452380432813
 30
0.0
 11
31.392477515861628
 21
237.54523804328139
 31
0.0
  0
LINE
  5
1A67
  8
0
 10
31.392477515861628
 20
237.54523804328139
 30
0.0
 11
45.248883976412792
 21
237.54523804328139
 31
0.0
  0
LINE
  5
1A68
  8
0
 10
45.248883976412792
 20
237.54523804328139
 30
0.0
 11
52.177087206688157
 21
249.5452380432813
 31
0.0
  0
LINE
  5
1A69
  8
0
 10
52.177087206688157
 20
249.5452380432813
 30
0.0
 11
45.248883976412792
 21
261.54523804328142
 31
0.0
  0
CIRCLE
  5
1A6A
  8
0
 10
38.320680746137207
 20
249.5452380432813
 30
0.0
 40
11.5
  0
CIRCLE
  5
1A6B
  8
0
 10
38.320680746137207
 20
249.5452380432813
 30
0.0
 40
8.0
  0
CIRCLE
  5
1A6C
  8
3
 10
38.320680746137207
 20
249.5452380432813
 30
0.0
 40
6.9175000000000004
  0
LINE
  5
1A6D
  8
1
 10
38.320680746137
 20
18.562135305289061
 30
0.0
 11
38.320680746137
 21
217.5621353052891
 31
0.0
  0
LINE
  5
1A6E
  8
1
 10
91.440930915317495
 20
18.562135305289061
 30
0.0
 11
91.440930915317495
 21
217.5621353052891
 31
0.0
  0
LINE
  5
1A6F
  8
1
 10
57.320680746137207
 20
249.5452380432813
 30
0.0
 11
19.32068074613721
 21
249.5452380432813
 31
0.0
  0
LINE
  5
1A70
  8
1
 10
38.320680746137207
 20
268.54523804328119
 30
0.0
 11
38.320680746137207
 21
230.5452380432813
 31
0.0
  0
CIRCLE
  5
1A71
  8
0
 10
38.320680746137207
 20
249.5452380432813
 30
0.0
 40
15.99999999999994
  0
ARC
  5
1AA4
  8
0
 10
38.320680746136759
 20
64.133932077149439
 30
0.0
 40
22.928203228139491
 50
72.412046224314139
 51
107.5879537756858
  0
ARC
  5
1AA5
  8
0
 10
27.928375900723271
 20
80.928160709568118
 30
0.0
 40
6.1339745957208196
 50
55.61575252878869
 51
115.6157525301479
  0
LINE
  5
1AA6
  8
0
 10
24.464274285563761
 20
85.990338535459841
 30
0.0
 11
26.82068074624453
 21
87.350810439854044
 31
0.0
  0
LINE
  5
1AA7
  8
0
 10
24.464274285563761
 20
75.711282344248261
 30
0.0
 11
26.82068074624453
 21
74.350810439854044
 31
0.0
  0
ARC
  5
1AA8
  8
0
 10
27.928375900723271
 20
80.773460170139714
 30
0.0
 40
6.1339745957208196
 50
244.38424746985211
 51
304.38424747121132
  0
ARC
  5
1AA9
  8
0
 10
38.320680746136759
 20
97.567688802558465
 30
0.0
 40
22.928203228139491
 50
252.41204622431411
 51
287.58795377568589
  0
LINE
  5
1AAA
  8
0
 10
24.464274285585589
 20
85.990338535459841
 30
0.0
 11
24.464274285585589
 21
75.711282344235542
 31
0.0
  0
LINE
  5
1AAB
  8
0
 10
31.392477515861401
 20
85.990338535459841
 30
0.0
 11
31.392477515861401
 21
75.711282344248261
 31
0.0
  0
LINE
  5
1AAC
  8
0
 10
45.248883976412117
 20
85.990338535459841
 30
0.0
 11
45.248883976412117
 21
75.711282344248261
 31
0.0
  0
LINE
  5
1AAD
  8
0
 10
52.177087206687929
 20
85.990338535459841
 30
0.0
 11
52.177087206687929
 21
75.711282344235542
 31
0.0
  0
ARC
  5
1AAE
  8
0
 10
48.712985591550243
 20
80.773460170139714
 30
0.0
 40
6.1339745957208196
 50
235.6157525287887
 51
295.61575253014792
  0
LINE
  5
1D2C
  8
3
 10
84.523430915317704
 20
48.562135305289431
 30
0.0
 11
83.440930915317736
 21
46.687190306096113
 31
0.0
  0
LINE
  5
1D2D
  8
3
 10
98.358430915317726
 20
48.562135305289431
 30
0.0
 11
99.440930915317722
 21
46.687190306096113
 31
0.0
  0
LINE
  5
1D2E
  8
0
 10
83.440930915317736
 20
48.562135305289431
 30
0.0
 11
99.440930915317722
 21
48.562135305289431
 31
0.0
  0
LINE
  5
1D2F
  8
0
 10
30.32068074613699
 20
48.562135305289317
 30
0.0
 11
46.320680746136972
 21
48.562135305289317
 31
0.0
  0
LINE
  5
1D30
  8
3
 10
31.403180746136972
 20
48.562135305289317
 30
0.0
 11
30.32068074613699
 21
46.687190306096007
 31
0.0
  0
LINE
  5
1D31
  8
3
 10
45.23818074613699
 20
48.562135305289317
 30
0.0
 11
46.320680746136972
 21
46.687190306096007
 31
0.0
  0
LINE
  5
1D32
  8
0
 10
50.14285359181882
 20
31.562135305289079
 30
0.0
 11
49.320680746136929
 21
36.562135305289083
 31
0.0
  0
LINE
  5
1D33
  8
0
 10
54.320680746136929
 20
26.562135305289079
 30
0.0
 11
50.14285359181882
 21
31.562135305289079
 31
0.0
  0
LINE
  5
1D34
  8
0
 10
53.820680746136929
 20
21.562135305289079
 30
0.0
 11
54.320680746136929
 21
22.062135305289068
 31
0.0
  0
LINE
  5
1D35
  8
0
 10
22.320680746136919
 20
22.062135305289068
 30
0.0
 11
22.820680746136929
 21
21.562135305289079
 31
0.0
  0
LINE
  5
1D38
  8
0
 10
49.320680746136929
 20
36.562135305289083
 30
0.0
 11
27.320680746136929
 21
36.562135305289047
 31
0.0
  0
LINE
  5
1D39
  8
0
 10
54.320680746136929
 20
26.562135305289079
 30
0.0
 11
22.320680746136919
 21
26.562135305289079
 31
0.0
  0
LINE
  5
1D3A
  8
0
 10
53.820680746136929
 20
21.562135305289079
 30
0.0
 11
22.820680746136929
 21
21.562135305289079
 31
0.0
  0
LINE
  5
1D3C
  8
0
 10
54.320680746136929
 20
22.062135305289068
 30
0.0
 11
54.320680746136929
 21
26.562135305289161
 31
0.0
  0
LINE
  5
1D3D
  8
0
 10
22.320680746136919
 20
22.062135305289068
 30
0.0
 11
22.320680746136919
 21
26.562135305289161
 31
0.0
  0
LINE
  5
1D3E
  8
0
 10
26.498507900455031
 20
31.562135305289079
 30
0.0
 11
50.14285359181882
 21
31.562135305289079
 31
0.0
  0
LINE
  5
1D3F
  8
0
 10
26.498507900455031
 20
31.562135305289079
 30
0.0
 11
27.320680746136929
 21
36.562135305289083
 31
0.0
  0
LINE
  5
1D40
  8
0
 10
22.320680746136919
 20
26.562135305289079
 30
0.0
 11
26.498507900455031
 21
31.562135305289079
 31
0.0
  0
ARC
  5
1D41
  8
0
 10
38.3206807461371
 20
33.232008286366877
 30
0.0
 40
7.0
 50
28.40704927173914
 51
38.213210701736877
  0
ARC
  5
1D42
  8
0
 10
38.3206807461371
 20
33.232008286366877
 30
0.0
 40
7.0
 50
141.7867892982631
 51
151.5929507282608
  0
LINE
  5
1D43
  8
0
 10
43.820680746137107
 20
37.56213530528909
 30
0.0
 11
43.820680746137107
 21
41.562135305289083
 31
0.0
  0
LINE
  5
1D44
  8
0
 10
32.8206807461371
 20
37.56213530528909
 30
0.0
 11
32.8206807461371
 21
41.562135305289083
 31
0.0
  0
LINE
  5
1D45
  8
0
 10
43.820680746137107
 20
37.56213530528909
 30
0.0
 11
32.8206807461371
 21
37.56213530528909
 31
0.0
  0
LINE
  5
1D46
  8
0
 10
96.940930915317722
 20
37.56213530528909
 30
0.0
 11
85.940930915317736
 21
37.56213530528909
 31
0.0
  0
LINE
  5
1D47
  8
0
 10
85.940930915317736
 20
37.56213530528909
 30
0.0
 11
85.940930915317736
 21
41.562135305289083
 31
0.0
  0
LINE
  5
1D48
  8
0
 10
96.940930915317722
 20
37.56213530528909
 30
0.0
 11
96.940930915317722
 21
41.562135305289083
 31
0.0
  0
ARC
  5
1D49
  8
0
 10
91.440930915317722
 20
33.232008286366877
 30
0.0
 40
7.0
 50
141.7867892982631
 51
151.5929507282608
  0
ARC
  5
1D4A
  8
0
 10
91.440930915317722
 20
33.232008286366877
 30
0.0
 40
7.0
 50
28.40704927173914
 51
38.213210701736877
  0
LINE
  5
1D4B
  8
0
 10
75.440930915317551
 20
26.562135305289079
 30
0.0
 11
79.61875806963566
 21
31.562135305289079
 31
0.0
  0
LINE
  5
1D4C
  8
0
 10
79.61875806963566
 20
31.562135305289079
 30
0.0
 11
80.440930915317537
 21
36.562135305289083
 31
0.0
  0
LINE
  5
1D4D
  8
0
 10
79.61875806963566
 20
31.562135305289079
 30
0.0
 11
103.2631037609994
 21
31.562135305289079
 31
0.0
  0
LINE
  5
1D4E
  8
0
 10
75.440930915317523
 20
22.062135305289068
 30
0.0
 11
75.440930915317523
 21
26.562135305289161
 31
0.0
  0
LINE
  5
1D4F
  8
0
 10
107.44093091531749
 20
22.062135305289068
 30
0.0
 11
107.44093091531749
 21
26.562135305289161
 31
0.0
  0
LINE
  5
1D51
  8
0
 10
106.94093091531749
 20
21.562135305289079
 30
0.0
 11
75.940930915317523
 21
21.562135305289079
 31
0.0
  0
LINE
  5
1D52
  8
0
 10
107.44093091531749
 20
26.562135305289079
 30
0.0
 11
75.440930915317551
 21
26.562135305289079
 31
0.0
  0
LINE
  5
1D53
  8
0
 10
102.4409309153174
 20
36.562135305289083
 30
0.0
 11
80.440930915317537
 21
36.562135305289047
 31
0.0
  0
LINE
  5
1D56
  8
0
 10
75.440930915317523
 20
22.062135305289068
 30
0.0
 11
75.940930915317523
 21
21.562135305289079
 31
0.0
  0
LINE
  5
1D57
  8
0
 10
106.94093091531749
 20
21.562135305289079
 30
0.0
 11
107.44093091531749
 21
22.062135305289068
 31
0.0
  0
LINE
  5
1D58
  8
0
 10
107.44093091531749
 20
26.562135305289079
 30
0.0
 11
103.2631037609994
 21
31.562135305289079
 31
0.0
  0
LINE
  5
1D59
  8
0
 10
103.2631037609994
 20
31.562135305289079
 30
0.0
 11
102.4409309153174
 21
36.562135305289083
 31
0.0
  0
LINE
  5
1D5A
  8
0
 10
99.205636797670721
 20
41.562135305289317
 30
0.0
 11
83.676225032964268
 21
41.562135305289317
 31
0.0
  0
LINE
  5
1D5B
  8
0
 10
83.676225032964538
 20
46.562135305289431
 30
0.0
 11
99.205636797670707
 21
46.562135305289203
 31
0.0
  0
ARC
  5
1D5C
  8
0
 10
98.369134145592994
 20
42.336971785645581
 30
0.0
 40
4.0893163974808306
 50
64.384247467889296
 51
124.3842474680048
  0
LINE
  5
1D5D
  8
0
 10
100.6785352223514
 20
45.711757003310836
 30
0.0
 11
99.205636797670437
 21
46.562135305289431
 31
0.0
  0
LINE
  5
1D5E
  8
0
 10
100.6785352223514
 20
42.41251360726767
 30
0.0
 11
99.205636797670437
 21
41.562135305289083
 31
0.0
  0
ARC
  5
1D5F
  8
0
 10
98.369134145592994
 20
45.787298824932918
 30
0.0
 40
4.0893163974808306
 50
235.61575253199521
 51
295.61575253211078
  0
LINE
  5
1D60
  8
0
 10
100.6785352223514
 20
45.711757003310836
 30
0.0
 11
100.6785352223514
 21
42.41251360726767
 31
0.0
  0
LINE
  5
1D61
  8
0
 10
96.059733068835484
 20
45.711757003310836
 30
0.0
 11
96.059733068834845
 21
42.412513607267449
 31
0.0
  0
LINE
  5
1D62
  8
0
 10
86.822128761799505
 20
45.711757003310836
 30
0.0
 11
86.82212876180013
 21
42.412513607267449
 31
0.0
  0
LINE
  5
1D63
  8
0
 10
82.203326608283547
 20
45.711757003310836
 30
0.0
 11
82.203326608283547
 21
42.41251360726767
 31
0.0
  0
ARC
  5
1D64
  8
0
 10
91.440930915316983
 20
56.983451247655942
 30
0.0
 40
15.28546882020385
 50
252.4120462260295
 51
287.58795377396882
  0
ARC
  5
1D65
  8
0
 10
84.51272768504198
 20
45.787298824932918
 30
0.0
 40
4.0893163974808306
 50
244.38424746788931
 51
304.38424746800467
  0
LINE
  5
1D66
  8
0
 10
82.203326608283547
 20
42.41251360726767
 30
0.0
 11
83.676225032964538
 21
41.562135305289083
 31
0.0
  0
LINE
  5
1D67
  8
0
 10
82.203326608283547
 20
45.711757003310836
 30
0.0
 11
83.676225032964538
 21
46.562135305289431
 31
0.0
  0
ARC
  5
1D68
  8
0
 10
91.440930915316983
 20
31.140819362922581
 30
0.0
 40
15.28546882020385
 50
72.412046226031251
 51
107.5879537739705
  0
ARC
  5
1D69
  8
0
 10
84.51272768504198
 20
42.336971785645581
 30
0.0
 40
4.0893163974808306
 50
55.615752531995213
 51
115.6157525321107
  0
LINE
  5
1D6A
  8
0
 10
30.55597486378403
 20
41.562135305289083
 30
0.0
 11
46.085386628489928
 21
41.562135305289083
 31
0.0
  0
LINE
  5
1D6B
  8
0
 10
46.085386628488962
 20
46.562135305289083
 30
0.0
 11
30.55597486378506
 21
46.562135305289083
 31
0.0
  0
ARC
  5
1D6C
  8
0
 10
34.320680746137072
 20
34.872870170499041
 30
0.0
 40
11.55341801262729
 50
69.743841999607497
 51
110.2561580003925
  0
LINE
  5
1D6D
  8
0
 10
30.320680746137018
 20
46.426288183126317
 30
0.0
 11
30.55597486378506
 21
46.562135305289083
 31
0.0
  0
ARC
  5
1D6E
  8
0
 10
34.320680746137022
 20
53.251400440078577
 30
0.0
 40
11.55341801262729
 50
249.7438419996092
 51
290.25615800039247
  0
LINE
  5
1D6F
  8
0
 10
30.320680746136961
 20
41.6979824274514
 30
0.0
 11
30.555974863785
 21
41.562135305288521
 31
0.0
  0
LINE
  5
1D70
  8
0
 10
30.320680746137018
 20
46.426288183126317
 30
0.0
 11
30.320680746137018
 21
41.6979824274514
 31
0.0
  0
LINE
  5
1D71
  8
0
 10
38.320680746137072
 20
45.711757003310382
 30
0.0
 11
38.320680746137008
 21
42.412513607267002
 31
0.0
  0
LINE
  5
1D72
  8
0
 10
46.320680746137107
 20
46.426288183126317
 30
0.0
 11
46.320680746137008
 21
41.6979824274514
 31
0.0
  0
ARC
  5
1D73
  8
0
 10
42.320680746137
 20
53.251400440078577
 30
0.0
 40
11.55341801262729
 50
249.7438419996092
 51
290.25615800039247
  0
LINE
  5
1D74
  8
0
 10
46.320680746137057
 20
41.6979824274514
 30
0.0
 11
46.085386628488962
 21
41.562135305288521
 31
0.0
  0
LINE
  5
1D75
  8
0
 10
46.320680746137107
 20
46.426288183126317
 30
0.0
 11
46.085386628489033
 21
46.562135305289083
 31
0.0
  0
ARC
  5
1D76
  8
0
 10
42.320680746137072
 20
34.872870170499041
 30
0.0
 40
11.55341801262729
 50
69.743841999607497
 51
110.2561580003925
  0
LINE
  5
1FC6
  8
0
 10
91.440930915351927
 20
85.990338535440102
 30
0.0
 11
91.440930915317495
 21
75.71128234424134
 31
0.0
  0
TEXT
  5
211D
  8
0
 62
     3
 10
0.0
 20
0.0
 30
0.0
 40
10.0
  1
LSA32S16D-SUS
  7
STANDARD1
  0
ENDSEC
  0
EOF
