  0
SECTION
  2
HEADER
  9
$ACADVER
  1
AC1009
  9
$INSBASE
 10
0.0
 20
0.0
 30
0.0
  9
$EXTMIN
 10
0.0
 20
-2.960436562073669
 30
0.0
  9
$EXTMAX
 10
123.215865485191
 20
226.90878785152421
 30
0.0
  9
$LIMMIN
 10
0.0
 20
0.0
  9
$LIMMAX
 10
375.0
 20
270.0
  9
$ORTHOMODE
 70
     1
  9
$REGENMODE
 70
     1
  9
$FILLMODE
 70
     1
  9
$QTEXTMODE
 70
     0
  9
$MIRRTEXT
 70
     0
  9
$DRAGMODE
 70
     2
  9
$LTSCALE
 40
6.0
  9
$OSMODE
 70
  3071
  9
$ATTMODE
 70
     1
  9
$TEXTSIZE
 40
0.2
  9
$TRACEWID
 40
0.05
  9
$TEXTSTYLE
  7
STANDARD
  9
$CLAYER
  8
0
  9
$CELTYPE
  6
BYLAYER
  9
$CECOLOR
 62
   256
  9
$DIMSCALE
 40
1.0
  9
$DIMASZ
 40
3.0
  9
$DIMEXO
 40
1.0
  9
$DIMDLI
 40
6.0
  9
$DIMRND
 40
0.0
  9
$DIMDLE
 40
0.0
  9
$DIMEXE
 40
1.0
  9
$DIMTP
 40
495.0
  9
$DIMTM
 40
0.0
  9
$DIMTXT
 40
3.0
  9
$DIMCEN
 40
0.0
  9
$DIMTSZ
 40
0.0
  9
$DIMTOL
 70
     0
  9
$DIMLIM
 70
     0
  9
$DIMTIH
 70
     0
  9
$DIMTOH
 70
     0
  9
$DIMSE1
 70
     0
  9
$DIMSE2
 70
     0
  9
$DIMTAD
 70
     1
  9
$DIMZIN
 70
     0
  9
$DIMBLK
  1

  9
$DIMASO
 70
     0
  9
$DIMSHO
 70
     0
  9
$DIMPOST
  1

  9
$DIMAPOST
  1

  9
$DIMALT
 70
     0
  9
$DIMALTD
 70
     2
  9
$DIMALTF
 40
25.399999999999999
  9
$DIMLFAC
 40
1.0
  9
$DIMTOFL
 70
     1
  9
$DIMTVP
 40
0.0
  9
$DIMTIX
 70
     1
  9
$DIMSOXD
 70
     0
  9
$DIMSAH
 70
     0
  9
$DIMBLK1
  1

  9
$DIMBLK2
  1

  9
$DIMSTYLE
  2
STANDARD
  9
$DIMCLRD
 70
     0
  9
$DIMCLRE
 70
     0
  9
$DIMCLRT
 70
     4
  9
$DIMTFAC
 40
1.0
  9
$DIMGAP
 40
1.0
  9
$LUNITS
 70
     2
  9
$LUPREC
 70
     4
  9
$SKETCHINC
 40
0.1
  9
$FILLETRAD
 40
2.0
  9
$AUNITS
 70
     0
  9
$AUPREC
 70
     0
  9
$MENU
  1
C:\R13\WIN\SUPPORT\ACAD-I
  9
$ELEVATION
 40
0.0
  9
$PELEVATION
 40
0.0
  9
$THICKNESS
 40
0.0
  9
$LIMCHECK
 70
     0
  9
$BLIPMODE
 70
     0
  9
$CHAMFERA
 40
0.0
  9
$CHAMFERB
 40
0.0
  9
$SKPOLY
 70
     0
  9
$TDCREATE
 40
2451961.7168629509
  9
$TDUPDATE
 40
2456597.6070650001
  9
$TDINDWG
 40
0.0827652662
  9
$TDUSRTIMER
 40
2456549.2286713659
  9
$USRTIMER
 70
     1
  9
$ANGBASE
 50
0.0
  9
$ANGDIR
 70
     0
  9
$PDMODE
 70
     0
  9
$PDSIZE
 40
0.0
  9
$PLINEWID
 40
0.0
  9
$COORDS
 70
     1
  9
$SPLFRAME
 70
     0
  9
$SPLINETYPE
 70
     6
  9
$SPLINESEGS
 70
     8
  9
$ATTDIA
 70
     0
  9
$ATTREQ
 70
     1
  9
$HANDLING
 70
     1
  9
$HANDSEED
  5
2FCE
  9
$SURFTAB1
 70
     6
  9
$SURFTAB2
 70
     6
  9
$SURFTYPE
 70
     6
  9
$SURFU
 70
     6
  9
$SURFV
 70
     6
  9
$UCSNAME
  2

  9
$UCSORG
 10
0.0
 20
0.0
 30
0.0
  9
$UCSXDIR
 10
1.0
 20
0.0
 30
0.0
  9
$UCSYDIR
 10
0.0
 20
1.0
 30
0.0
  9
$PUCSNAME
  2

  9
$PUCSORG
 10
0.0
 20
0.0
 30
0.0
  9
$PUCSXDIR
 10
1.0
 20
0.0
 30
0.0
  9
$PUCSYDIR
 10
0.0
 20
1.0
 30
0.0
  9
$USERI1
 70
     4
  9
$USERI2
 70
     1
  9
$USERI3
 70
     0
  9
$USERI4
 70
     0
  9
$USERI5
 70
     0
  9
$USERR1
 40
1.0
  9
$USERR2
 40
3.0
  9
$USERR3
 40
3.0
  9
$USERR4
 40
3.0
  9
$USERR5
 40
10.0
  9
$WORLDVIEW
 70
     1
  9
$SHADEDGE
 70
     3
  9
$SHADEDIF
 70
    70
  9
$TILEMODE
 70
     1
  9
$MAXACTVP
 70
    16
  9
$PLIMCHECK
 70
     0
  9
$PEXTMIN
 10
1.0000000000000000E+020
 20
1.0000000000000000E+020
 30
1.0000000000000000E+020
  9
$PEXTMAX
 10
-1.0000000000000000E+020
 20
-1.0000000000000000E+020
 30
-1.0000000000000000E+020
  9
$PLIMMIN
 10
0.0
 20
0.0
  9
$PLIMMAX
 10
12.0
 20
9.0
  9
$UNITMODE
 70
     0
  9
$VISRETAIN
 70
     0
  9
$PLINEGEN
 70
     0
  9
$PSLTSCALE
 70
     0
  0
ENDSEC
  0
SECTION
  2
TABLES
  0
TABLE
  2
VPORT
 70
     1
  0
VPORT
  2
*ACTIVE
 70
     0
 10
0.0
 20
0.0
 11
1.0
 21
1.0
 12
187.49427839065231
 22
134.10366293909439
 13
0.0
 23
0.0
 14
10.0
 24
10.0
 15
10.0
 25
10.0
 16
0.0
 26
0.0
 36
1.0
 17
0.0
 27
0.0
 37
0.0
 40
277.29405978699532
 41
2.304913294797688
 42
50.0
 43
0.0
 44
0.0
 50
0.0
 51
0.0
 71
    16
 72
   100
 73
     1
 74
     0
 75
     0
 76
     0
 77
     0
 78
     0
  0
ENDTAB
  0
TABLE
  2
LTYPE
 70
     3
  0
LTYPE
  2
CONTINUOUS
 70
     0
  3
Solid Line
 72
    65
 73
     0
 40
0.0
  0
LTYPE
  2
PHANTOM2
 70
     0
  3
___ _ _ ___ _ _ ___ _ _ ___ _ _
 72
    65
 73
     6
 40
1.25
 49
0.625
 49
-0.125
 49
0.125
 49
-0.125
 49
0.125
 49
-0.125
  0
LTYPE
  2
CENTER
 70
     0
  3
____ _ ____ _ ____ _ ____ _ ____ _ ____ _ ____
 72
    65
 73
     4
 40
2.0
 49
1.25
 49
-0.25
 49
0.25
 49
-0.25
  0
ENDTAB
  0
TABLE
  2
LAYER
 70
     3
  0
LAYER
  2
0
 70
     0
 62
     7
  6
CONTINUOUS
  0
LAYER
  2
1
 70
     0
 62
     1
  6
CENTER
  0
LAYER
  2
3
 70
     0
 62
     3
  6
CONTINUOUS
  0
ENDTAB
  0
TABLE
  2
STYLE
 70
     3
  0
STYLE
  2
STANDARD
 70
     0
 40
0.0
 41
1.0
 50
0.0
 71
     0
 42
0.2
  3
SIMPLEX
  4
BIGFONT
  0
STYLE
  2
ANNOTATIVE
 70
     0
 40
0.0
 41
1.0
 50
0.0
 71
     0
 42
0.2
  3
txt
  4

  0
STYLE
  2
STANDARD1
 70
     0
 40
0.0
 41
1.0
 50
0.0
 71
     0
 42
3.0
  3
txt
  4

  0
ENDTAB
  0
TABLE
  2
VIEW
 70
     0
  0
ENDTAB
  0
TABLE
  2
UCS
 70
     0
  0
ENDTAB
  0
TABLE
  2
APPID
 70
    29
  0
APPID
  2
ACAD
 70
     0
  0
APPID
  2
ACADANNOTATIVE
 70
     0
  0
APPID
  2
GENIUS_GENOREF_13
 70
     0
  0
APPID
  2
GENIUS_GENOENT_13
 70
     0
  0
APPID
  2
GENIUS_GENBH_13
 70
     0
  0
APPID
  2
GENIUS_GENOBJ_13
 70
     0
  0
APPID
  2
GENIUS_GENODEF_13
 70
     0
  0
APPID
  2
GENIUS_GENOLIS_13
 70
     0
  0
APPID
  2
GENIUS_GENOBJ-NBEHI-BHF_13
 70
     0
  0
APPID
  2
GENIUS_GENOBJ-NBEHI-BHB_13
 70
     0
  0
APPID
  2
GENIUS_GENOBJ-F-PART_13
 70
     0
  0
APPID
  2
GENIUS_GEFSTDP_13
 70
     0
  0
APPID
  2
GENIUS_GENOBJ-N-RSSYM_13
 70
     0
  0
APPID
  2
GENIUS_GENSYMENT_13
 70
     0
  0
APPID
  2
GENIUS_GENOBJ-N-TIT_13
 70
     0
  0
APPID
  2
GENIUS_GENTITLE_13
 70
     0
  0
APPID
  2
GENIUS_GENZVEED_13
 70
     0
  0
APPID
  2
GENIUS_GENOBJ-N-LEADER_13
 70
     0
  0
APPID
  2
GENIUS_GENOBJ-N-FIL_13
 70
     0
  0
APPID
  2
GENIUS_GENOBJ-N-SEC_13
 70
     0
  0
APPID
  2
GENIUS_GENOBJ-N-CRS_13
 70
     0
  0
APPID
  2
GENIUS_GENOBJ-N-ZOO_13
 70
     0
  0
APPID
  2
GENIUS_GENZOO_13
 70
     0
  0
APPID
  2
GENIUS_GENOBJ-F-TOL_13
 70
     0
  0
APPID
  2
GENIUS_GENFIL_13
 70
     0
  0
APPID
  2
GENIUS_GENOBJ-N-CHA_13
 70
     0
  0
APPID
  2
ACAD_MLEADERVER
 70
     0
  0
APPID
  2
ACAD_EXEMPT_FROM_CAD_STANDARDS
 70
     0
  0
APPID
  2
ACAD_NAV_VCDISPLAY
 70
     0
  0
ENDTAB
  0
TABLE
  2
DIMSTYLE
 70
     2
  0
DIMSTYLE
  2
STANDARD
 70
     0
  3

  4

  5

  6

  7

 40
1.0
 41
0.18
 42
0.0625
 43
0.38
 44
0.18
 45
0.0
 46
0.0
 47
0.0
 48
0.0
140
0.18
141
0.09
142
0.0
143
25.399999999999999
144
1.0
145
0.0
146
1.0
147
0.09
 71
     0
 72
     0
 73
     1
 74
     1
 75
     0
 76
     0
 77
     0
 78
     0
170
     0
171
     2
172
     0
173
     0
174
     0
175
     0
176
     0
177
     0
178
     0
  0
DIMSTYLE
  2
ANNOTATIVE
 70
     0
  3

  4

  5

  6

  7

 40
1.0
 41
0.18
 42
0.0625
 43
0.38
 44
0.18
 45
0.0
 46
0.0
 47
0.0
 48
0.0
140
0.18
141
0.09
142
0.0
143
25.399999999999999
144
1.0
145
0.0
146
1.0
147
0.09
 71
     0
 72
     0
 73
     1
 74
     1
 75
     0
 76
     0
 77
     0
 78
     0
170
     0
171
     2
172
     0
173
     0
174
     0
175
     0
176
     0
177
     0
178
     0
  0
ENDTAB
  0
ENDSEC
  0
SECTION
  2
BLOCKS
  0
BLOCK
  8
0
  2
$MODEL_SPACE
 70
     0
 10
0.0
 20
0.0
 30
0.0
  3
$MODEL_SPACE
  1

  0
ENDBLK
  5
2EF1
  8
0
  0
BLOCK
 67
     1
  8
0
  2
$PAPER_SPACE
 70
     0
 10
0.0
 20
0.0
 30
0.0
  3
$PAPER_SPACE
  1

  0
ENDBLK
  5
2EED
 67
     1
  8
0
  0
ENDSEC
  0
SECTION
  2
ENTITIES
  0
LINE
  5
272F
  8
1
 10
61.930303399375127
 20
203.90878785152421
 30
0.0
 11
15.930303399375131
 21
203.90878785152421
 31
0.0
  0
LINE
  5
2730
  8
1
 10
38.930303399375141
 20
226.90878785152421
 30
0.0
 11
38.930303399375141
 21
180.9087878515241
 31
0.0
  0
CIRCLE
  5
2731
  8
0
 10
38.930303399375141
 20
203.90878785152421
 30
0.0
 40
11.500000000000011
  0
CIRCLE
  5
2733
  8
0
 10
38.930303399375141
 20
203.90878785152421
 30
0.0
 40
20.0
  0
LINE
  5
2761
  8
0
 10
45.858506629650599
 20
215.9087878515241
 30
0.0
 11
32.002100169099663
 21
215.9087878515241
 31
0.0
  0
LINE
  5
2762
  8
0
 10
32.002100169099663
 20
215.9087878515241
 30
0.0
 11
25.073896938824081
 21
203.90878785152421
 31
0.0
  0
LINE
  5
2763
  8
0
 10
25.073896938824081
 20
203.90878785152421
 30
0.0
 11
32.002100169099663
 21
191.9087878515241
 31
0.0
  0
LINE
  5
2764
  8
0
 10
32.002100169099663
 20
191.9087878515241
 30
0.0
 11
45.858506629650599
 21
191.9087878515241
 31
0.0
  0
LINE
  5
2765
  8
0
 10
45.858506629650599
 20
191.9087878515241
 30
0.0
 11
52.786709859926191
 21
203.90878785152421
 31
0.0
  0
LINE
  5
2766
  8
0
 10
52.786709859926191
 20
203.90878785152421
 30
0.0
 11
45.858506629650599
 21
215.9087878515241
 31
0.0
  0
CIRCLE
  5
2767
  8
0
 10
38.930303399375141
 20
203.90878785152421
 30
0.0
 40
8.0
  0
CIRCLE
  5
2768
  8
3
 10
38.930303399375141
 20
203.90878785152421
 30
0.0
 40
6.9175000000000004
  0
ARC
  5
276B
  8
0
 10
109.2158654852248
 20
72.415707358668456
 30
0.0
 40
17.330127017333279
 50
69.7438419976407
 51
110.2561580023593
  0
LINE
  5
276C
  8
0
 10
115.2158654852398
 20
89.745834376001753
 30
0.0
 11
114.7158654852248
 21
90.034509510605162
 31
0.0
  0
LINE
  5
276D
  8
0
 10
115.2158654852398
 20
77.323184645131732
 30
0.0
 11
114.7158654852248
 21
77.034509510528324
 31
0.0
  0
ARC
  5
276E
  8
0
 10
109.2158654852248
 20
94.653311662465043
 30
0.0
 40
17.330127017333279
 50
249.74384199764069
 51
290.25615800235931
  0
LINE
  5
276F
  8
0
 10
115.2158654852398
 20
89.745834376001753
 30
0.0
 11
115.2158654852248
 21
77.323184645123092
 31
0.0
  0
LINE
  5
2771
  8
0
 10
91.215865485209775
 20
89.745834376001753
 30
0.0
 11
91.215865485224796
 21
77.323184645123092
 31
0.0
  0
ARC
  5
2772
  8
0
 10
97.215865485224811
 20
94.653311662465043
 30
0.0
 40
17.330127017333279
 50
249.74384199764069
 51
290.25615800235931
  0
LINE
  5
2773
  8
0
 10
91.215865485209775
 20
77.323184645131732
 30
0.0
 11
91.715865485224796
 21
77.034509510528324
 31
0.0
  0
LINE
  5
2774
  8
0
 10
91.215865485209775
 20
89.745834376001753
 30
0.0
 11
91.715865485224796
 21
90.034509510605162
 31
0.0
  0
ARC
  5
2775
  8
0
 10
97.215865485224811
 20
72.415707358668456
 30
0.0
 40
17.330127017333279
 50
69.7438419976407
 51
110.2561580023593
  0
LINE
  5
2776
  8
0
 10
91.715865485158403
 20
90.034509510566764
 30
0.0
 11
114.7158654852248
 21
90.034509510605162
 31
0.0
  0
LINE
  5
2777
  8
0
 10
114.7158654852248
 20
77.034509510528324
 30
0.0
 11
91.715865485158403
 21
77.03450951056675
 31
0.0
  0
LINE
  5
2788
  8
0
 10
97.215865485191685
 20
157.24583437598261
 30
0.0
 11
109.2158654851916
 21
157.24583437598261
 31
0.0
  0
LINE
  5
2789
  8
0
 10
111.2158654851917
 20
49.083206824087277
 30
0.0
 11
111.2158654852261
 21
77.034509510534107
 31
0.0
  0
LINE
  5
278A
  8
3
 10
110.1333654851917
 20
51.24583437598298
 30
0.0
 11
110.13336548522599
 21
77.034509510536054
 31
0.0
  0
LINE
  5
278B
  8
0
 10
109.2158654851916
 20
157.24583437598261
 30
0.0
 11
111.2158654851916
 21
155.24583437598261
 31
0.0
  0
LINE
  5
278C
  8
0
 10
111.2158654851916
 20
155.24583437598261
 30
0.0
 11
95.215865485191685
 21
155.24583437598261
 31
0.0
  0
LINE
  5
278F
  8
3
 10
96.298365485191653
 20
51.24583437598293
 30
0.0
 11
96.298365485226071
 21
77.034509510559019
 31
0.0
  0
LINE
  5
2790
  8
0
 10
95.215865485191685
 20
49.136767683554361
 30
0.0
 11
95.215865485226075
 21
77.034509510560937
 31
0.0
  0
LINE
  5
2791
  8
0
 10
95.215865485191685
 20
155.24583437598281
 30
0.0
 11
97.215865485191685
 21
157.24583437598261
 31
0.0
  0
LINE
  5
2793
  8
3
 10
96.298365485226071
 20
90.034509510574381
 30
0.0
 11
96.298365485191653
 21
156.32833437598259
 31
0.0
  0
LINE
  5
2794
  8
0
 10
95.215865485226075
 20
90.034509510572548
 30
0.0
 11
95.215865485191685
 21
155.24583437598281
 31
0.0
  0
LINE
  5
2795
  8
0
 10
111.2158654852261
 20
90.034509510599477
 30
0.0
 11
111.2158654851916
 21
155.24583437598261
 31
0.0
  0
LINE
  5
2796
  8
3
 10
110.13336548522599
 20
90.034509510597559
 30
0.0
 11
110.1333654851917
 21
156.32833437598259
 31
0.0
  0
ARC
  5
2799
  8
0
 10
38.930303399374907
 20
66.817631147843031
 30
0.0
 40
22.928203228139491
 50
72.412046224314139
 51
107.5879537756858
  0
ARC
  5
279A
  8
0
 10
28.537998553961359
 20
83.611859780261739
 30
0.0
 40
6.1339745957208196
 50
55.61575252878869
 51
115.6157525301479
  0
LINE
  5
279B
  8
0
 10
25.073896938801852
 20
88.674037606153306
 30
0.0
 11
27.430303399482629
 21
90.034509510547537
 31
0.0
  0
LINE
  5
279C
  8
0
 10
25.073896938801852
 20
78.394981414941725
 30
0.0
 11
27.430303399482629
 21
77.034509510547537
 31
0.0
  0
ARC
  5
279D
  8
0
 10
28.537998553961359
 20
83.457159240833334
 30
0.0
 40
6.1339745957208196
 50
244.38424746985211
 51
304.38424747121132
  0
ARC
  5
279E
  8
0
 10
38.930303399374907
 20
100.251387873252
 30
0.0
 40
22.928203228139491
 50
252.41204622431411
 51
287.58795377568589
  0
LINE
  5
279F
  8
0
 10
25.07389693882368
 20
88.674037606153306
 30
0.0
 11
25.07389693882368
 21
78.394981414929148
 31
0.0
  0
LINE
  5
27A0
  8
0
 10
32.002100169099492
 20
88.674037606153306
 30
0.0
 11
32.002100169099492
 21
78.394981414941725
 31
0.0
  0
LINE
  5
27A1
  8
0
 10
45.85850662965025
 20
88.674037606153306
 30
0.0
 11
45.85850662965025
 21
78.394981414941725
 31
0.0
  0
LINE
  5
27A2
  8
0
 10
52.786709859926077
 20
88.674037606153306
 30
0.0
 11
52.786709859926077
 21
78.394981414929148
 31
0.0
  0
ARC
  5
27A3
  8
0
 10
49.322608244788398
 20
83.457159240833334
 30
0.0
 40
6.1339745957208196
 50
235.6157525287887
 51
295.61575253014792
  0
LINE
  5
27A4
  8
0
 10
52.786709859947891
 20
78.394981414941725
 30
0.0
 11
50.430303399267132
 21
77.034509510547537
 31
0.0
  0
LINE
  5
27A5
  8
0
 10
52.786709859947891
 20
88.674037606153306
 30
0.0
 11
50.430303399267132
 21
90.034509510547537
 31
0.0
  0
ARC
  5
27A6
  8
0
 10
49.322608244788398
 20
83.611859780261739
 30
0.0
 40
6.1339745957208196
 50
64.38424746985207
 51
124.3842474712113
  0
LINE
  5
27A7
  8
0
 10
27.43030339937485
 20
90.034509510547537
 30
0.0
 11
50.430303399267132
 21
90.034509510547537
 31
0.0
  0
LINE
  5
27A8
  8
0
 10
50.430303399267132
 20
77.034509510547537
 30
0.0
 11
27.430303399482629
 21
77.034509510547537
 31
0.0
  0
LINE
  5
27AC
  8
0
 10
46.930303399375127
 20
155.24583437598261
 30
0.0
 11
30.930303399375131
 21
155.24583437598261
 31
0.0
  0
LINE
  5
27AD
  8
0
 10
44.930303399375127
 20
157.24583437598261
 30
0.0
 11
46.930303399375127
 21
155.24583437598261
 31
0.0
  0
LINE
  5
27AE
  8
0
 10
30.930303399375131
 20
155.24583437598281
 30
0.0
 11
32.930303399375141
 21
157.24583437598261
 31
0.0
  0
LINE
  5
27AF
  8
0
 10
30.930303399375131
 20
49.109987253820307
 30
0.0
 11
30.930303399375131
 21
77.034509510547537
 31
0.0
  0
LINE
  5
27B0
  8
3
 10
32.012803399375123
 20
51.24583437598298
 30
0.0
 11
32.012803399375123
 21
77.034509510547423
 31
0.0
  0
LINE
  5
27B1
  8
3
 10
45.847803399375152
 20
51.24583437598298
 30
0.0
 11
45.847803399375152
 21
77.034509510547423
 31
0.0
  0
LINE
  5
27B2
  8
0
 10
46.930303399375127
 20
49.109987253819718
 30
0.0
 11
46.930303399375127
 21
77.034509510547423
 31
0.0
  0
LINE
  5
27B3
  8
0
 10
32.930303399375141
 20
157.24583437598261
 30
0.0
 11
44.930303399375127
 21
157.24583437598261
 31
0.0
  0
LINE
  5
27C1
  8
3
 10
45.847803399375152
 20
90.034509510547537
 30
0.0
 11
45.847803399375152
 21
156.32833437598259
 31
0.0
  0
LINE
  5
27C2
  8
0
 10
46.930303399375127
 20
90.034509510547622
 30
0.0
 11
46.930303399375127
 21
155.24583437598261
 31
0.0
  0
LINE
  5
27C3
  8
3
 10
32.012803399375123
 20
90.034509510547622
 30
0.0
 11
32.012803399375123
 21
156.32833437598259
 31
0.0
  0
LINE
  5
27C4
  8
0
 10
30.930303399375131
 20
90.034509510547537
 30
0.0
 11
30.930303399375131
 21
155.24583437598281
 31
0.0
  0
LINE
  5
27CA
  8
1
 10
38.930303399375141
 20
21.245834375982749
 30
0.0
 11
38.930303399375141
 21
160.2458343759827
 31
0.0
  0
LINE
  5
27CB
  8
1
 10
103.2158654851915
 20
21.245834375982671
 30
0.0
 11
103.2158654851917
 21
160.2458343759827
 31
0.0
  0
LINE
  5
2A10
  8
0
 10
31.16559751702161
 20
44.245834375982753
 30
0.0
 11
46.695009281727522
 21
44.245834375982753
 31
0.0
  0
LINE
  5
2A11
  8
0
 10
46.695009281726513
 20
49.245834375982753
 30
0.0
 11
31.165597517022601
 21
49.245834375982753
 31
0.0
  0
ARC
  5
2A12
  8
0
 10
34.930303399374623
 20
37.55656924119269
 30
0.0
 40
11.55341801262729
 50
69.743841999607582
 51
110.2561580003909
  0
LINE
  5
2A13
  8
0
 10
30.930303399374569
 20
49.10998725381998
 30
0.0
 11
31.165597517022601
 21
49.245834375982753
 31
0.0
  0
ARC
  5
2A14
  8
0
 10
34.930303399374601
 20
55.935099510772233
 30
0.0
 40
11.55341801262729
 50
249.74384199960909
 51
290.25615800039242
  0
LINE
  5
2A15
  8
0
 10
30.930303399374541
 20
44.38168149814507
 30
0.0
 11
31.165597517022579
 21
44.24583437598217
 31
0.0
  0
LINE
  5
2A16
  8
0
 10
30.930303399374569
 20
49.10998725381998
 30
0.0
 11
30.930303399374601
 21
44.38168149814507
 31
0.0
  0
LINE
  5
2A17
  8
0
 10
38.930303399374623
 20
48.395456074004031
 30
0.0
 11
38.930303399374587
 21
45.096212677960651
 31
0.0
  0
LINE
  5
2A18
  8
0
 10
46.930303399374672
 20
49.10998725381998
 30
0.0
 11
46.930303399374573
 21
44.38168149814507
 31
0.0
  0
ARC
  5
2A19
  8
0
 10
42.93030339937458
 20
55.935099510772233
 30
0.0
 40
11.55341801262729
 50
249.74384199960909
 51
290.25615800039242
  0
LINE
  5
2A1A
  8
0
 10
46.930303399374637
 20
44.38168149814507
 30
0.0
 11
46.695009281726549
 21
44.24583437598217
 31
0.0
  0
LINE
  5
2A1B
  8
0
 10
46.930303399374672
 20
49.10998725381998
 30
0.0
 11
46.695009281726577
 21
49.245834375982753
 31
0.0
  0
ARC
  5
2A1C
  8
0
 10
42.930303399374623
 20
37.55656924119269
 30
0.0
 40
11.55341801262729
 50
69.743841999607582
 51
110.2561580003909
  0
LINE
  5
2A1D
  8
0
 10
30.930303399375131
 20
51.24583437598298
 30
0.0
 11
46.930303399375127
 21
51.24583437598298
 31
0.0
  0
LINE
  5
2A1E
  8
3
 10
32.012803399375123
 20
51.24583437598298
 30
0.0
 11
30.930303399375131
 21
49.370889376789677
 31
0.0
  0
LINE
  5
2A1F
  8
3
 10
45.847803399375152
 20
51.24583437598298
 30
0.0
 11
46.930303399375127
 21
49.370889376789677
 31
0.0
  0
LINE
  5
2A20
  8
0
 10
44.430303399373642
 20
41.24583437598276
 30
0.0
 11
44.430303399374473
 21
44.245834375982753
 31
0.0
  0
LINE
  5
2A21
  8
0
 10
33.430303399373663
 20
41.245834375982753
 30
0.0
 11
33.43030339937448
 21
44.245834375982753
 31
0.0
  0
LINE
  5
2A22
  8
3
 10
96.298365485191695
 20
51.24583437598298
 30
0.0
 11
95.215865485191713
 21
49.370889376789677
 31
0.0
  0
LINE
  5
2A23
  8
3
 10
110.1333654851917
 20
51.24583437598298
 30
0.0
 11
111.2158654851916
 21
49.370889376789677
 31
0.0
  0
LINE
  5
2A24
  8
0
 10
95.215865485191713
 20
51.24583437598298
 30
0.0
 11
111.2158654851916
 21
51.24583437598298
 31
0.0
  0
LINE
  5
2A25
  8
0
 10
110.93418630259779
 20
44.24583437598298
 30
0.0
 11
95.404774537891413
 21
44.24583437598298
 31
0.0
  0
LINE
  5
2A26
  8
0
 10
95.404774537891697
 20
49.245834375983087
 30
0.0
 11
110.93418630259779
 21
49.245834375982859
 31
0.0
  0
ARC
  5
2A27
  8
0
 10
110.0976836505201
 20
45.020670856339251
 30
0.0
 40
4.0893163974808306
 50
64.38424746789093
 51
124.3842474680048
  0
LINE
  5
2A28
  8
0
 10
112.4070847272786
 20
48.3954560740045
 30
0.0
 11
110.9341863025976
 21
49.245834375983087
 31
0.0
  0
LINE
  5
2A29
  8
0
 10
112.4070847272786
 20
45.096212677961333
 30
0.0
 11
110.9341863025975
 21
44.245834375982753
 31
0.0
  0
ARC
  5
2A2A
  8
0
 10
110.0976836505201
 20
48.470997895626567
 30
0.0
 40
4.0893163974808306
 50
235.61575253199521
 51
295.61575253210918
  0
LINE
  5
2A2B
  8
0
 10
112.4070847272786
 20
48.3954560740045
 30
0.0
 11
112.4070847272786
 21
45.096212677961333
 31
0.0
  0
LINE
  5
2A2C
  8
0
 10
107.7882825737626
 20
48.3954560740045
 30
0.0
 11
107.788282573762
 21
45.09621267796112
 31
0.0
  0
LINE
  5
2A2D
  8
0
 10
98.550678266726678
 20
48.3954560740045
 30
0.0
 11
98.550678266727303
 21
45.09621267796112
 31
0.0
  0
LINE
  5
2A2E
  8
0
 10
93.931876113210734
 20
48.3954560740045
 30
0.0
 11
93.931876113210691
 21
45.096212677961333
 31
0.0
  0
ARC
  5
2A2F
  8
0
 10
103.1694804202441
 20
59.667150318349599
 30
0.0
 40
15.28546882020385
 50
252.41204622602959
 51
287.58795377396882
  0
ARC
  5
2A30
  8
0
 10
96.241277189969139
 20
48.470997895626567
 30
0.0
 40
4.0893163974808306
 50
244.3842474678909
 51
304.38424746800479
  0
LINE
  5
2A31
  8
0
 10
93.931876113210691
 20
45.096212677961333
 30
0.0
 11
95.404774537891697
 21
44.245834375982753
 31
0.0
  0
LINE
  5
2A32
  8
0
 10
93.931876113210734
 20
48.3954560740045
 30
0.0
 11
95.404774537891697
 21
49.245834375983087
 31
0.0
  0
ARC
  5
2A33
  8
0
 10
103.1694804202442
 20
33.824518433616248
 30
0.0
 40
15.28546882020385
 50
72.412046226031165
 51
107.58795377396881
  0
ARC
  5
2A34
  8
0
 10
96.241277189969153
 20
45.020670856339251
 30
0.0
 40
4.0893163974808306
 50
55.615752531995213
 51
115.615752532109
  0
LINE
  5
2A35
  8
0
 10
97.715865485191046
 20
41.245834375982668
 30
0.0
 11
97.715865485191785
 21
44.245834375982838
 31
0.0
  0
LINE
  5
2A36
  8
0
 10
108.715865485191
 20
41.245834375982668
 30
0.0
 11
108.7158654851918
 21
44.245834375982838
 31
0.0
  0
LINE
  5
2A37
  8
0
 10
50.93636682587325
 20
35.280922802914731
 30
0.0
 11
49.930303399374559
 21
41.245834375982753
 31
0.0
  0
LINE
  5
2A38
  8
0
 10
58.930303399374573
 20
29.745834375982749
 30
0.0
 11
50.93636682587325
 21
35.280922802914731
 31
0.0
  0
LINE
  5
2A39
  8
0
 10
58.430303399374559
 20
24.245834375982749
 30
0.0
 11
58.930303399374573
 21
24.745834375982749
 31
0.0
  0
LINE
  5
2A3A
  8
0
 10
49.930303399374559
 20
41.24583437598276
 30
0.0
 11
27.930303399374569
 21
41.245834375982753
 31
0.0
  0
LINE
  5
2A3B
  8
0
 10
58.930303399374573
 20
29.745834375982749
 30
0.0
 11
19.01757872401566
 21
29.745834375982749
 31
0.0
  0
LINE
  5
2A3C
  8
0
 10
58.430303399374559
 20
24.245834375982749
 30
0.0
 11
19.430303399374559
 21
24.245834375982749
 31
0.0
  0
LINE
  5
2A3D
  8
0
 10
58.930303399374573
 20
24.745834375982749
 30
0.0
 11
58.930303399374573
 21
29.745834375982749
 31
0.0
  0
LINE
  5
2A3E
  8
0
 10
26.924239972875881
 20
35.280922802914731
 30
0.0
 11
27.930303399374569
 21
41.245834375982753
 31
0.0
  0
LINE
  5
2A3F
  8
0
 10
18.930303399374559
 20
29.745834375982749
 30
0.0
 11
26.924239972875881
 21
35.280922802914731
 31
0.0
  0
LINE
  5
2A40
  8
0
 10
19.430303399374559
 20
24.245834375982749
 30
0.0
 11
18.930303399374559
 21
24.745834375982749
 31
0.0
  0
LINE
  5
2A41
  8
0
 10
18.930303399374559
 20
24.745834375982749
 30
0.0
 11
18.930303399374559
 21
29.745834375982749
 31
0.0
  0
LINE
  5
2A42
  8
0
 10
26.924239972875881
 20
35.280922802914731
 30
0.0
 11
50.93636682587325
 21
35.280922802914731
 31
0.0
  0
LINE
  5
2A46
  8
0
 10
115.2219289116896
 20
35.28092280291466
 30
0.0
 11
114.215865485191
 21
41.245834375982668
 31
0.0
  0
LINE
  5
2A47
  8
0
 10
123.215865485191
 20
29.745834375982671
 30
0.0
 11
115.2219289116896
 21
35.28092280291466
 31
0.0
  0
LINE
  5
2A48
  8
0
 10
122.715865485191
 20
24.245834375982671
 30
0.0
 11
123.215865485191
 21
24.745834375982671
 31
0.0
  0
LINE
  5
2A49
  8
0
 10
114.215865485191
 20
41.245834375982668
 30
0.0
 11
92.215865485191003
 21
41.245834375982668
 31
0.0
  0
LINE
  5
2A4A
  8
0
 10
123.215865485191
 20
29.745834375982671
 30
0.0
 11
83.303140809832072
 21
29.745834375982671
 31
0.0
  0
LINE
  5
2A4B
  8
0
 10
122.715865485191
 20
24.245834375982671
 30
0.0
 11
83.715865485191017
 21
24.245834375982671
 31
0.0
  0
LINE
  5
2A4C
  8
0
 10
123.215865485191
 20
24.745834375982671
 30
0.0
 11
123.215865485191
 21
29.745834375982671
 31
0.0
  0
LINE
  5
2A4D
  8
0
 10
91.209802058692318
 20
35.28092280291466
 30
0.0
 11
92.215865485191003
 21
41.245834375982668
 31
0.0
  0
LINE
  5
2A4E
  8
0
 10
83.215865485191017
 20
29.745834375982671
 30
0.0
 11
91.209802058692318
 21
35.28092280291466
 31
0.0
  0
LINE
  5
2A4F
  8
0
 10
83.715865485191017
 20
24.245834375982671
 30
0.0
 11
83.215865485191017
 21
24.745834375982671
 31
0.0
  0
LINE
  5
2A50
  8
0
 10
83.215865485191017
 20
24.745834375982671
 30
0.0
 11
83.215865485191017
 21
29.745834375982671
 31
0.0
  0
LINE
  5
2A51
  8
0
 10
91.209802058692318
 20
35.28092280291466
 30
0.0
 11
115.2219289116896
 21
35.28092280291466
 31
0.0
  0
LINE
  5
2E1A
  8
0
 10
103.2158654851916
 20
88.674037606184697
 30
0.0
 11
103.2158654851916
 21
78.394981414973273
 31
0.0
  0
TEXT
  5
2F71
  8
0
 62
     3
 10
0.0
 20
0.0
 30
0.0
 40
10.0
  1
LSA40S16B-SUS
  7
STANDARD1
  0
ENDSEC
  0
EOF
