  0
SECTION
  2
HEADER
  9
$ACADVER
  1
AC1009
  9
$INSBASE
 10
0.0
 20
0.0
 30
0.0
  9
$EXTMIN
 10
0.0
 20
-2.960436562073669
 30
0.0
  9
$EXTMAX
 10
117.49905267479519
 20
273.15995731273921
 30
0.0
  9
$LIMMIN
 10
0.0
 20
0.0
  9
$LIMMAX
 10
375.0
 20
270.0
  9
$ORTHOMODE
 70
     1
  9
$REGENMODE
 70
     1
  9
$FILLMODE
 70
     1
  9
$QTEXTMODE
 70
     0
  9
$MIRRTEXT
 70
     0
  9
$DRAGMODE
 70
     2
  9
$LTSCALE
 40
6.0
  9
$OSMODE
 70
    37
  9
$ATTMODE
 70
     1
  9
$TEXTSIZE
 40
0.2
  9
$TRACEWID
 40
0.05
  9
$TEXTSTYLE
  7
STANDARD
  9
$CLAYER
  8
0
  9
$CELTYPE
  6
BYLAYER
  9
$CECOLOR
 62
   256
  9
$DIMSCALE
 40
1.0
  9
$DIMASZ
 40
3.0
  9
$DIMEXO
 40
1.0
  9
$DIMDLI
 40
6.0
  9
$DIMRND
 40
0.0
  9
$DIMDLE
 40
0.0
  9
$DIMEXE
 40
1.0
  9
$DIMTP
 40
495.0
  9
$DIMTM
 40
0.0
  9
$DIMTXT
 40
3.0
  9
$DIMCEN
 40
0.0
  9
$DIMTSZ
 40
0.0
  9
$DIMTOL
 70
     0
  9
$DIMLIM
 70
     0
  9
$DIMTIH
 70
     0
  9
$DIMTOH
 70
     0
  9
$DIMSE1
 70
     0
  9
$DIMSE2
 70
     0
  9
$DIMTAD
 70
     1
  9
$DIMZIN
 70
     0
  9
$DIMBLK
  1

  9
$DIMASO
 70
     0
  9
$DIMSHO
 70
     0
  9
$DIMPOST
  1

  9
$DIMAPOST
  1

  9
$DIMALT
 70
     0
  9
$DIMALTD
 70
     2
  9
$DIMALTF
 40
25.399999999999999
  9
$DIMLFAC
 40
1.0
  9
$DIMTOFL
 70
     1
  9
$DIMTVP
 40
0.0
  9
$DIMTIX
 70
     1
  9
$DIMSOXD
 70
     0
  9
$DIMSAH
 70
     0
  9
$DIMBLK1
  1

  9
$DIMBLK2
  1

  9
$DIMSTYLE
  2
STANDARD
  9
$DIMCLRD
 70
     0
  9
$DIMCLRE
 70
     0
  9
$DIMCLRT
 70
     4
  9
$DIMTFAC
 40
1.0
  9
$DIMGAP
 40
1.0
  9
$LUNITS
 70
     2
  9
$LUPREC
 70
     4
  9
$SKETCHINC
 40
0.1
  9
$FILLETRAD
 40
2.0
  9
$AUNITS
 70
     0
  9
$AUPREC
 70
     0
  9
$MENU
  1
C:\R13\WIN\SUPPORT\ACAD-I
  9
$ELEVATION
 40
0.0
  9
$PELEVATION
 40
0.0
  9
$THICKNESS
 40
0.0
  9
$LIMCHECK
 70
     0
  9
$BLIPMODE
 70
     0
  9
$CHAMFERA
 40
0.0
  9
$CHAMFERB
 40
0.0
  9
$SKPOLY
 70
     0
  9
$TDCREATE
 40
2451961.7174088769
  9
$TDUPDATE
 40
2456598.7175270952
  9
$TDINDWG
 40
0.0831152778
  9
$TDUSRTIMER
 40
2456598.0096023032
  9
$USRTIMER
 70
     1
  9
$ANGBASE
 50
0.0
  9
$ANGDIR
 70
     0
  9
$PDMODE
 70
     0
  9
$PDSIZE
 40
0.0
  9
$PLINEWID
 40
0.0
  9
$COORDS
 70
     1
  9
$SPLFRAME
 70
     0
  9
$SPLINETYPE
 70
     6
  9
$SPLINESEGS
 70
     8
  9
$ATTDIA
 70
     0
  9
$ATTREQ
 70
     1
  9
$HANDLING
 70
     1
  9
$HANDSEED
  5
2FDF
  9
$SURFTAB1
 70
     6
  9
$SURFTAB2
 70
     6
  9
$SURFTYPE
 70
     6
  9
$SURFU
 70
     6
  9
$SURFV
 70
     6
  9
$UCSNAME
  2

  9
$UCSORG
 10
0.0
 20
0.0
 30
0.0
  9
$UCSXDIR
 10
1.0
 20
0.0
 30
0.0
  9
$UCSYDIR
 10
0.0
 20
1.0
 30
0.0
  9
$PUCSNAME
  2

  9
$PUCSORG
 10
0.0
 20
0.0
 30
0.0
  9
$PUCSXDIR
 10
1.0
 20
0.0
 30
0.0
  9
$PUCSYDIR
 10
0.0
 20
1.0
 30
0.0
  9
$USERI1
 70
     4
  9
$USERI2
 70
     1
  9
$USERI3
 70
     0
  9
$USERI4
 70
     0
  9
$USERI5
 70
     0
  9
$USERR1
 40
1.0
  9
$USERR2
 40
3.0
  9
$USERR3
 40
3.0
  9
$USERR4
 40
3.0
  9
$USERR5
 40
10.0
  9
$WORLDVIEW
 70
     1
  9
$SHADEDGE
 70
     3
  9
$SHADEDIF
 70
    70
  9
$TILEMODE
 70
     1
  9
$MAXACTVP
 70
    16
  9
$PLIMCHECK
 70
     0
  9
$PEXTMIN
 10
1.0000000000000000E+020
 20
1.0000000000000000E+020
 30
1.0000000000000000E+020
  9
$PEXTMAX
 10
-1.0000000000000000E+020
 20
-1.0000000000000000E+020
 30
-1.0000000000000000E+020
  9
$PLIMMIN
 10
0.0
 20
0.0
  9
$PLIMMAX
 10
12.0
 20
9.0
  9
$UNITMODE
 70
     0
  9
$VISRETAIN
 70
     0
  9
$PLINEGEN
 70
     0
  9
$PSLTSCALE
 70
     0
  0
ENDSEC
  0
SECTION
  2
TABLES
  0
TABLE
  2
VPORT
 70
     1
  0
VPORT
  2
*ACTIVE
 70
     0
 10
0.0
 20
0.0
 11
1.0
 21
1.0
 12
187.49427839065231
 22
177.52205812711131
 13
0.0
 23
0.0
 14
10.0
 24
10.0
 15
10.0
 25
10.0
 16
0.0
 26
0.0
 36
1.0
 17
0.0
 27
0.0
 37
0.0
 40
364.13085016302909
 41
1.755244755244755
 42
50.0
 43
0.0
 44
0.0
 50
0.0
 51
0.0
 71
    16
 72
   100
 73
     1
 74
     0
 75
     0
 76
     0
 77
     0
 78
     0
  0
ENDTAB
  0
TABLE
  2
LTYPE
 70
     3
  0
LTYPE
  2
CONTINUOUS
 70
     0
  3
Solid Line
 72
    65
 73
     0
 40
0.0
  0
LTYPE
  2
PHANTOM2
 70
     0
  3
___ _ _ ___ _ _ ___ _ _ ___ _ _
 72
    65
 73
     6
 40
1.25
 49
0.625
 49
-0.125
 49
0.125
 49
-0.125
 49
0.125
 49
-0.125
  0
LTYPE
  2
CENTER
 70
     0
  3
____ _ ____ _ ____ _ ____ _ ____ _ ____ _ ____
 72
    65
 73
     4
 40
2.0
 49
1.25
 49
-0.25
 49
0.25
 49
-0.25
  0
ENDTAB
  0
TABLE
  2
LAYER
 70
     3
  0
LAYER
  2
0
 70
     0
 62
     7
  6
CONTINUOUS
  0
LAYER
  2
1
 70
     0
 62
     1
  6
CENTER
  0
LAYER
  2
3
 70
     0
 62
     3
  6
CONTINUOUS
  0
ENDTAB
  0
TABLE
  2
STYLE
 70
     3
  0
STYLE
  2
STANDARD
 70
     0
 40
0.0
 41
1.0
 50
0.0
 71
     0
 42
0.2
  3
SIMPLEX
  4
BIGFONT
  0
STYLE
  2
ANNOTATIVE
 70
     0
 40
0.0
 41
1.0
 50
0.0
 71
     0
 42
0.2
  3
txt
  4

  0
STYLE
  2
STANDARD1
 70
     0
 40
0.0
 41
1.0
 50
0.0
 71
     0
 42
3.0
  3
txt
  4

  0
ENDTAB
  0
TABLE
  2
VIEW
 70
     0
  0
ENDTAB
  0
TABLE
  2
UCS
 70
     0
  0
ENDTAB
  0
TABLE
  2
APPID
 70
    29
  0
APPID
  2
ACAD
 70
     0
  0
APPID
  2
ACADANNOTATIVE
 70
     0
  0
APPID
  2
GENIUS_GENOREF_13
 70
     0
  0
APPID
  2
GENIUS_GENOENT_13
 70
     0
  0
APPID
  2
GENIUS_GENBH_13
 70
     0
  0
APPID
  2
GENIUS_GENOBJ_13
 70
     0
  0
APPID
  2
GENIUS_GENODEF_13
 70
     0
  0
APPID
  2
GENIUS_GENOLIS_13
 70
     0
  0
APPID
  2
GENIUS_GENOBJ-NBEHI-BHF_13
 70
     0
  0
APPID
  2
GENIUS_GENOBJ-NBEHI-BHB_13
 70
     0
  0
APPID
  2
GENIUS_GENOBJ-F-PART_13
 70
     0
  0
APPID
  2
GENIUS_GEFSTDP_13
 70
     0
  0
APPID
  2
GENIUS_GENOBJ-N-RSSYM_13
 70
     0
  0
APPID
  2
GENIUS_GENSYMENT_13
 70
     0
  0
APPID
  2
GENIUS_GENOBJ-N-TIT_13
 70
     0
  0
APPID
  2
GENIUS_GENTITLE_13
 70
     0
  0
APPID
  2
GENIUS_GENZVEED_13
 70
     0
  0
APPID
  2
GENIUS_GENOBJ-N-LEADER_13
 70
     0
  0
APPID
  2
GENIUS_GENOBJ-N-FIL_13
 70
     0
  0
APPID
  2
GENIUS_GENOBJ-N-SEC_13
 70
     0
  0
APPID
  2
GENIUS_GENOBJ-N-CRS_13
 70
     0
  0
APPID
  2
GENIUS_GENOBJ-N-ZOO_13
 70
     0
  0
APPID
  2
GENIUS_GENZOO_13
 70
     0
  0
APPID
  2
GENIUS_GENOBJ-F-TOL_13
 70
     0
  0
APPID
  2
GENIUS_GENFIL_13
 70
     0
  0
APPID
  2
GENIUS_GENOBJ-N-CHA_13
 70
     0
  0
APPID
  2
ACAD_MLEADERVER
 70
     0
  0
APPID
  2
ACAD_EXEMPT_FROM_CAD_STANDARDS
 70
     0
  0
APPID
  2
ACAD_NAV_VCDISPLAY
 70
     0
  0
ENDTAB
  0
TABLE
  2
DIMSTYLE
 70
     2
  0
DIMSTYLE
  2
STANDARD
 70
     0
  3

  4

  5

  6

  7

 40
1.0
 41
0.18
 42
0.0625
 43
0.38
 44
0.18
 45
0.0
 46
0.0
 47
0.0
 48
0.0
140
0.18
141
0.09
142
0.0
143
25.399999999999999
144
1.0
145
0.0
146
1.0
147
0.09
 71
     0
 72
     0
 73
     1
 74
     1
 75
     0
 76
     0
 77
     0
 78
     0
170
     0
171
     2
172
     0
173
     0
174
     0
175
     0
176
     0
177
     0
178
     0
  0
DIMSTYLE
  2
ANNOTATIVE
 70
     0
  3

  4

  5

  6

  7

 40
1.0
 41
0.18
 42
0.0625
 43
0.38
 44
0.18
 45
0.0
 46
0.0
 47
0.0
 48
0.0
140
0.18
141
0.09
142
0.0
143
25.399999999999999
144
1.0
145
0.0
146
1.0
147
0.09
 71
     0
 72
     0
 73
     1
 74
     1
 75
     0
 76
     0
 77
     0
 78
     0
170
     0
171
     2
172
     0
173
     0
174
     0
175
     0
176
     0
177
     0
178
     0
  0
ENDTAB
  0
ENDSEC
  0
SECTION
  2
BLOCKS
  0
BLOCK
  8
0
  2
$MODEL_SPACE
 70
     0
 10
0.0
 20
0.0
 30
0.0
  3
$MODEL_SPACE
  1

  0
ENDBLK
  5
2EA6
  8
0
  0
BLOCK
 67
     1
  8
0
  2
$PAPER_SPACE
 70
     0
 10
0.0
 20
0.0
 30
0.0
  3
$PAPER_SPACE
  1

  0
ENDBLK
  5
2EA2
 67
     1
  8
0
  0
ENDSEC
  0
SECTION
  2
ENTITIES
  0
LINE
  5
2874
  8
1
 10
97.499052674795621
 20
27.49700383719755
 30
0.0
 11
97.499052674795834
 21
206.4970038371975
 31
0.0
  0
LINE
  5
2875
  8
1
 10
33.213490588979312
 20
27.497003837197639
 30
0.0
 11
33.213490588979312
 21
206.4970038371975
 31
0.0
  0
LINE
  5
287B
  8
0
 10
25.213490588979312
 20
96.285678971762536
 30
0.0
 11
25.213490588979312
 21
201.49700383719781
 31
0.0
  0
LINE
  5
287C
  8
3
 10
26.29599058897929
 20
96.285678971762536
 30
0.0
 11
26.29599058897929
 21
202.57950383719751
 31
0.0
  0
LINE
  5
287D
  8
0
 10
41.213490588979312
 20
96.285678971762536
 30
0.0
 11
41.213490588979312
 21
201.4970038371975
 31
0.0
  0
LINE
  5
287E
  8
3
 10
40.13099058897933
 20
96.285678971762536
 30
0.0
 11
40.13099058897933
 21
202.57950383719751
 31
0.0
  0
LINE
  5
288C
  8
0
 10
27.213490588979301
 20
203.4970038371975
 30
0.0
 11
39.213490588979312
 21
203.4970038371975
 31
0.0
  0
LINE
  5
288D
  8
0
 10
41.213490588979312
 20
55.361156715034589
 30
0.0
 11
41.213490588979312
 21
83.285678971762536
 31
0.0
  0
LINE
  5
288E
  8
3
 10
40.13099058897933
 20
57.497003837197859
 30
0.0
 11
40.13099058897933
 21
83.285678971762536
 31
0.0
  0
LINE
  5
288F
  8
3
 10
26.29599058897929
 20
57.497003837197859
 30
0.0
 11
26.29599058897929
 21
83.285678971762536
 31
0.0
  0
LINE
  5
2890
  8
0
 10
25.213490588979312
 20
55.3611567150352
 30
0.0
 11
25.213490588979312
 21
83.285678971762536
 31
0.0
  0
LINE
  5
2891
  8
0
 10
25.213490588979312
 20
201.49700383719781
 30
0.0
 11
27.213490588979301
 21
203.4970038371975
 31
0.0
  0
LINE
  5
2892
  8
0
 10
39.213490588979312
 20
203.4970038371975
 30
0.0
 11
41.213490588979312
 21
201.4970038371975
 31
0.0
  0
LINE
  5
2893
  8
0
 10
41.213490588979312
 20
201.4970038371975
 30
0.0
 11
25.213490588979312
 21
201.4970038371975
 31
0.0
  0
LINE
  5
2897
  8
0
 10
44.713490588871288
 20
83.285678971762536
 30
0.0
 11
21.713490589086859
 21
83.285678971762536
 31
0.0
  0
LINE
  5
2898
  8
0
 10
21.713490588979081
 20
96.285678971762536
 30
0.0
 11
44.713490588871288
 21
96.285678971762536
 31
0.0
  0
ARC
  5
2899
  8
0
 10
43.605795434392562
 20
89.863029241476838
 30
0.0
 40
6.1339745957208196
 50
64.38424746985207
 51
124.3842474712113
  0
LINE
  5
289A
  8
0
 10
47.069897049552083
 20
94.925207067368291
 30
0.0
 11
44.713490588871288
 21
96.285678971762536
 31
0.0
  0
LINE
  5
289B
  8
0
 10
47.069897049552083
 20
84.646150876156739
 30
0.0
 11
44.713490588871288
 21
83.285678971762536
 31
0.0
  0
ARC
  5
289C
  8
0
 10
43.605795434392562
 20
89.708328702048206
 30
0.0
 40
6.1339745957208196
 50
235.6157525287887
 51
295.6157525301478
  0
LINE
  5
289D
  8
0
 10
47.06989704953024
 20
94.925207067368291
 30
0.0
 11
47.06989704953024
 21
84.646150876144034
 31
0.0
  0
LINE
  5
289E
  8
0
 10
40.141693819254442
 20
94.925207067368291
 30
0.0
 11
40.141693819254442
 21
84.646150876156739
 31
0.0
  0
LINE
  5
289F
  8
0
 10
26.285287358703741
 20
94.925207067368291
 30
0.0
 11
26.285287358703741
 21
84.646150876156739
 31
0.0
  0
LINE
  5
28A0
  8
0
 10
19.35708412842791
 20
94.925207067368291
 30
0.0
 11
19.35708412842791
 21
84.646150876144034
 31
0.0
  0
ARC
  5
28A1
  8
0
 10
33.213490588979077
 20
106.5025573344669
 30
0.0
 40
22.928203228139491
 50
252.41204622431411
 51
287.58795377568589
  0
ARC
  5
28A2
  8
0
 10
22.821185743565589
 20
89.708328702048206
 30
0.0
 40
6.1339745957208196
 50
244.38424746985211
 51
304.38424747121132
  0
LINE
  5
28A3
  8
0
 10
19.357084128406079
 20
84.646150876156739
 30
0.0
 11
21.713490589086859
 21
83.285678971762536
 31
0.0
  0
LINE
  5
28A4
  8
0
 10
19.357084128406079
 20
94.925207067368291
 30
0.0
 11
21.713490589086859
 21
96.285678971762536
 31
0.0
  0
ARC
  5
28A5
  8
0
 10
22.821185743565589
 20
89.863029241476838
 30
0.0
 40
6.1339745957208196
 50
55.615752528788683
 51
115.6157525301479
  0
ARC
  5
28A6
  8
0
 10
33.213490588979077
 20
73.068800609058144
 30
0.0
 40
22.928203228139491
 50
72.412046224314153
 51
107.5879537756858
  0
LINE
  5
28A9
  8
3
 10
104.4165526747958
 20
96.285678971812615
 30
0.0
 11
104.4165526747958
 21
202.57950383719751
 31
0.0
  0
LINE
  5
28AA
  8
0
 10
105.49905267479581
 20
96.285678971814676
 30
0.0
 11
105.49905267479581
 21
201.4970038371975
 31
0.0
  0
LINE
  5
28AB
  8
0
 10
89.49905267479582
 20
96.285678971787604
 30
0.0
 11
89.49905267479582
 21
201.49700383719781
 31
0.0
  0
LINE
  5
28AC
  8
3
 10
90.581552674795802
 20
96.285678971789423
 30
0.0
 11
90.581552674795802
 21
202.57950383719751
 31
0.0
  0
LINE
  5
28AE
  8
0
 10
89.49905267479582
 20
201.49700383719781
 30
0.0
 11
91.499052674795834
 21
203.4970038371975
 31
0.0
  0
LINE
  5
28AF
  8
0
 10
89.49905267479582
 20
55.387937144769239
 30
0.0
 11
89.49905267479582
 21
83.285678971776022
 31
0.0
  0
LINE
  5
28B0
  8
3
 10
90.581552674795802
 20
57.497003837197809
 30
0.0
 11
90.581552674795802
 21
83.285678971774189
 31
0.0
  0
LINE
  5
28B3
  8
0
 10
105.49905267479581
 20
201.4970038371975
 30
0.0
 11
89.49905267479582
 21
201.4970038371975
 31
0.0
  0
LINE
  5
28B4
  8
0
 10
103.49905267479581
 20
203.4970038371975
 30
0.0
 11
105.49905267479581
 21
201.4970038371975
 31
0.0
  0
LINE
  5
28B5
  8
3
 10
104.41655267479589
 20
57.497003837197838
 30
0.0
 11
104.4165526747958
 21
83.285678971751011
 31
0.0
  0
LINE
  5
28B6
  8
0
 10
105.49905267479581
 20
55.33437628530217
 30
0.0
 11
105.49905267479581
 21
83.285678971749178
 31
0.0
  0
LINE
  5
28B7
  8
0
 10
91.499052674795834
 20
203.4970038371975
 30
0.0
 11
103.49905267479581
 21
203.4970038371975
 31
0.0
  0
LINE
  5
28C8
  8
0
 10
108.9990526748289
 20
83.285678971743209
 30
0.0
 11
85.999052674762495
 21
83.285678971781849
 31
0.0
  0
LINE
  5
28C9
  8
0
 10
85.999052674762495
 20
96.285678971781863
 30
0.0
 11
108.9990526748289
 21
96.285678971820076
 31
0.0
  0
ARC
  5
28CA
  8
0
 10
91.499052674828917
 20
78.666876819883569
 30
0.0
 40
17.330127017333279
 50
69.7438419976407
 51
110.2561580023593
  0
LINE
  5
28CB
  8
0
 10
85.499052674813896
 20
95.997003837216852
 30
0.0
 11
85.999052674828874
 21
96.285678971820076
 31
0.0
  0
LINE
  5
28CC
  8
0
 10
85.499052674813896
 20
83.574354106346846
 30
0.0
 11
85.999052674828874
 21
83.285678971743209
 31
0.0
  0
ARC
  5
28CD
  8
0
 10
91.499052674828917
 20
100.9044811236801
 30
0.0
 40
17.330127017333279
 50
249.74384199764069
 51
290.25615800235931
  0
LINE
  5
28CE
  8
0
 10
85.499052674813896
 20
95.997003837216852
 30
0.0
 11
85.499052674828917
 21
83.574354106338205
 31
0.0
  0
LINE
  5
28CF
  8
0
 10
97.499052674828917
 20
84.646150876176065
 30
0.0
 11
97.499052674828917
 21
94.92520706738766
 31
0.0
  0
LINE
  5
28D0
  8
0
 10
109.4990526748439
 20
95.997003837216852
 30
0.0
 11
109.4990526748289
 21
83.574354106338205
 31
0.0
  0
ARC
  5
28D1
  8
0
 10
103.4990526748289
 20
100.9044811236801
 30
0.0
 40
17.330127017333279
 50
249.74384199764069
 51
290.25615800235931
  0
LINE
  5
28D2
  8
0
 10
109.4990526748439
 20
83.574354106346846
 30
0.0
 11
108.9990526748289
 21
83.285678971743209
 31
0.0
  0
LINE
  5
28D3
  8
0
 10
109.4990526748439
 20
95.997003837216852
 30
0.0
 11
108.9990526748289
 21
96.285678971820076
 31
0.0
  0
ARC
  5
28D4
  8
0
 10
103.4990526748289
 20
78.666876819883569
 30
0.0
 40
17.330127017333279
 50
69.7438419976407
 51
110.2561580023593
  0
CIRCLE
  5
28D7
  8
3
 10
33.213490588979312
 20
250.1599573127391
 30
0.0
 40
6.9175000000000004
  0
CIRCLE
  5
28D8
  8
0
 10
33.213490588979312
 20
250.1599573127391
 30
0.0
 40
8.0
  0
LINE
  5
28D9
  8
0
 10
47.069897049530482
 20
250.1599573127391
 30
0.0
 11
40.14169381925467
 21
262.1599573127391
 31
0.0
  0
LINE
  5
28DA
  8
0
 10
40.14169381925467
 20
238.15995731273921
 30
0.0
 11
47.069897049530482
 21
250.1599573127391
 31
0.0
  0
LINE
  5
28DB
  8
0
 10
26.28528735870384
 20
238.15995731273921
 30
0.0
 11
40.14169381925467
 21
238.15995731273921
 31
0.0
  0
LINE
  5
28DC
  8
0
 10
19.357084128428241
 20
250.1599573127391
 30
0.0
 11
26.28528735870384
 21
238.15995731273921
 31
0.0
  0
LINE
  5
28DD
  8
0
 10
26.28528735870384
 20
262.1599573127391
 30
0.0
 11
19.357084128428241
 21
250.1599573127391
 31
0.0
  0
LINE
  5
28DE
  8
0
 10
40.14169381925467
 20
262.1599573127391
 30
0.0
 11
26.28528735870384
 21
262.1599573127391
 31
0.0
  0
CIRCLE
  5
28FD
  8
0
 10
33.213490588979312
 20
250.1599573127391
 30
0.0
 40
20.0
  0
CIRCLE
  5
28FF
  8
0
 10
33.213490588979312
 20
250.1599573127391
 30
0.0
 40
11.500000000000011
  0
LINE
  5
2900
  8
1
 10
33.213490588979312
 20
273.15995731273921
 30
0.0
 11
33.213490588979312
 21
227.1599573127391
 31
0.0
  0
LINE
  5
2901
  8
1
 10
56.213490588979312
 20
250.1599573127391
 30
0.0
 11
10.21349058897931
 21
250.1599573127391
 31
0.0
  0
LINE
  5
2AFD
  8
0
 10
25.448784706625791
 20
50.497003837197639
 30
0.0
 11
40.9781964713317
 21
50.497003837197639
 31
0.0
  0
LINE
  5
2AFE
  8
0
 10
40.978196471330712
 20
55.497003837197639
 30
0.0
 11
25.448784706626771
 21
55.497003837197639
 31
0.0
  0
ARC
  5
2AFF
  8
0
 10
29.2134905889788
 20
43.80773870240759
 30
0.0
 40
11.55341801262729
 50
69.743841999607554
 51
110.2561580003909
  0
LINE
  5
2B00
  8
0
 10
25.21349058897874
 20
55.361156715034873
 30
0.0
 11
25.448784706626771
 21
55.497003837197639
 31
0.0
  0
ARC
  5
2B01
  8
0
 10
29.213490588978772
 20
62.186268971987111
 30
0.0
 40
11.55341801262729
 50
249.74384199960909
 51
290.25615800039242
  0
LINE
  5
2B02
  8
0
 10
25.213490588978718
 20
50.632850959359949
 30
0.0
 11
25.448784706626771
 21
50.49700383719707
 31
0.0
  0
LINE
  5
2B03
  8
0
 10
25.21349058897874
 20
55.361156715034873
 30
0.0
 11
25.213490588978772
 21
50.632850959359949
 31
0.0
  0
LINE
  5
2B04
  8
0
 10
33.2134905889788
 20
54.646625535218917
 30
0.0
 11
33.213490588978758
 21
51.347382139175551
 31
0.0
  0
LINE
  5
2B05
  8
0
 10
41.21349058897885
 20
55.361156715034873
 30
0.0
 11
41.213490588978772
 21
50.632850959359949
 31
0.0
  0
ARC
  5
2B06
  8
0
 10
37.213490588978772
 20
62.186268971987111
 30
0.0
 40
11.55341801262729
 50
249.74384199960909
 51
290.25615800039242
  0
LINE
  5
2B07
  8
0
 10
41.213490588978829
 20
50.632850959359949
 30
0.0
 11
40.978196471330719
 21
50.49700383719707
 31
0.0
  0
LINE
  5
2B08
  8
0
 10
41.21349058897885
 20
55.361156715034873
 30
0.0
 11
40.978196471330747
 21
55.497003837197639
 31
0.0
  0
ARC
  5
2B09
  8
0
 10
37.213490588978793
 20
43.80773870240759
 30
0.0
 40
11.55341801262729
 50
69.743841999607596
 51
110.2561580003909
  0
LINE
  5
2B0A
  8
0
 10
25.213490588979312
 20
57.497003837197859
 30
0.0
 11
41.213490588979312
 21
57.497003837197859
 31
0.0
  0
LINE
  5
2B0B
  8
3
 10
26.29599058897929
 20
57.497003837197859
 30
0.0
 11
25.213490588979312
 21
55.622058838004563
 31
0.0
  0
LINE
  5
2B0C
  8
3
 10
40.13099058897933
 20
57.497003837197859
 30
0.0
 11
41.213490588979312
 21
55.622058838004563
 31
0.0
  0
LINE
  5
2B0D
  8
0
 10
38.713490588977827
 20
47.497003837197653
 30
0.0
 11
38.713490588978658
 21
50.497003837197639
 31
0.0
  0
LINE
  5
2B0E
  8
0
 10
27.71349058897783
 20
47.497003837197653
 30
0.0
 11
27.713490588978662
 21
50.497003837197639
 31
0.0
  0
LINE
  5
2B0F
  8
3
 10
90.581552674795859
 20
57.497003837197859
 30
0.0
 11
89.499052674795877
 21
55.622058838004563
 31
0.0
  0
LINE
  5
2B10
  8
3
 10
104.4165526747958
 20
57.497003837197859
 30
0.0
 11
105.49905267479581
 21
55.622058838004563
 31
0.0
  0
LINE
  5
2B11
  8
0
 10
89.499052674795877
 20
57.497003837197859
 30
0.0
 11
105.49905267479581
 21
57.497003837197859
 31
0.0
  0
LINE
  5
2B12
  8
0
 10
105.2173734922021
 20
50.497003837197873
 30
0.0
 11
89.687961727495562
 21
50.497003837197873
 31
0.0
  0
LINE
  5
2B13
  8
0
 10
89.687961727495889
 20
55.497003837197973
 30
0.0
 11
105.217373492202
 21
55.497003837197752
 31
0.0
  0
ARC
  5
2B14
  8
0
 10
104.3808708401243
 20
51.27184031755413
 30
0.0
 40
4.0893163974808306
 50
64.384247467890859
 51
124.3842474680048
  0
LINE
  5
2B15
  8
0
 10
106.69027191688281
 20
54.646625535219393
 30
0.0
 11
105.2173734922017
 21
55.497003837197973
 31
0.0
  0
LINE
  5
2B16
  8
0
 10
106.69027191688281
 20
51.347382139176219
 30
0.0
 11
105.2173734922017
 21
50.497003837197639
 31
0.0
  0
ARC
  5
2B17
  8
0
 10
104.3808708401243
 20
54.722167356841481
 30
0.0
 40
4.0893163974808306
 50
235.61575253199521
 51
295.61575253210918
  0
LINE
  5
2B18
  8
0
 10
106.69027191688281
 20
54.646625535219393
 30
0.0
 11
106.69027191688281
 21
51.347382139176219
 31
0.0
  0
LINE
  5
2B19
  8
0
 10
102.07146976336681
 20
54.646625535219393
 30
0.0
 11
102.071469763366
 21
51.347382139175998
 31
0.0
  0
LINE
  5
2B1A
  8
0
 10
92.833865456330869
 20
54.646625535219393
 30
0.0
 11
92.833865456331438
 21
51.347382139175998
 31
0.0
  0
LINE
  5
2B1B
  8
0
 10
88.215063302814897
 20
54.646625535219393
 30
0.0
 11
88.215063302814883
 21
51.347382139176219
 31
0.0
  0
ARC
  5
2B1C
  8
0
 10
97.452667609848305
 20
65.918319779564499
 30
0.0
 40
15.28546882020385
 50
252.41204622602959
 51
287.58795377396882
  0
ARC
  5
2B1D
  8
0
 10
90.524464379573303
 20
54.722167356841481
 30
0.0
 40
4.0893163974808306
 50
244.38424746789079
 51
304.38424746800467
  0
LINE
  5
2B1E
  8
0
 10
88.215063302814883
 20
51.347382139176219
 30
0.0
 11
89.68796172749586
 21
50.497003837197639
 31
0.0
  0
LINE
  5
2B1F
  8
0
 10
88.215063302814897
 20
54.646625535219393
 30
0.0
 11
89.687961727495889
 21
55.497003837197973
 31
0.0
  0
ARC
  5
2B20
  8
0
 10
97.452667609848362
 20
40.075687894831141
 30
0.0
 40
15.28546882020385
 50
72.412046226031137
 51
107.58795377396881
  0
ARC
  5
2B21
  8
0
 10
90.524464379573345
 20
51.27184031755413
 30
0.0
 40
4.0893163974808306
 50
55.615752531995298
 51
115.615752532109
  0
LINE
  5
2B22
  8
0
 10
91.999052674795195
 20
47.49700383719756
 30
0.0
 11
91.999052674795948
 21
50.497003837197752
 31
0.0
  0
LINE
  5
2B23
  8
0
 10
102.9990526747951
 20
47.49700383719756
 30
0.0
 11
102.99905267479591
 21
50.497003837197752
 31
0.0
  0
LINE
  5
2B24
  8
0
 10
45.219554015477406
 20
41.532092264129609
 30
0.0
 11
44.213490588978729
 21
47.497003837197653
 31
0.0
  0
LINE
  5
2B25
  8
0
 10
53.213490588978729
 20
35.997003837197639
 30
0.0
 11
45.219554015477406
 21
41.532092264129609
 31
0.0
  0
LINE
  5
2B26
  8
0
 10
52.713490588978729
 20
30.497003837197639
 30
0.0
 11
53.213490588978729
 21
30.997003837197639
 31
0.0
  0
LINE
  5
2B27
  8
0
 10
44.213490588978729
 20
47.497003837197653
 30
0.0
 11
22.21349058897875
 21
47.497003837197653
 31
0.0
  0
LINE
  5
2B28
  8
0
 10
53.213490588978729
 20
35.997003837197639
 30
0.0
 11
13.30076591361984
 21
35.997003837197639
 31
0.0
  0
LINE
  5
2B29
  8
0
 10
52.713490588978729
 20
30.497003837197639
 30
0.0
 11
13.71349058897874
 21
30.497003837197639
 31
0.0
  0
LINE
  5
2B2A
  8
0
 10
53.213490588978729
 20
30.997003837197639
 30
0.0
 11
53.213490588978729
 21
35.997003837197639
 31
0.0
  0
LINE
  5
2B2B
  8
0
 10
21.207427162480059
 20
41.532092264129609
 30
0.0
 11
22.21349058897875
 21
47.497003837197653
 31
0.0
  0
LINE
  5
2B2C
  8
0
 10
13.21349058897874
 20
35.997003837197639
 30
0.0
 11
21.207427162480059
 21
41.532092264129609
 31
0.0
  0
LINE
  5
2B2D
  8
0
 10
13.71349058897874
 20
30.497003837197639
 30
0.0
 11
13.21349058897874
 21
30.997003837197639
 31
0.0
  0
LINE
  5
2B2E
  8
0
 10
13.21349058897874
 20
30.997003837197639
 30
0.0
 11
13.21349058897874
 21
35.997003837197639
 31
0.0
  0
LINE
  5
2B2F
  8
0
 10
21.207427162480059
 20
41.532092264129609
 30
0.0
 11
45.219554015477406
 21
41.532092264129609
 31
0.0
  0
LINE
  5
2B33
  8
0
 10
109.50511610129379
 20
41.532092264129531
 30
0.0
 11
108.49905267479519
 21
47.497003837197539
 31
0.0
  0
LINE
  5
2B34
  8
0
 10
117.49905267479519
 20
35.997003837197553
 30
0.0
 11
109.50511610129379
 21
41.532092264129531
 31
0.0
  0
LINE
  5
2B35
  8
0
 10
116.99905267479519
 20
30.49700383719756
 30
0.0
 11
117.49905267479519
 21
30.99700383719755
 31
0.0
  0
LINE
  5
2B36
  8
0
 10
108.49905267479519
 20
47.49700383719756
 30
0.0
 11
86.499052674795195
 21
47.497003837197539
 31
0.0
  0
LINE
  5
2B37
  8
0
 10
117.49905267479519
 20
35.997003837197553
 30
0.0
 11
77.586327999436264
 21
35.997003837197553
 31
0.0
  0
LINE
  5
2B38
  8
0
 10
116.99905267479519
 20
30.49700383719756
 30
0.0
 11
77.999052674795195
 21
30.49700383719756
 31
0.0
  0
LINE
  5
2B39
  8
0
 10
117.49905267479519
 20
30.99700383719755
 30
0.0
 11
117.49905267479519
 21
35.997003837197553
 31
0.0
  0
LINE
  5
2B3A
  8
0
 10
85.492989248296524
 20
41.532092264129531
 30
0.0
 11
86.499052674795195
 21
47.497003837197539
 31
0.0
  0
LINE
  5
2B3B
  8
0
 10
77.499052674795195
 20
35.997003837197553
 30
0.0
 11
85.492989248296524
 21
41.532092264129531
 31
0.0
  0
LINE
  5
2B3C
  8
0
 10
77.999052674795195
 20
30.49700383719756
 30
0.0
 11
77.499052674795195
 21
30.99700383719755
 31
0.0
  0
LINE
  5
2B3D
  8
0
 10
77.499052674795195
 20
30.99700383719755
 30
0.0
 11
77.499052674795195
 21
35.997003837197553
 31
0.0
  0
LINE
  5
2B3E
  8
0
 10
85.492989248296524
 20
41.532092264129531
 30
0.0
 11
109.50511610129379
 21
41.532092264129531
 31
0.0
  0
TEXT
  5
2F26
  8
0
 62
     3
 10
0.0
 20
0.0
 30
0.0
 40
10.0
  1
LSA40S16C-SUS
  7
STANDARD1
  0
ENDSEC
  0
EOF
