  0
SECTION
  2
HEADER
  9
$ACADVER
  1
AC1009
  9
$INSBASE
 10
0.0
 20
0.0
 30
0.0
  9
$EXTMIN
 10
0.0
 20
-2.960436562073669
 30
0.0
  9
$EXTMAX
 10
168.43073188316279
 20
198.9980273735321
 30
0.0
  9
$LIMMIN
 10
0.0
 20
0.0
  9
$LIMMAX
 10
375.0
 20
270.0
  9
$ORTHOMODE
 70
     1
  9
$REGENMODE
 70
     1
  9
$FILLMODE
 70
     1
  9
$QTEXTMODE
 70
     0
  9
$MIRRTEXT
 70
     0
  9
$DRAGMODE
 70
     2
  9
$LTSCALE
 40
6.0
  9
$OSMODE
 70
    37
  9
$ATTMODE
 70
     1
  9
$TEXTSIZE
 40
0.2
  9
$TRACEWID
 40
0.05
  9
$TEXTSTYLE
  7
STANDARD
  9
$CLAYER
  8
0
  9
$CELTYPE
  6
BYLAYER
  9
$CECOLOR
 62
   256
  9
$DIMSCALE
 40
1.0
  9
$DIMASZ
 40
3.0
  9
$DIMEXO
 40
1.0
  9
$DIMDLI
 40
6.0
  9
$DIMRND
 40
0.0
  9
$DIMDLE
 40
0.0
  9
$DIMEXE
 40
1.0
  9
$DIMTP
 40
495.0
  9
$DIMTM
 40
0.0
  9
$DIMTXT
 40
3.0
  9
$DIMCEN
 40
0.0
  9
$DIMTSZ
 40
0.0
  9
$DIMTOL
 70
     0
  9
$DIMLIM
 70
     0
  9
$DIMTIH
 70
     0
  9
$DIMTOH
 70
     0
  9
$DIMSE1
 70
     0
  9
$DIMSE2
 70
     0
  9
$DIMTAD
 70
     1
  9
$DIMZIN
 70
     8
  9
$DIMBLK
  1

  9
$DIMASO
 70
     0
  9
$DIMSHO
 70
     0
  9
$DIMPOST
  1

  9
$DIMAPOST
  1

  9
$DIMALT
 70
     0
  9
$DIMALTD
 70
     2
  9
$DIMALTF
 40
25.399999999999999
  9
$DIMLFAC
 40
1.0
  9
$DIMTOFL
 70
     1
  9
$DIMTVP
 40
0.0
  9
$DIMTIX
 70
     1
  9
$DIMSOXD
 70
     0
  9
$DIMSAH
 70
     0
  9
$DIMBLK1
  1

  9
$DIMBLK2
  1

  9
$DIMSTYLE
  2
STANDARD
  9
$DIMCLRD
 70
     0
  9
$DIMCLRE
 70
     0
  9
$DIMCLRT
 70
     4
  9
$DIMTFAC
 40
1.0
  9
$DIMGAP
 40
1.0
  9
$LUNITS
 70
     2
  9
$LUPREC
 70
     4
  9
$SKETCHINC
 40
0.1
  9
$FILLETRAD
 40
2.0
  9
$AUNITS
 70
     0
  9
$AUPREC
 70
     0
  9
$MENU
  1
C:\R13\WIN\SUPPORT\ACAD-I
  9
$ELEVATION
 40
0.0
  9
$PELEVATION
 40
0.0
  9
$THICKNESS
 40
0.0
  9
$LIMCHECK
 70
     0
  9
$BLIPMODE
 70
     0
  9
$CHAMFERA
 40
0.0
  9
$CHAMFERB
 40
0.0
  9
$SKPOLY
 70
     0
  9
$TDCREATE
 40
2451961.711538055
  9
$TDUPDATE
 40
2456598.717748275
  9
$TDINDWG
 40
0.171886875
  9
$TDUSRTIMER
 40
2456598.0102683571
  9
$USRTIMER
 70
     1
  9
$ANGBASE
 50
0.0
  9
$ANGDIR
 70
     0
  9
$PDMODE
 70
     0
  9
$PDSIZE
 40
0.0
  9
$PLINEWID
 40
0.0
  9
$COORDS
 70
     1
  9
$SPLFRAME
 70
     0
  9
$SPLINETYPE
 70
     6
  9
$SPLINESEGS
 70
     8
  9
$ATTDIA
 70
     0
  9
$ATTREQ
 70
     1
  9
$HANDLING
 70
     1
  9
$HANDSEED
  5
3619
  9
$SURFTAB1
 70
     6
  9
$SURFTAB2
 70
     6
  9
$SURFTYPE
 70
     6
  9
$SURFU
 70
     6
  9
$SURFV
 70
     6
  9
$UCSNAME
  2

  9
$UCSORG
 10
0.0
 20
0.0
 30
0.0
  9
$UCSXDIR
 10
1.0
 20
0.0
 30
0.0
  9
$UCSYDIR
 10
0.0
 20
1.0
 30
0.0
  9
$PUCSNAME
  2

  9
$PUCSORG
 10
0.0
 20
0.0
 30
0.0
  9
$PUCSXDIR
 10
1.0
 20
0.0
 30
0.0
  9
$PUCSYDIR
 10
0.0
 20
1.0
 30
0.0
  9
$USERI1
 70
     4
  9
$USERI2
 70
     1
  9
$USERI3
 70
     0
  9
$USERI4
 70
     0
  9
$USERI5
 70
     0
  9
$USERR1
 40
1.0
  9
$USERR2
 40
3.0
  9
$USERR3
 40
3.0
  9
$USERR4
 40
3.0
  9
$USERR5
 40
10.0
  9
$WORLDVIEW
 70
     1
  9
$SHADEDGE
 70
     3
  9
$SHADEDIF
 70
    70
  9
$TILEMODE
 70
     1
  9
$MAXACTVP
 70
    16
  9
$PLIMCHECK
 70
     0
  9
$PEXTMIN
 10
1.0000000000000000E+020
 20
1.0000000000000000E+020
 30
1.0000000000000000E+020
  9
$PEXTMAX
 10
-1.0000000000000000E+020
 20
-1.0000000000000000E+020
 30
-1.0000000000000000E+020
  9
$PLIMMIN
 10
0.0
 20
0.0
  9
$PLIMMAX
 10
12.0
 20
9.0
  9
$UNITMODE
 70
     0
  9
$VISRETAIN
 70
     0
  9
$PLINEGEN
 70
     0
  9
$PSLTSCALE
 70
     0
  0
ENDSEC
  0
SECTION
  2
TABLES
  0
TABLE
  2
VPORT
 70
     1
  0
VPORT
  2
*ACTIVE
 70
     0
 10
0.0
 20
0.0
 11
1.0
 21
1.0
 12
187.49427839065231
 22
177.52205812711131
 13
0.0
 23
0.0
 14
10.0
 24
10.0
 15
10.0
 25
10.0
 16
0.0
 26
0.0
 36
1.0
 17
0.0
 27
0.0
 37
0.0
 40
364.13085016302909
 41
1.755244755244755
 42
50.0
 43
0.0
 44
0.0
 50
0.0
 51
0.0
 71
    16
 72
   100
 73
     1
 74
     0
 75
     0
 76
     0
 77
     0
 78
     0
  0
ENDTAB
  0
TABLE
  2
LTYPE
 70
     3
  0
LTYPE
  2
CONTINUOUS
 70
     0
  3
Solid Line
 72
    65
 73
     0
 40
0.0
  0
LTYPE
  2
PHANTOM2
 70
     0
  3
___ _ _ ___ _ _ ___ _ _ ___ _ _
 72
    65
 73
     6
 40
1.25
 49
0.625
 49
-0.125
 49
0.125
 49
-0.125
 49
0.125
 49
-0.125
  0
LTYPE
  2
CENTER
 70
     0
  3
____ _ ____ _ ____ _ ____ _ ____ _ ____ _ ____
 72
    65
 73
     4
 40
2.0
 49
1.25
 49
-0.25
 49
0.25
 49
-0.25
  0
ENDTAB
  0
TABLE
  2
LAYER
 70
     3
  0
LAYER
  2
0
 70
     0
 62
     7
  6
CONTINUOUS
  0
LAYER
  2
1
 70
     0
 62
     1
  6
CENTER
  0
LAYER
  2
3
 70
     0
 62
     3
  6
CONTINUOUS
  0
ENDTAB
  0
TABLE
  2
STYLE
 70
     3
  0
STYLE
  2
STANDARD
 70
     0
 40
0.0
 41
1.0
 50
0.0
 71
     0
 42
0.2
  3
SIMPLEX
  4
BIGFONT
  0
STYLE
  2
ANNOTATIVE
 70
     0
 40
0.0
 41
1.0
 50
0.0
 71
     0
 42
0.2
  3
txt
  4

  0
STYLE
  2
STANDARD1
 70
     0
 40
0.0
 41
1.0
 50
0.0
 71
     0
 42
3.0
  3
txt
  4

  0
ENDTAB
  0
TABLE
  2
VIEW
 70
     0
  0
ENDTAB
  0
TABLE
  2
UCS
 70
     0
  0
ENDTAB
  0
TABLE
  2
APPID
 70
    31
  0
APPID
  2
ACAD
 70
     0
  0
APPID
  2
ACADANNOTATIVE
 70
     0
  0
APPID
  2
GENIUS_GENOREF_13
 70
     0
  0
APPID
  2
GENIUS_GENOENT_13
 70
     0
  0
APPID
  2
GENIUS_GENBH_13
 70
     0
  0
APPID
  2
GENIUS_GENOBJ_13
 70
     0
  0
APPID
  2
GENIUS_GENODEF_13
 70
     0
  0
APPID
  2
GENIUS_GENOLIS_13
 70
     0
  0
APPID
  2
GENIUS_GENOBJ-NBEHI-BHF_13
 70
     0
  0
APPID
  2
GENIUS_GENOBJ-NBEHI-BHB_13
 70
     0
  0
APPID
  2
GENIUS_GENOBJ-F-PART_13
 70
     0
  0
APPID
  2
GENIUS_GEFSTDP_13
 70
     0
  0
APPID
  2
GENIUS_GENOBJ-N-RSSYM_13
 70
     0
  0
APPID
  2
GENIUS_GENSYMENT_13
 70
     0
  0
APPID
  2
GENIUS_GENOBJ-N-TIT_13
 70
     0
  0
APPID
  2
GENIUS_GENTITLE_13
 70
     0
  0
APPID
  2
GENIUS_GENZVEED_13
 70
     0
  0
APPID
  2
GENIUS_GENOBJ-N-LEADER_13
 70
     0
  0
APPID
  2
GENIUS_GENOBJ-N-FIL_13
 70
     0
  0
APPID
  2
GENIUS_GENOBJ-N-SEC_13
 70
     0
  0
APPID
  2
GENIUS_GENOBJ-N-CRS_13
 70
     0
  0
APPID
  2
GENIUS_GENOBJ-N-ZOO_13
 70
     0
  0
APPID
  2
GENIUS_GENZOO_13
 70
     0
  0
APPID
  2
GENIUS_GENOBJ-F-TOL_13
 70
     0
  0
APPID
  2
GENIUS_GENFIL_13
 70
     0
  0
APPID
  2
GENIUS_GENOBJ-N-CHA_13
 70
     0
  0
APPID
  2
ACAD_MLEADERVER
 70
     0
  0
APPID
  2
ACAD_DSTYLE_DIMJAG
 70
     0
  0
APPID
  2
ACAD_DSTYLE_DIMTALN
 70
     0
  0
APPID
  2
ACAD_EXEMPT_FROM_CAD_STANDARDS
 70
     0
  0
APPID
  2
ACAD_NAV_VCDISPLAY
 70
     0
  0
ENDTAB
  0
TABLE
  2
DIMSTYLE
 70
     2
  0
DIMSTYLE
  2
STANDARD
 70
     0
  3

  4

  5

  6

  7

 40
1.0
 41
0.18
 42
0.0625
 43
0.38
 44
0.18
 45
0.0
 46
0.0
 47
0.0
 48
0.0
140
0.18
141
0.09
142
0.0
143
25.399999999999999
144
1.0
145
0.0
146
1.0
147
0.09
 71
     0
 72
     0
 73
     1
 74
     1
 75
     0
 76
     0
 77
     0
 78
     0
170
     0
171
     2
172
     0
173
     0
174
     0
175
     0
176
     0
177
     0
178
     0
  0
DIMSTYLE
  2
ANNOTATIVE
 70
     0
  3

  4

  5

  6

  7

 40
1.0
 41
0.18
 42
0.0625
 43
0.38
 44
0.18
 45
0.0
 46
0.0
 47
0.0
 48
0.0
140
0.18
141
0.09
142
0.0
143
25.399999999999999
144
1.0
145
0.0
146
1.0
147
0.09
 71
     0
 72
     0
 73
     1
 74
     1
 75
     0
 76
     0
 77
     0
 78
     0
170
     0
171
     2
172
     0
173
     0
174
     0
175
     0
176
     0
177
     0
178
     0
  0
ENDTAB
  0
ENDSEC
  0
SECTION
  2
BLOCKS
  0
BLOCK
  8
0
  2
$MODEL_SPACE
 70
     0
 10
0.0
 20
0.0
 30
0.0
  3
$MODEL_SPACE
  1

  0
ENDBLK
  5
34DE
  8
0
  0
BLOCK
 67
     1
  8
0
  2
$PAPER_SPACE
 70
     0
 10
0.0
 20
0.0
 30
0.0
  3
$PAPER_SPACE
  1

  0
ENDBLK
  5
34DA
 67
     1
  8
0
  0
ENDSEC
  0
SECTION
  2
ENTITIES
  0
LINE
  5
20CB
  8
0
 10
74.64516979734627
 20
43.854613089131682
 30
0.0
 11
74.64516979734627
 21
47.52448607020947
 31
0.0
  0
LINE
  5
20CC
  8
0
 10
63.64516979734627
 20
47.52448607020947
 30
0.0
 11
63.64516979734627
 21
43.854613089131682
 31
0.0
  0
LINE
  5
20F0
  8
1
 10
69.145169797346284
 20
124.52448607020951
 30
0.0
 11
69.145169797346284
 21
21.524486070209502
 31
0.0
  0
LINE
  5
20F4
  8
0
 10
81.08500261487201
 20
37.590615195015047
 30
0.0
 11
80.145169797346284
 21
43.524486070209477
 31
0.0
  0
LINE
  5
20F5
  8
0
 10
58.14516979734627
 20
43.524486070209477
 30
0.0
 11
57.205336979820537
 21
37.590615195015047
 31
0.0
  0
LINE
  5
20F8
  8
0
 10
94.145169797346284
 20
32.024486070209477
 30
0.0
 11
81.08500261487201
 21
37.590615195015047
 31
0.0
  0
LINE
  5
20F9
  8
0
 10
57.205336979820537
 20
37.590615195015047
 30
0.0
 11
44.14516979734627
 21
32.02448607020947
 31
0.0
  0
LINE
  5
20FC
  8
0
 10
93.645169797346284
 20
25.52448607020948
 30
0.0
 11
94.145169797346284
 21
26.02448607020948
 31
0.0
  0
LINE
  5
20FD
  8
0
 10
44.14516979734627
 20
26.02448607020948
 30
0.0
 11
44.645169797346277
 21
25.52448607020948
 31
0.0
  0
LINE
  5
2101
  8
0
 10
80.145169797346284
 20
43.524486070209477
 30
0.0
 11
58.14516979734627
 21
43.524486070209477
 31
0.0
  0
LINE
  5
2105
  8
0
 10
94.145169797346284
 20
32.024486070209477
 30
0.0
 11
44.14516979734627
 21
32.02448607020947
 31
0.0
  0
LINE
  5
2107
  8
0
 10
93.645169797346284
 20
25.52448607020948
 30
0.0
 11
44.645169797346277
 21
25.52448607020948
 31
0.0
  0
POINT
  5
210C
  8
0
 10
69.145169797346284
 20
25.52448607020948
 30
0.0
210
0.0
220
1.0
230
0.0
  0
CIRCLE
  5
214B
  8
0
 10
69.145169797346284
 20
170.07859765582759
 30
0.0
 40
11.0
  0
CIRCLE
  5
214C
  8
0
 10
69.145169797346284
 20
170.07859765582759
 30
0.0
 40
11.939832817525719
  0
CIRCLE
  5
214F
  8
0
 10
69.145169797346284
 20
170.07859765582759
 30
0.0
 40
25.0
  0
LINE
  5
2152
  8
1
 10
40.225740079641682
 20
170.07859765582759
 30
0.0
 11
98.064599515050901
 21
170.07859765582759
 31
0.0
  0
LINE
  5
2153
  8
1
 10
69.145169797346284
 20
141.15916793812301
 30
0.0
 11
69.145169797346284
 21
198.9980273735321
 31
0.0
  0
LINE
  5
2555
  8
0
 10
94.145169797346284
 20
26.02448607020948
 30
0.0
 11
94.145169797346284
 21
32.02448607020947
 31
0.0
  0
LINE
  5
2556
  8
0
 10
44.14516979734627
 20
26.02448607020948
 30
0.0
 11
44.14516979734627
 21
32.02448607020947
 31
0.0
  0
LINE
  5
2557
  8
0
 10
57.205336979820537
 20
37.590615195015047
 30
0.0
 11
81.08500261487201
 21
37.590615195015047
 31
0.0
  0
LINE
  5
26A3
  8
1
 10
143.43073188316279
 20
124.52448607020951
 30
0.0
 11
143.43073188316279
 21
21.524486070209502
 31
0.0
  0
LINE
  5
26A8
  8
0
 10
168.43073188316279
 20
32.024486070209477
 30
0.0
 11
155.3705647006885
 21
37.590615195015047
 31
0.0
  0
LINE
  5
26A9
  8
0
 10
131.490899065637
 20
37.590615195015047
 30
0.0
 11
118.43073188316281
 21
32.02448607020947
 31
0.0
  0
LINE
  5
26AA
  8
0
 10
167.93073188316279
 20
25.52448607020948
 30
0.0
 11
168.43073188316279
 21
26.02448607020948
 31
0.0
  0
LINE
  5
26AB
  8
0
 10
118.43073188316281
 20
26.02448607020948
 30
0.0
 11
118.93073188316281
 21
25.52448607020948
 31
0.0
  0
LINE
  5
26AD
  8
0
 10
168.43073188316279
 20
32.024486070209477
 30
0.0
 11
118.43073188316281
 21
32.02448607020947
 31
0.0
  0
LINE
  5
26AE
  8
0
 10
167.93073188316279
 20
25.52448607020948
 30
0.0
 11
118.93073188316281
 21
25.52448607020948
 31
0.0
  0
POINT
  5
26B0
  8
0
 10
143.43073188316279
 20
25.52448607020948
 30
0.0
210
0.0
220
1.0
230
0.0
  0
LINE
  5
26BB
  8
0
 10
168.43073188316279
 20
26.02448607020948
 30
0.0
 11
168.43073188316279
 21
32.02448607020947
 31
0.0
  0
LINE
  5
26BC
  8
0
 10
118.43073188316281
 20
26.02448607020948
 30
0.0
 11
118.43073188316281
 21
32.02448607020947
 31
0.0
  0
LINE
  5
26BD
  8
0
 10
131.490899065637
 20
37.590615195015047
 30
0.0
 11
155.3705647006885
 21
37.590615195015047
 31
0.0
  0
LINE
  5
26CF
  8
0
 10
155.3705647006885
 20
37.590615195015047
 30
0.0
 11
154.43073188316279
 21
43.524486070209477
 31
0.0
  0
LINE
  5
26D0
  8
0
 10
132.43073188316279
 20
43.524486070209477
 30
0.0
 11
131.490899065637
 21
37.590615195015047
 31
0.0
  0
LINE
  5
26D1
  8
0
 10
154.43073188316279
 20
43.524486070209477
 30
0.0
 11
132.43073188316279
 21
43.524486070209477
 31
0.0
  0
ARC
  5
2FCA
  8
0
 10
69.145169797341566
 20
39.524486070212923
 30
0.0
 40
6.9999999999941682
 50
141.78678929825981
 51
145.15009542095461
  0
ARC
  5
2FCB
  8
0
 10
69.145169797348331
 20
39.52448607021099
 30
0.0
 40
6.999999999997466
 50
34.84990457904599
 51
38.213210701738731
  0
LINE
  5
2FCC
  8
0
 10
74.64516979734627
 20
43.854613089131682
 30
0.0
 11
63.64516979734627
 21
43.854613089131682
 31
0.0
  0
LINE
  5
2FCE
  8
0
 10
148.93073188316279
 20
43.854613089131682
 30
0.0
 11
148.93073188316279
 21
47.52448607020947
 31
0.0
  0
LINE
  5
2FCF
  8
0
 10
137.93073188316279
 20
47.52448607020947
 30
0.0
 11
137.93073188316279
 21
43.854613089131682
 31
0.0
  0
ARC
  5
2FD0
  8
0
 10
143.4307318831581
 20
39.524486070212923
 30
0.0
 40
6.9999999999941682
 50
141.78678929825969
 51
145.15009542095461
  0
ARC
  5
2FD1
  8
0
 10
143.43073188316481
 20
39.52448607021099
 30
0.0
 40
6.999999999997466
 50
34.84990457904582
 51
38.213210701738888
  0
LINE
  5
2FD2
  8
0
 10
148.93073188316279
 20
43.854613089131682
 30
0.0
 11
137.93073188316279
 21
43.854613089131682
 31
0.0
  0
LINE
  5
301F
  8
0
 10
63.145169797346618
 20
73.524486070209505
 30
0.0
 11
63.145169797346419
 21
118.52448607020951
 31
0.0
  0
LINE
  5
3020
  8
3
 10
64.0921697973466
 20
73.524486070209505
 30
0.0
 11
64.092169797346415
 21
119.47148607020939
 31
0.0
  0
LINE
  5
3021
  8
3
 10
74.198169797346694
 20
73.524486070209505
 30
0.0
 11
74.19816979734648
 21
119.47148607020939
 31
0.0
  0
LINE
  5
3022
  8
0
 10
75.145169797346625
 20
73.524486070209505
 30
0.0
 11
75.145169797346426
 21
118.52448607020951
 31
0.0
  0
LINE
  5
3023
  8
0
 10
74.629997354643933
 20
72.387305159583676
 30
0.0
 11
74.629997354647813
 21
64.661666980834895
 31
0.0
  0
LINE
  5
3024
  8
0
 10
80.114824911949768
 20
72.387305159583676
 30
0.0
 11
80.114824911949555
 21
64.661666980835122
 31
0.0
  0
LINE
  5
3025
  8
0
 10
63.660342240049538
 20
72.387305159583676
 30
0.0
 11
63.660342240045217
 21
64.661666980834895
 31
0.0
  0
LINE
  5
3026
  8
0
 10
58.17551468274371
 20
72.387305159583676
 30
0.0
 11
58.175514682743483
 21
64.661666980835122
 31
0.0
  0
LINE
  5
3027
  8
0
 10
58.175514682743483
 20
64.661666980835335
 30
0.0
 11
60.14516979734514
 21
63.524486070209498
 31
0.0
  0
ARC
  5
3028
  8
0
 10
60.917928461394119
 20
68.669224426812775
 30
0.0
 40
4.8560632220084567
 50
244.38424746808781
 51
304.38424746801661
  0
ARC
  5
3029
  8
0
 10
69.145169797346512
 20
81.964655428789797
 30
0.0
 40
18.15149422398537
 50
252.41204622603641
 51
287.5879537739637
  0
ARC
  5
302A
  8
0
 10
77.372411133298897
 20
68.669224426812775
 30
0.0
 40
4.8560632220084567
 50
235.6157525319833
 51
295.61575253191222
  0
LINE
  5
302B
  8
0
 10
80.114824911949555
 20
64.661666980835335
 30
0.0
 11
78.145169797347876
 21
63.524486070209498
 31
0.0
  0
LINE
  5
302C
  8
0
 10
60.14516979734514
 20
63.524486070209498
 30
0.0
 11
78.145169797347876
 21
63.524486070209498
 31
0.0
  0
LINE
  5
302D
  8
0
 10
60.145169797345368
 20
73.524486070209505
 30
0.0
 11
78.145169797348089
 21
73.524486070209505
 31
0.0
  0
LINE
  5
302E
  8
0
 10
80.114824911949768
 20
72.387305159583676
 30
0.0
 11
78.145169797348089
 21
73.524486070209505
 31
0.0
  0
ARC
  5
302F
  8
0
 10
77.372411133299124
 20
68.379747713606207
 30
0.0
 40
4.8560632220084567
 50
64.3842474680864
 51
124.3842474680165
  0
ARC
  5
3030
  8
0
 10
69.145169797346739
 20
55.084316711629192
 30
0.0
 40
18.15149422398537
 50
72.412046226036352
 51
107.5879537739636
  0
ARC
  5
3031
  8
0
 10
60.917928461394339
 20
68.379747713606207
 30
0.0
 40
4.8560632220084567
 50
55.615752531983382
 51
115.61575253191219
  0
LINE
  5
3032
  8
0
 10
58.17551468274371
 20
72.387305159583676
 30
0.0
 11
60.145169797345368
 21
73.524486070209505
 31
0.0
  0
LINE
  5
3033
  8
0
 10
65.145169797346426
 20
120.52448607020951
 30
0.0
 11
73.145169797346426
 21
120.52448607020951
 31
0.0
  0
LINE
  5
3034
  8
0
 10
75.145169797346341
 20
52.524486070209512
 30
0.0
 11
75.145169797346341
 21
63.524486070209498
 31
0.0
  0
LINE
  5
3035
  8
3
 10
74.198169797346424
 20
54.524486070209491
 30
0.0
 11
74.198169797346424
 21
63.524486070209498
 31
0.0
  0
LINE
  5
3036
  8
3
 10
64.092169797346358
 20
54.524486070209491
 30
0.0
 11
64.092169797346358
 21
63.524486070209498
 31
0.0
  0
LINE
  5
3037
  8
0
 10
63.145169797346362
 20
52.524486070209512
 30
0.0
 11
63.145169797346398
 21
63.524486070209498
 31
0.0
  0
LINE
  5
3038
  8
0
 10
65.145169797346426
 20
120.52448607020951
 30
0.0
 11
63.145169797346419
 21
118.52448607020951
 31
0.0
  0
LINE
  5
3039
  8
0
 10
73.145169797346426
 20
120.52448607020951
 30
0.0
 11
75.145169797346426
 21
118.52448607020951
 31
0.0
  0
LINE
  5
303A
  8
0
 10
63.145169797346419
 20
118.52448607020951
 30
0.0
 11
75.145169797346483
 21
118.52448607020951
 31
0.0
  0
LINE
  5
303B
  8
0
 10
75.145169797346341
 20
54.524486070209491
 30
0.0
 11
63.145169797346362
 21
54.524486070209491
 31
0.0
  0
LINE
  5
303C
  8
3
 10
64.092169797346358
 20
54.524486070209491
 30
0.0
 11
63.145169797346362
 21
52.884233955441822
 31
0.0
  0
LINE
  5
303D
  8
3
 10
74.198169797346367
 20
54.524486070209491
 30
0.0
 11
75.145169797346341
 21
52.884233955441822
 31
0.0
  0
LINE
  5
303E
  8
0
 10
149.43073188316291
 20
73.524486070209505
 30
0.0
 11
149.43073188316279
 21
118.52448607020941
 31
0.0
  0
LINE
  5
303F
  8
3
 10
148.4837318831631
 20
73.524486070209505
 30
0.0
 11
148.48373188316279
 21
119.4714860702092
 31
0.0
  0
LINE
  5
3040
  8
0
 10
137.43073188316299
 20
73.524486070209619
 30
0.0
 11
137.43073188316279
 21
118.52448607020951
 31
0.0
  0
LINE
  5
3041
  8
3
 10
138.37773188316299
 20
73.524486070209392
 30
0.0
 11
138.3777318831628
 21
119.47148607020939
 31
0.0
  0
LINE
  5
3042
  8
3
 10
138.37773188316271
 20
54.524486070209392
 30
0.0
 11
137.43073188316271
 21
52.884233955441687
 31
0.0
  0
LINE
  5
3043
  8
0
 10
139.43073188316279
 20
120.52448607020951
 30
0.0
 11
137.43073188316279
 21
118.52448607020951
 31
0.0
  0
LINE
  5
3044
  8
3
 10
138.37773188316271
 20
54.524486070209392
 30
0.0
 11
138.3777318831628
 21
63.524486070209498
 31
0.0
  0
LINE
  5
3045
  8
0
 10
137.43073188316271
 20
52.524486070209392
 30
0.0
 11
137.43073188316271
 21
63.524486070209392
 31
0.0
  0
LINE
  5
3046
  8
3
 10
148.4837318831627
 20
54.524486070209392
 30
0.0
 11
149.43073188316271
 21
52.884233955441687
 31
0.0
  0
LINE
  5
3047
  8
0
 10
149.43073188316271
 20
54.524486070209392
 30
0.0
 11
137.43073188316271
 21
54.524486070209392
 31
0.0
  0
LINE
  5
3048
  8
0
 10
137.43073188316279
 20
118.52448607020941
 30
0.0
 11
149.43073188316279
 21
118.52448607020941
 31
0.0
  0
LINE
  5
3049
  8
0
 10
147.43073188316279
 20
120.52448607020941
 30
0.0
 11
149.43073188316279
 21
118.52448607020941
 31
0.0
  0
LINE
  5
304A
  8
3
 10
148.48373188316279
 20
54.524486070209392
 30
0.0
 11
148.48373188316279
 21
63.524486070209498
 31
0.0
  0
LINE
  5
304B
  8
0
 10
149.43073188316271
 20
52.524486070209392
 30
0.0
 11
149.43073188316271
 21
63.524486070209498
 31
0.0
  0
LINE
  5
304C
  8
0
 10
139.43073188316279
 20
120.52448607020951
 30
0.0
 11
147.43073188316279
 21
120.52448607020941
 31
0.0
  0
LINE
  5
304D
  8
0
 10
143.43073188315981
 20
72.387305159583676
 30
0.0
 11
143.43073188316271
 21
64.661666980835335
 31
0.0
  0
LINE
  5
304E
  8
0
 10
152.43073188316271
 20
63.524486070209498
 30
0.0
 11
134.43073188316271
 21
63.524486070209498
 31
0.0
  0
LINE
  5
304F
  8
0
 10
134.43073188316291
 20
73.524486070209505
 30
0.0
 11
152.43073188316291
 21
73.524486070209505
 31
0.0
  0
LINE
  5
3050
  8
0
 10
133.93073188316291
 20
73.235810935614609
 30
0.0
 11
134.43073188316291
 21
73.524486070209505
 31
0.0
  0
ARC
  5
3051
  8
0
 10
138.68073188316291
 20
59.516127045621502
 30
0.0
 40
13.719683889993171
 50
69.743841999612698
 51
110.2561580003873
  0
LINE
  5
3052
  8
0
 10
134.43073188316271
 20
63.524486070209498
 30
0.0
 11
133.93073188316271
 21
63.884957974529598
 31
0.0
  0
LINE
  5
3053
  8
0
 10
133.93073188316271
 20
63.884957974529598
 30
0.0
 11
133.93073188316291
 21
73.235810935614609
 31
0.0
  0
ARC
  5
3054
  8
0
 10
138.68073188316271
 20
77.532845094797509
 30
0.0
 40
13.719683889993171
 50
249.74384199961091
 51
290.2561580003873
  0
ARC
  5
3055
  8
0
 10
148.18073188316271
 20
77.532845094797509
 30
0.0
 40
13.719683889993171
 50
249.74384199961091
 51
290.2561580003873
  0
LINE
  5
3056
  8
0
 10
152.93073188316271
 20
63.884957974529598
 30
0.0
 11
152.93073188316291
 21
73.235810935614609
 31
0.0
  0
LINE
  5
3057
  8
0
 10
152.43073188316271
 20
63.524486070209498
 30
0.0
 11
152.93073188316271
 21
63.884957974529598
 31
0.0
  0
ARC
  5
3058
  8
0
 10
148.18073188316291
 20
59.516127045621502
 30
0.0
 40
13.719683889993171
 50
69.743841999612698
 51
110.2561580003873
  0
LINE
  5
3059
  8
0
 10
152.93073188316291
 20
73.235810935614609
 30
0.0
 11
152.43073188316291
 21
73.524486070209505
 31
0.0
  0
LINE
  5
305C
  8
0
 10
58.175514682743369
 20
170.07859765582759
 30
0.0
 11
63.660342240044869
 21
160.57859765582759
 31
0.0
  0
LINE
  5
305D
  8
0
 10
63.660342240045011
 20
179.57859765582759
 30
0.0
 11
58.175514682743369
 21
170.07859765582759
 31
0.0
  0
LINE
  5
305E
  8
0
 10
74.629997354647813
 20
179.57859765582759
 30
0.0
 11
63.660342240045011
 21
179.57859765582759
 31
0.0
  0
LINE
  5
305F
  8
0
 10
80.114824911949086
 20
170.07859765582759
 30
0.0
 11
74.629997354647813
 21
179.57859765582759
 31
0.0
  0
LINE
  5
3060
  8
0
 10
74.629997354647557
 20
160.57859765582759
 30
0.0
 11
80.114824911949086
 21
170.07859765582759
 31
0.0
  0
CIRCLE
  5
3061
  8
3
 10
69.145169797346284
 20
170.07859765582759
 30
0.0
 40
5.052999999999999
  0
CIRCLE
  5
3062
  8
0
 10
69.145169797346284
 20
170.07859765582759
 30
0.0
 40
6.0
  0
CIRCLE
  5
3063
  8
0
 10
69.145169797346284
 20
170.07859765582759
 30
0.0
 40
9.0
  0
LINE
  5
3064
  8
0
 10
63.660342240044869
 20
160.57859765582759
 30
0.0
 11
74.629997354647557
 21
160.57859765582759
 31
0.0
  0
LINE
  5
30ED
  8
0
 10
69.145169797346284
 20
51.74383083078002
 30
0.0
 11
69.145169797346256
 21
48.305141309638898
 31
0.0
  0
LINE
  5
30EE
  8
0
 10
62.145169797346291
 20
52.369045613119212
 30
0.0
 11
62.145169797346291
 21
47.679926527299678
 31
0.0
  0
LINE
  5
30EF
  8
0
 10
76.14516979734627
 20
52.369045613119212
 30
0.0
 11
76.14516979734627
 21
47.679926527299678
 31
0.0
  0
LINE
  5
30F0
  8
0
 10
75.87593902811426
 20
52.52448607020947
 30
0.0
 11
62.41440056657828
 21
52.52448607020947
 31
0.0
  0
ARC
  5
30F1
  8
0
 10
65.645169797346398
 20
42.259804852081807
 30
0.0
 40
10.10924076103746
 50
69.743841999583154
 51
110.2561580004168
  0
LINE
  5
30F2
  8
0
 10
62.145169797346291
 20
52.369045613119212
 30
0.0
 11
62.41440056657828
 21
52.52448607020947
 31
0.0
  0
LINE
  5
30F3
  8
0
 10
76.14516979734627
 20
52.369045613119212
 30
0.0
 11
75.87593902811426
 21
52.52448607020947
 31
0.0
  0
ARC
  5
30F4
  8
0
 10
72.645169797346185
 20
42.259804852081807
 30
0.0
 40
10.10924076103746
 50
69.743841999583154
 51
110.2561580004167
  0
LINE
  5
30F5
  8
0
 10
75.87593902811426
 20
47.52448607020947
 30
0.0
 11
62.41440056657828
 21
47.52448607020947
 31
0.0
  0
ARC
  5
30F6
  8
0
 10
65.645169797346398
 20
57.789167288337097
 30
0.0
 40
10.10924076103746
 50
249.74384199958311
 51
290.25615800041692
  0
LINE
  5
30F7
  8
0
 10
62.145169797346291
 20
47.679926527299678
 30
0.0
 11
62.41440056657828
 21
47.52448607020947
 31
0.0
  0
LINE
  5
30F8
  8
0
 10
76.14516979734627
 20
47.679926527299678
 30
0.0
 11
75.87593902811426
 21
47.52448607020947
 31
0.0
  0
ARC
  5
30F9
  8
0
 10
72.645169797346185
 20
57.789167288337097
 30
0.0
 40
10.10924076103746
 50
249.74384199958311
 51
290.25615800041692
  0
LINE
  5
30FA
  8
0
 10
150.16150111393071
 20
47.524486070209591
 30
0.0
 11
136.6999626523949
 21
47.524486070209591
 31
0.0
  0
LINE
  5
30FB
  8
0
 10
136.69996265239351
 20
52.52448607020947
 30
0.0
 11
150.1615011139304
 21
52.52448607020947
 31
0.0
  0
ARC
  5
30FC
  8
0
 10
149.49290970965359
 20
48.790893765326793
 30
0.0
 40
3.5781518477924039
 50
64.384247467826285
 51
124.3842474680382
  0
LINE
  5
30FD
  8
0
 10
151.51363565181751
 20
51.743830830779928
 30
0.0
 11
150.16150111393071
 21
52.52448607020947
 31
0.0
  0
LINE
  5
30FE
  8
0
 10
151.51363565181751
 20
48.305141309639161
 30
0.0
 11
150.16150111393071
 21
47.524486070209591
 31
0.0
  0
ARC
  5
30FF
  8
0
 10
149.49290970965359
 20
51.258078375092268
 30
0.0
 40
3.5781518477924039
 50
235.61575253196159
 51
295.6157525321737
  0
LINE
  5
3100
  8
0
 10
151.5136356518174
 20
51.74383083077997
 30
0.0
 11
151.51363565181751
 21
48.305141309639161
 31
0.0
  0
LINE
  5
3101
  8
0
 10
147.4721837674883
 20
51.743830830780482
 30
0.0
 11
147.47218376749009
 21
48.305141309640788
 31
0.0
  0
LINE
  5
3102
  8
0
 10
139.389279998837
 20
51.743830830778769
 30
0.0
 11
139.38927999883521
 21
48.305141309640788
 31
0.0
  0
LINE
  5
3103
  8
0
 10
135.34782811450791
 20
51.743830830779928
 30
0.0
 11
135.34782811450791
 21
48.305141309639161
 31
0.0
  0
ARC
  5
3104
  8
0
 10
143.4307318831637
 20
61.054711744953607
 30
0.0
 40
13.374785217653811
 50
252.4120462259954
 51
287.58795377400293
  0
ARC
  5
3105
  8
0
 10
137.36855405667171
 20
51.258078375092268
 30
0.0
 40
3.5781518477924039
 50
244.3842474678259
 51
304.38424746803821
  0
LINE
  5
3106
  8
0
 10
135.34782811450791
 20
48.305141309639161
 30
0.0
 11
136.6999626523947
 21
47.524486070209591
 31
0.0
  0
LINE
  5
3107
  8
0
 10
135.34782811450791
 20
51.743830830779928
 30
0.0
 11
136.6999626523947
 21
52.52448607020947
 31
0.0
  0
ARC
  5
3108
  8
0
 10
143.4307318831637
 20
38.994260395465453
 30
0.0
 40
13.374785217653811
 50
72.412046225997088
 51
107.5879537740046
  0
ARC
  5
3109
  8
0
 10
137.36855405667171
 20
48.790893765326793
 30
0.0
 40
3.5781518477924039
 50
55.615752531961753
 51
115.6157525321737
  0
TEXT
  5
3560
  8
0
 62
     3
 10
0.0
 20
0.0
 30
0.0
 40
10.0
  1
LSA50S12B
  7
STANDARD1
  0
ENDSEC
  0
EOF
