  0
SECTION
  2
HEADER
  9
$ACADVER
  1
AC1009
  9
$INSBASE
 10
0.0
 20
0.0
 30
0.0
  9
$EXTMIN
 10
0.0
 20
-2.960436562073669
 30
0.0
  9
$EXTMAX
 10
168.43073188316279
 20
201.61751292705671
 30
0.0
  9
$LIMMIN
 10
0.0
 20
0.0
  9
$LIMMAX
 10
375.0
 20
270.0
  9
$ORTHOMODE
 70
     1
  9
$REGENMODE
 70
     1
  9
$FILLMODE
 70
     1
  9
$QTEXTMODE
 70
     0
  9
$MIRRTEXT
 70
     0
  9
$DRAGMODE
 70
     2
  9
$LTSCALE
 40
6.0
  9
$OSMODE
 70
    37
  9
$ATTMODE
 70
     1
  9
$TEXTSIZE
 40
0.2
  9
$TRACEWID
 40
0.05
  9
$TEXTSTYLE
  7
STANDARD
  9
$CLAYER
  8
0
  9
$CELTYPE
  6
BYLAYER
  9
$CECOLOR
 62
   256
  9
$DIMSCALE
 40
1.0
  9
$DIMASZ
 40
3.0
  9
$DIMEXO
 40
1.0
  9
$DIMDLI
 40
6.0
  9
$DIMRND
 40
0.0
  9
$DIMDLE
 40
0.0
  9
$DIMEXE
 40
1.0
  9
$DIMTP
 40
495.0
  9
$DIMTM
 40
0.0
  9
$DIMTXT
 40
3.0
  9
$DIMCEN
 40
0.0
  9
$DIMTSZ
 40
0.0
  9
$DIMTOL
 70
     0
  9
$DIMLIM
 70
     0
  9
$DIMTIH
 70
     0
  9
$DIMTOH
 70
     0
  9
$DIMSE1
 70
     0
  9
$DIMSE2
 70
     0
  9
$DIMTAD
 70
     1
  9
$DIMZIN
 70
     8
  9
$DIMBLK
  1

  9
$DIMASO
 70
     0
  9
$DIMSHO
 70
     0
  9
$DIMPOST
  1

  9
$DIMAPOST
  1

  9
$DIMALT
 70
     0
  9
$DIMALTD
 70
     2
  9
$DIMALTF
 40
25.399999999999999
  9
$DIMLFAC
 40
1.0
  9
$DIMTOFL
 70
     1
  9
$DIMTVP
 40
0.0
  9
$DIMTIX
 70
     1
  9
$DIMSOXD
 70
     0
  9
$DIMSAH
 70
     0
  9
$DIMBLK1
  1

  9
$DIMBLK2
  1

  9
$DIMSTYLE
  2
STANDARD
  9
$DIMCLRD
 70
     0
  9
$DIMCLRE
 70
     0
  9
$DIMCLRT
 70
     4
  9
$DIMTFAC
 40
1.0
  9
$DIMGAP
 40
1.0
  9
$LUNITS
 70
     2
  9
$LUPREC
 70
     4
  9
$SKETCHINC
 40
0.1
  9
$FILLETRAD
 40
2.0
  9
$AUNITS
 70
     0
  9
$AUPREC
 70
     0
  9
$MENU
  1
C:\R13\WIN\SUPPORT\ACAD-I
  9
$ELEVATION
 40
0.0
  9
$PELEVATION
 40
0.0
  9
$THICKNESS
 40
0.0
  9
$LIMCHECK
 70
     0
  9
$BLIPMODE
 70
     0
  9
$CHAMFERA
 40
0.0
  9
$CHAMFERB
 40
0.0
  9
$SKPOLY
 70
     0
  9
$TDCREATE
 40
2451961.711538055
  9
$TDUPDATE
 40
2456598.717951586
  9
$TDINDWG
 40
0.1065559259
  9
$TDUSRTIMER
 40
2456598.011961956
  9
$USRTIMER
 70
     1
  9
$ANGBASE
 50
0.0
  9
$ANGDIR
 70
     0
  9
$PDMODE
 70
     0
  9
$PDSIZE
 40
0.0
  9
$PLINEWID
 40
0.0
  9
$COORDS
 70
     1
  9
$SPLFRAME
 70
     0
  9
$SPLINETYPE
 70
     6
  9
$SPLINESEGS
 70
     8
  9
$ATTDIA
 70
     0
  9
$ATTREQ
 70
     1
  9
$HANDLING
 70
     1
  9
$HANDSEED
  5
2E21
  9
$SURFTAB1
 70
     6
  9
$SURFTAB2
 70
     6
  9
$SURFTYPE
 70
     6
  9
$SURFU
 70
     6
  9
$SURFV
 70
     6
  9
$UCSNAME
  2

  9
$UCSORG
 10
0.0
 20
0.0
 30
0.0
  9
$UCSXDIR
 10
1.0
 20
0.0
 30
0.0
  9
$UCSYDIR
 10
0.0
 20
1.0
 30
0.0
  9
$PUCSNAME
  2

  9
$PUCSORG
 10
0.0
 20
0.0
 30
0.0
  9
$PUCSXDIR
 10
1.0
 20
0.0
 30
0.0
  9
$PUCSYDIR
 10
0.0
 20
1.0
 30
0.0
  9
$USERI1
 70
     4
  9
$USERI2
 70
     1
  9
$USERI3
 70
     0
  9
$USERI4
 70
     0
  9
$USERI5
 70
     0
  9
$USERR1
 40
1.0
  9
$USERR2
 40
3.0
  9
$USERR3
 40
3.0
  9
$USERR4
 40
3.0
  9
$USERR5
 40
10.0
  9
$WORLDVIEW
 70
     1
  9
$SHADEDGE
 70
     3
  9
$SHADEDIF
 70
    70
  9
$TILEMODE
 70
     1
  9
$MAXACTVP
 70
    16
  9
$PLIMCHECK
 70
     0
  9
$PEXTMIN
 10
1.0000000000000000E+020
 20
1.0000000000000000E+020
 30
1.0000000000000000E+020
  9
$PEXTMAX
 10
-1.0000000000000000E+020
 20
-1.0000000000000000E+020
 30
-1.0000000000000000E+020
  9
$PLIMMIN
 10
0.0
 20
0.0
  9
$PLIMMAX
 10
12.0
 20
9.0
  9
$UNITMODE
 70
     0
  9
$VISRETAIN
 70
     0
  9
$PLINEGEN
 70
     0
  9
$PSLTSCALE
 70
     0
  0
ENDSEC
  0
SECTION
  2
TABLES
  0
TABLE
  2
VPORT
 70
     1
  0
VPORT
  2
*ACTIVE
 70
     0
 10
0.0
 20
0.0
 11
1.0
 21
1.0
 12
187.49427839065231
 22
177.52205812711131
 13
0.0
 23
0.0
 14
10.0
 24
10.0
 15
10.0
 25
10.0
 16
0.0
 26
0.0
 36
1.0
 17
0.0
 27
0.0
 37
0.0
 40
364.13085016302909
 41
1.755244755244755
 42
50.0
 43
0.0
 44
0.0
 50
0.0
 51
0.0
 71
    16
 72
   100
 73
     1
 74
     0
 75
     0
 76
     0
 77
     0
 78
     0
  0
ENDTAB
  0
TABLE
  2
LTYPE
 70
     3
  0
LTYPE
  2
CONTINUOUS
 70
     0
  3
Solid Line
 72
    65
 73
     0
 40
0.0
  0
LTYPE
  2
PHANTOM2
 70
     0
  3
___ _ _ ___ _ _ ___ _ _ ___ _ _
 72
    65
 73
     6
 40
1.25
 49
0.625
 49
-0.125
 49
0.125
 49
-0.125
 49
0.125
 49
-0.125
  0
LTYPE
  2
CENTER
 70
     0
  3
____ _ ____ _ ____ _ ____ _ ____ _ ____ _ ____
 72
    65
 73
     4
 40
2.0
 49
1.25
 49
-0.25
 49
0.25
 49
-0.25
  0
ENDTAB
  0
TABLE
  2
LAYER
 70
     3
  0
LAYER
  2
0
 70
     0
 62
     7
  6
CONTINUOUS
  0
LAYER
  2
1
 70
     0
 62
     1
  6
CENTER
  0
LAYER
  2
3
 70
     0
 62
     3
  6
CONTINUOUS
  0
ENDTAB
  0
TABLE
  2
STYLE
 70
     3
  0
STYLE
  2
STANDARD
 70
     0
 40
0.0
 41
1.0
 50
0.0
 71
     0
 42
0.2
  3
SIMPLEX
  4
BIGFONT
  0
STYLE
  2
ANNOTATIVE
 70
     0
 40
0.0
 41
1.0
 50
0.0
 71
     0
 42
0.2
  3
txt
  4

  0
STYLE
  2
STANDARD1
 70
     0
 40
0.0
 41
1.0
 50
0.0
 71
     0
 42
3.0
  3
txt
  4

  0
ENDTAB
  0
TABLE
  2
VIEW
 70
     0
  0
ENDTAB
  0
TABLE
  2
UCS
 70
     0
  0
ENDTAB
  0
TABLE
  2
APPID
 70
    31
  0
APPID
  2
ACAD
 70
     0
  0
APPID
  2
ACADANNOTATIVE
 70
     0
  0
APPID
  2
GENIUS_GENOREF_13
 70
     0
  0
APPID
  2
GENIUS_GENOENT_13
 70
     0
  0
APPID
  2
GENIUS_GENBH_13
 70
     0
  0
APPID
  2
GENIUS_GENOBJ_13
 70
     0
  0
APPID
  2
GENIUS_GENODEF_13
 70
     0
  0
APPID
  2
GENIUS_GENOLIS_13
 70
     0
  0
APPID
  2
GENIUS_GENOBJ-NBEHI-BHF_13
 70
     0
  0
APPID
  2
GENIUS_GENOBJ-NBEHI-BHB_13
 70
     0
  0
APPID
  2
GENIUS_GENOBJ-F-PART_13
 70
     0
  0
APPID
  2
GENIUS_GEFSTDP_13
 70
     0
  0
APPID
  2
GENIUS_GENOBJ-N-RSSYM_13
 70
     0
  0
APPID
  2
GENIUS_GENSYMENT_13
 70
     0
  0
APPID
  2
GENIUS_GENOBJ-N-TIT_13
 70
     0
  0
APPID
  2
GENIUS_GENTITLE_13
 70
     0
  0
APPID
  2
GENIUS_GENZVEED_13
 70
     0
  0
APPID
  2
GENIUS_GENOBJ-N-LEADER_13
 70
     0
  0
APPID
  2
GENIUS_GENOBJ-N-FIL_13
 70
     0
  0
APPID
  2
GENIUS_GENOBJ-N-SEC_13
 70
     0
  0
APPID
  2
GENIUS_GENOBJ-N-CRS_13
 70
     0
  0
APPID
  2
GENIUS_GENOBJ-N-ZOO_13
 70
     0
  0
APPID
  2
GENIUS_GENZOO_13
 70
     0
  0
APPID
  2
GENIUS_GENOBJ-F-TOL_13
 70
     0
  0
APPID
  2
GENIUS_GENFIL_13
 70
     0
  0
APPID
  2
GENIUS_GENOBJ-N-CHA_13
 70
     0
  0
APPID
  2
ACAD_MLEADERVER
 70
     0
  0
APPID
  2
ACAD_DSTYLE_DIMJAG
 70
     0
  0
APPID
  2
ACAD_DSTYLE_DIMTALN
 70
     0
  0
APPID
  2
ACAD_EXEMPT_FROM_CAD_STANDARDS
 70
     0
  0
APPID
  2
ACAD_NAV_VCDISPLAY
 70
     0
  0
ENDTAB
  0
TABLE
  2
DIMSTYLE
 70
     2
  0
DIMSTYLE
  2
STANDARD
 70
     0
  3

  4

  5

  6

  7

 40
1.0
 41
0.18
 42
0.0625
 43
0.38
 44
0.18
 45
0.0
 46
0.0
 47
0.0
 48
0.0
140
0.18
141
0.09
142
0.0
143
25.399999999999999
144
1.0
145
0.0
146
1.0
147
0.09
 71
     0
 72
     0
 73
     1
 74
     1
 75
     0
 76
     0
 77
     0
 78
     0
170
     0
171
     2
172
     0
173
     0
174
     0
175
     0
176
     0
177
     0
178
     0
  0
DIMSTYLE
  2
ANNOTATIVE
 70
     0
  3

  4

  5

  6

  7

 40
1.0
 41
0.18
 42
0.0625
 43
0.38
 44
0.18
 45
0.0
 46
0.0
 47
0.0
 48
0.0
140
0.18
141
0.09
142
0.0
143
25.399999999999999
144
1.0
145
0.0
146
1.0
147
0.09
 71
     0
 72
     0
 73
     1
 74
     1
 75
     0
 76
     0
 77
     0
 78
     0
170
     0
171
     2
172
     0
173
     0
174
     0
175
     0
176
     0
177
     0
178
     0
  0
ENDTAB
  0
ENDSEC
  0
SECTION
  2
BLOCKS
  0
BLOCK
  8
0
  2
$MODEL_SPACE
 70
     0
 10
0.0
 20
0.0
 30
0.0
  3
$MODEL_SPACE
  1

  0
ENDBLK
  5
2C62
  8
0
  0
BLOCK
 67
     1
  8
0
  2
$PAPER_SPACE
 70
     0
 10
0.0
 20
0.0
 30
0.0
  3
$PAPER_SPACE
  1

  0
ENDBLK
  5
2C5E
 67
     1
  8
0
  0
ENDSEC
  0
SECTION
  2
ENTITIES
  0
LINE
  5
20C1
  8
0
 10
73.14516979734627
 20
118.9904860702095
 30
0.0
 11
71.611169797346278
 21
120.52448607020951
 31
0.0
  0
LINE
  5
20C2
  8
0
 10
66.67916979734629
 20
120.52448607020951
 30
0.0
 11
65.145169797346284
 21
118.9904860702095
 31
0.0
  0
LINE
  5
20C3
  8
0
 10
73.14516979734627
 20
52.52448607020947
 30
0.0
 11
73.145169797346298
 21
66.524486070209463
 31
0.0
  0
LINE
  5
20C4
  8
0
 10
65.145169797346284
 20
118.9904860702095
 30
0.0
 11
65.145169797346284
 21
73.024486070209463
 31
0.0
  0
LINE
  5
20D0
  8
0
 10
71.611169797346278
 20
120.52448607020951
 30
0.0
 11
66.67916979734629
 21
120.52448607020951
 31
0.0
  0
LINE
  5
20D1
  8
0
 10
73.14516979734627
 20
118.9904860702095
 30
0.0
 11
65.145169797346284
 21
118.9904860702095
 31
0.0
  0
LINE
  5
20EB
  8
3
 10
72.468669797346351
 20
119.6669860702094
 30
0.0
 11
72.468669797346351
 21
73.024486070209463
 31
0.0
  0
LINE
  5
20F0
  8
1
 10
69.145169797346284
 20
124.52448607020951
 30
0.0
 11
69.145169797346284
 21
21.524486070209491
 31
0.0
  0
LINE
  5
20F4
  8
0
 10
81.08500261487201
 20
37.590615195015047
 30
0.0
 11
80.145169797346284
 21
43.524486070209477
 31
0.0
  0
LINE
  5
20F5
  8
0
 10
58.14516979734627
 20
43.524486070209477
 30
0.0
 11
57.205336979820537
 21
37.590615195015047
 31
0.0
  0
LINE
  5
20F8
  8
0
 10
94.145169797346284
 20
32.024486070209477
 30
0.0
 11
81.08500261487201
 21
37.590615195015047
 31
0.0
  0
LINE
  5
20F9
  8
0
 10
57.205336979820537
 20
37.590615195015047
 30
0.0
 11
44.14516979734627
 21
32.02448607020947
 31
0.0
  0
LINE
  5
20FC
  8
0
 10
93.645169797346284
 20
25.52448607020948
 30
0.0
 11
94.145169797346284
 21
26.02448607020948
 31
0.0
  0
LINE
  5
20FD
  8
0
 10
44.14516979734627
 20
26.02448607020948
 30
0.0
 11
44.645169797346277
 21
25.52448607020948
 31
0.0
  0
LINE
  5
2101
  8
0
 10
80.145169797346284
 20
43.524486070209477
 30
0.0
 11
58.14516979734627
 21
43.524486070209477
 31
0.0
  0
LINE
  5
2105
  8
0
 10
94.145169797346284
 20
32.024486070209477
 30
0.0
 11
44.14516979734627
 21
32.02448607020947
 31
0.0
  0
LINE
  5
2107
  8
0
 10
93.645169797346284
 20
25.52448607020948
 30
0.0
 11
44.645169797346277
 21
25.52448607020948
 31
0.0
  0
POINT
  5
210C
  8
0
 10
69.145169797346284
 20
25.52448607020948
 30
0.0
210
0.0
220
1.0
230
0.0
  0
CIRCLE
  5
2137
  8
0
 10
69.145169797346284
 20
172.61751292705671
 30
0.0
 40
4.0
  0
ARC
  5
2139
  8
0
 10
69.145169797346284
 20
172.61751292705671
 30
0.0
 40
6.9900000000000002
 50
68.419209897134806
 51
111.58079010286509
  0
POLYLINE
  5
213B
  8
0
 66
     1
 10
0.0
 20
0.0
 30
0.0
  0
VERTEX
  5
2D5A
  8
0
 10
69.145169797346284
 20
164.53460915840191
 30
0.0
  0
VERTEX
  5
2D5B
  8
0
 10
69.367005725032811
 20
164.66268619096761
 30
0.0
  0
VERTEX
  5
2D5C
  8
0
 10
69.795846333629456
 20
164.9102774317804
 30
0.0
  0
VERTEX
  5
2D5D
  8
0
 10
70.207592112067502
 20
165.14799896779931
 30
0.0
  0
VERTEX
  5
2D5E
  8
0
 10
70.407974070513191
 20
165.26368954544861
 30
0.0
  0
VERTEX
  5
2D5F
  8
0
 10
70.605147111224866
 20
165.3775274535804
 30
0.0
  0
VERTEX
  5
2D60
  8
0
 10
70.991125382879247
 20
165.6003721126215
 30
0.0
  0
VERTEX
  5
2D61
  8
0
 10
71.367913421530574
 20
165.8179107881642
 30
0.0
  0
VERTEX
  5
2D62
  8
0
 10
71.737722848185982
 20
166.03142036019261
 30
0.0
  0
VERTEX
  5
2D63
  8
0
 10
71.886839548148956
 20
166.11751292705691
 30
0.0
  0
SEQEND
  5
2D64
  8
0
  0
POLYLINE
  5
213D
  8
0
 66
     1
 10
0.0
 20
0.0
 30
0.0
  0
VERTEX
  5
2D65
  8
0
 10
76.14516979734627
 20
168.57606104272929
 30
0.0
  0
VERTEX
  5
2D66
  8
0
 10
76.14516979734627
 20
168.8322151078608
 30
0.0
  0
VERTEX
  5
2D67
  8
0
 10
76.14516979734627
 20
169.32739758948611
 30
0.0
  0
VERTEX
  5
2D68
  8
0
 10
76.14516979734627
 20
169.80284066152399
 30
0.0
  0
VERTEX
  5
2D69
  8
0
 10
76.14516979734627
 20
170.03422181682271
 30
0.0
  0
VERTEX
  5
2D6A
  8
0
 10
76.14516979734627
 20
170.26189763308639
 30
0.0
  0
VERTEX
  5
2D6B
  8
0
 10
76.14516979734627
 20
170.70758695116839
 30
0.0
  0
VERTEX
  5
2D6C
  8
0
 10
76.14516979734627
 20
171.14266430225391
 30
0.0
  0
VERTEX
  5
2D6D
  8
0
 10
76.14516979734627
 20
171.56968344631071
 30
0.0
  0
VERTEX
  5
2D6E
  8
0
 10
76.14516979734627
 20
171.74186858003941
 30
0.0
  0
SEQEND
  5
2D6F
  8
0
  0
POLYLINE
  5
213F
  8
0
 66
     1
 10
0.0
 20
0.0
 30
0.0
  0
VERTEX
  5
2D70
  8
0
 10
76.14516979734627
 20
176.65896481138401
 30
0.0
  0
VERTEX
  5
2D71
  8
0
 10
75.923333869659743
 20
176.78704184394979
 30
0.0
  0
VERTEX
  5
2D72
  8
0
 10
75.494493261063084
 20
177.0346330847625
 30
0.0
  0
VERTEX
  5
2D73
  8
0
 10
75.082747482625066
 20
177.27235462078141
 30
0.0
  0
VERTEX
  5
2D74
  8
0
 10
74.882365524179363
 20
177.3880451984308
 30
0.0
  0
VERTEX
  5
2D75
  8
0
 10
74.685192483467702
 20
177.50188310656259
 30
0.0
  0
VERTEX
  5
2D76
  8
0
 10
74.299214211813322
 20
177.7247277656036
 30
0.0
  0
VERTEX
  5
2D77
  8
0
 10
73.922426173161981
 20
177.94226644114639
 30
0.0
  0
VERTEX
  5
2D78
  8
0
 10
73.552616746506573
 20
178.15577601317469
 30
0.0
  0
VERTEX
  5
2D79
  8
0
 10
73.403500046543499
 20
178.2418685800391
 30
0.0
  0
SEQEND
  5
2D7A
  8
0
  0
POLYLINE
  5
2141
  8
0
 66
     1
 10
0.0
 20
0.0
 30
0.0
  0
VERTEX
  5
2D7B
  8
0
 10
69.145169797346284
 20
180.7004166957114
 30
0.0
  0
VERTEX
  5
2D7C
  8
0
 10
68.923333869659714
 20
180.57233966314561
 30
0.0
  0
VERTEX
  5
2D7D
  8
0
 10
68.494493261063084
 20
180.3247484223329
 30
0.0
  0
VERTEX
  5
2D7E
  8
0
 10
68.082747482625066
 20
180.08702688631399
 30
0.0
  0
VERTEX
  5
2D7F
  8
0
 10
67.882365524179377
 20
179.97133630866469
 30
0.0
  0
VERTEX
  5
2D80
  8
0
 10
67.685192483467702
 20
179.8574984005329
 30
0.0
  0
VERTEX
  5
2D81
  8
0
 10
67.299214211813322
 20
179.6346537414918
 30
0.0
  0
VERTEX
  5
2D82
  8
0
 10
66.922426173161981
 20
179.4171150659491
 30
0.0
  0
VERTEX
  5
2D83
  8
0
 10
66.552616746506573
 20
179.20360549392069
 30
0.0
  0
VERTEX
  5
2D84
  8
0
 10
66.40350004654357
 20
179.1175129270564
 30
0.0
  0
SEQEND
  5
2D85
  8
0
  0
POLYLINE
  5
2143
  8
0
 66
     1
 10
0.0
 20
0.0
 30
0.0
  0
VERTEX
  5
2D86
  8
0
 10
62.145169797346291
 20
176.65896481138401
 30
0.0
  0
VERTEX
  5
2D87
  8
0
 10
62.145169797346291
 20
176.4028107462525
 30
0.0
  0
VERTEX
  5
2D88
  8
0
 10
62.145169797346291
 20
175.90762826462711
 30
0.0
  0
VERTEX
  5
2D89
  8
0
 10
62.145169797346291
 20
175.43218519258929
 30
0.0
  0
VERTEX
  5
2D8A
  8
0
 10
62.145169797346291
 20
175.2008040372906
 30
0.0
  0
VERTEX
  5
2D8B
  8
0
 10
62.145169797346291
 20
174.97312822102691
 30
0.0
  0
VERTEX
  5
2D8C
  8
0
 10
62.145169797346291
 20
174.52743890294491
 30
0.0
  0
VERTEX
  5
2D8D
  8
0
 10
62.145169797346291
 20
174.0923615518594
 30
0.0
  0
VERTEX
  5
2D8E
  8
0
 10
62.145169797346291
 20
173.66534240780271
 30
0.0
  0
VERTEX
  5
2D8F
  8
0
 10
62.145169797346291
 20
173.49315727407381
 30
0.0
  0
SEQEND
  5
2D90
  8
0
  0
POLYLINE
  5
2145
  8
0
 66
     1
 10
0.0
 20
0.0
 30
0.0
  0
VERTEX
  5
2D91
  8
0
 10
62.145169797346291
 20
168.57606104272929
 30
0.0
  0
VERTEX
  5
2D92
  8
0
 10
62.36700572503284
 20
168.44798401016351
 30
0.0
  0
VERTEX
  5
2D93
  8
0
 10
62.795846333629463
 20
168.2003927693508
 30
0.0
  0
VERTEX
  5
2D94
  8
0
 10
63.207592112067502
 20
167.9626712333318
 30
0.0
  0
VERTEX
  5
2D95
  8
0
 10
63.407974070513191
 20
167.8469806556825
 30
0.0
  0
VERTEX
  5
2D96
  8
0
 10
63.605147111224873
 20
167.73314274755069
 30
0.0
  0
VERTEX
  5
2D97
  8
0
 10
63.991125382879247
 20
167.5102980885097
 30
0.0
  0
VERTEX
  5
2D98
  8
0
 10
64.367913421530574
 20
167.29275941296689
 30
0.0
  0
VERTEX
  5
2D99
  8
0
 10
64.737722848185982
 20
167.07924984093859
 30
0.0
  0
VERTEX
  5
2D9A
  8
0
 10
64.886839548149055
 20
166.99315727407409
 30
0.0
  0
SEQEND
  5
2D9B
  8
0
  0
CIRCLE
  5
214B
  8
0
 10
69.145169797346284
 20
172.61751292705671
 30
0.0
 40
11.06680382756582
  0
CIRCLE
  5
214C
  8
0
 10
69.145169797346284
 20
172.61751292705671
 30
0.0
 40
11.939832817525719
  0
CIRCLE
  5
214F
  8
0
 10
69.145169797346284
 20
172.61751292705671
 30
0.0
 40
25.0
  0
LINE
  5
2152
  8
1
 10
40.145169797346277
 20
172.61751292705671
 30
0.0
 11
98.145169797346284
 21
172.61751292705671
 31
0.0
  0
LINE
  5
2153
  8
1
 10
69.145169797346284
 20
143.61751292705671
 30
0.0
 11
69.145169797346284
 21
201.61751292705671
 31
0.0
  0
LINE
  5
21DE
  8
3
 10
72.468669797346379
 20
54.524486070209527
 30
0.0
 11
73.14516979734627
 21
53.352753698889408
 31
0.0
  0
LINE
  5
21DF
  8
3
 10
65.821669797346203
 20
54.524486070209527
 30
0.0
 11
65.145169797346284
 21
53.352753698889408
 31
0.0
  0
LINE
  5
21E0
  8
0
 10
65.145169797346284
 20
54.524486070209527
 30
0.0
 11
73.145169797346341
 21
54.524486070209463
 31
0.0
  0
LINE
  5
21E1
  8
3
 10
65.821669797347397
 20
119.6669860702095
 30
0.0
 11
65.821669797346715
 21
73.024486070209463
 31
0.0
  0
CIRCLE
  5
24D1
  8
3
 10
69.145169797346284
 20
172.61751292705671
 30
0.0
 40
3.323500000000065
  0
LINE
  5
2555
  8
0
 10
94.145169797346284
 20
26.02448607020948
 30
0.0
 11
94.145169797346284
 21
32.02448607020947
 31
0.0
  0
LINE
  5
2556
  8
0
 10
44.14516979734627
 20
26.02448607020948
 30
0.0
 11
44.14516979734627
 21
32.02448607020947
 31
0.0
  0
LINE
  5
2557
  8
0
 10
57.205336979820537
 20
37.590615195015047
 30
0.0
 11
81.08500261487201
 21
37.590615195015047
 31
0.0
  0
ARC
  5
2651
  8
0
 10
63.516004672748807
 20
69.557578929961409
 30
0.0
 40
3.3225695729499729
 50
55.615752531959828
 51
115.6157525321757
  0
ARC
  5
2652
  8
0
 10
69.145169797348274
 20
60.460705086519027
 30
0.0
 40
12.41944341639239
 50
72.412046225997088
 51
107.5879537740046
  0
LINE
  5
2653
  8
0
 10
61.639616297882462
 20
72.299591919310643
 30
0.0
 11
62.895169797348728
 21
73.024486070209463
 31
0.0
  0
LINE
  5
2654
  8
0
 10
61.639616297882462
 20
67.249380221108282
 30
0.0
 11
62.895169797348728
 21
66.524486070209463
 31
0.0
  0
ARC
  5
2655
  8
0
 10
63.516004672748807
 20
69.991393210457517
 30
0.0
 40
3.3225695729499729
 50
244.38424746782431
 51
304.38424746803997
  0
ARC
  5
2656
  8
0
 10
69.145169797348274
 20
79.088267053899898
 30
0.0
 40
12.41944341639239
 50
252.4120462259954
 51
287.58795377400293
  0
LINE
  5
2657
  8
0
 10
61.639616297882462
 20
72.299591919310643
 30
0.0
 11
61.639616297882462
 21
67.249380221108282
 31
0.0
  0
LINE
  5
2658
  8
0
 10
65.392393047616736
 20
72.299591919310643
 30
0.0
 11
65.392393047614917
 21
67.249380221109817
 31
0.0
  0
LINE
  5
2659
  8
0
 10
72.897946547077964
 20
72.299591919310643
 30
0.0
 11
72.897946547079812
 21
67.249380221109817
 31
0.0
  0
LINE
  5
265A
  8
0
 10
76.650723296812274
 20
72.299591919310643
 30
0.0
 11
76.650723296812274
 21
67.249380221108282
 31
0.0
  0
ARC
  5
265B
  8
0
 10
74.774334921945922
 20
69.991393210457517
 30
0.0
 40
3.3225695729499729
 50
235.6157525319596
 51
295.61575253217569
  0
LINE
  5
265C
  8
0
 10
76.650723296812274
 20
67.249380221108282
 30
0.0
 11
75.395169797345986
 21
66.524486070209463
 31
0.0
  0
LINE
  5
265D
  8
0
 10
76.650723296812274
 20
72.299591919310643
 30
0.0
 11
75.395169797345986
 21
73.024486070209463
 31
0.0
  0
ARC
  5
265E
  8
0
 10
74.774334921945922
 20
69.557578929961409
 30
0.0
 40
3.3225695729499729
 50
64.384247467824224
 51
124.38424746804
  0
LINE
  5
265F
  8
0
 10
62.895169797347592
 20
73.024486070209463
 30
0.0
 11
75.395169797345787
 21
73.024486070209463
 31
0.0
  0
LINE
  5
2660
  8
0
 10
75.395169797345986
 20
66.524486070209463
 30
0.0
 11
62.895169797348949
 21
66.524486070209463
 31
0.0
  0
LINE
  5
2661
  8
0
 10
65.145169797346284
 20
66.524486070209463
 30
0.0
 11
65.145169797346284
 21
52.52448607020947
 31
0.0
  0
LINE
  5
2662
  8
0
 10
73.14516979734627
 20
73.024486070209463
 30
0.0
 11
73.14516979734627
 21
118.9904860702095
 31
0.0
  0
LINE
  5
2663
  8
3
 10
72.468669797346379
 20
66.524486070209463
 30
0.0
 11
72.468669797346379
 21
54.52448607020952
 31
0.0
  0
LINE
  5
2664
  8
3
 10
65.821669797346573
 20
66.524486070209463
 30
0.0
 11
65.821669797346232
 21
54.524486070209612
 31
0.0
  0
LINE
  5
2665
  8
0
 10
61.639616297881503
 20
172.61751292705659
 30
0.0
 11
65.392393047613893
 21
166.11751292705691
 31
0.0
  0
LINE
  5
2666
  8
0
 10
65.392393047613893
 20
179.1175129270564
 30
0.0
 11
61.639616297881503
 21
172.61751292705659
 31
0.0
  0
LINE
  5
2667
  8
0
 10
72.897946547078675
 20
179.1175129270564
 30
0.0
 11
65.392393047613893
 21
179.1175129270564
 31
0.0
  0
LINE
  5
2668
  8
0
 10
76.650723296811066
 20
172.61751292705659
 30
0.0
 11
72.897946547078675
 21
179.1175129270564
 31
0.0
  0
LINE
  5
2669
  8
0
 10
72.897946547078675
 20
166.11751292705691
 30
0.0
 11
76.650723296811066
 21
172.61751292705659
 31
0.0
  0
LINE
  5
266A
  8
0
 10
65.392393047613893
 20
166.11751292705691
 30
0.0
 11
72.897946547078675
 21
166.11751292705691
 31
0.0
  0
POLYLINE
  5
266C
  8
0
 66
     1
 10
0.0
 20
0.0
 30
0.0
  0
VERTEX
  5
2D9C
  8
0
 10
71.886839548149027
 20
179.1175129270564
 30
0.0
  0
VERTEX
  5
2D9D
  8
0
 10
71.737722848185982
 20
179.20360549392069
 30
0.0
  0
VERTEX
  5
2D9E
  8
0
 10
71.367913421530574
 20
179.4171150659491
 30
0.0
  0
VERTEX
  5
2D9F
  8
0
 10
70.991125382879247
 20
179.6346537414918
 30
0.0
  0
VERTEX
  5
2DA0
  8
0
 10
70.605147111224866
 20
179.8574984005329
 30
0.0
  0
VERTEX
  5
2DA1
  8
0
 10
70.407974070513191
 20
179.97133630866469
 30
0.0
  0
VERTEX
  5
2DA2
  8
0
 10
70.207592112067502
 20
180.08702688631399
 30
0.0
  0
VERTEX
  5
2DA3
  8
0
 10
69.795846333629498
 20
180.3247484223329
 30
0.0
  0
VERTEX
  5
2DA4
  8
0
 10
69.367005725032811
 20
180.57233966314561
 30
0.0
  0
VERTEX
  5
2DA5
  8
0
 10
69.145169797346284
 20
180.7004166957114
 30
0.0
  0
SEQEND
  5
2DA6
  8
0
  0
ARC
  5
266D
  8
0
 10
69.145169797346284
 20
172.61751292705671
 30
0.0
 40
6.9900000000000002
 50
128.41920989713381
 51
171.5807901028669
  0
POLYLINE
  5
266E
  8
0
 66
     1
 10
0.0
 20
0.0
 30
0.0
  0
VERTEX
  5
2DA7
  8
0
 10
64.886839548149055
 20
178.2418685800391
 30
0.0
  0
VERTEX
  5
2DA8
  8
0
 10
64.737722848185982
 20
178.15577601317469
 30
0.0
  0
VERTEX
  5
2DA9
  8
0
 10
64.367913421530574
 20
177.94226644114639
 30
0.0
  0
VERTEX
  5
2DAA
  8
0
 10
63.991125382879247
 20
177.7247277656036
 30
0.0
  0
VERTEX
  5
2DAB
  8
0
 10
63.605147111224873
 20
177.50188310656259
 30
0.0
  0
VERTEX
  5
2DAC
  8
0
 10
63.407974070513191
 20
177.3880451984308
 30
0.0
  0
VERTEX
  5
2DAD
  8
0
 10
63.207592112067502
 20
177.27235462078141
 30
0.0
  0
VERTEX
  5
2DAE
  8
0
 10
62.795846333629463
 20
177.0346330847625
 30
0.0
  0
VERTEX
  5
2DAF
  8
0
 10
62.367005725032818
 20
176.78704184394979
 30
0.0
  0
VERTEX
  5
2DB0
  8
0
 10
62.145169797346291
 20
176.65896481138401
 30
0.0
  0
SEQEND
  5
2DB1
  8
0
  0
ARC
  5
266F
  8
0
 10
69.145169797346284
 20
172.61751292705671
 30
0.0
 40
6.9900000000000002
 50
188.4192098971335
 51
231.5807901028659
  0
POLYLINE
  5
2670
  8
0
 66
     1
 10
0.0
 20
0.0
 30
0.0
  0
VERTEX
  5
2DB2
  8
0
 10
62.145169797346291
 20
171.74186858003941
 30
0.0
  0
VERTEX
  5
2DB3
  8
0
 10
62.145169797346291
 20
171.56968344631071
 30
0.0
  0
VERTEX
  5
2DB4
  8
0
 10
62.145169797346291
 20
171.14266430225391
 30
0.0
  0
VERTEX
  5
2DB5
  8
0
 10
62.145169797346291
 20
170.70758695116839
 30
0.0
  0
VERTEX
  5
2DB6
  8
0
 10
62.145169797346291
 20
170.26189763308639
 30
0.0
  0
VERTEX
  5
2DB7
  8
0
 10
62.145169797346291
 20
170.03422181682271
 30
0.0
  0
VERTEX
  5
2DB8
  8
0
 10
62.145169797346291
 20
169.80284066152399
 30
0.0
  0
VERTEX
  5
2DB9
  8
0
 10
62.145169797346291
 20
169.32739758948611
 30
0.0
  0
VERTEX
  5
2DBA
  8
0
 10
62.145169797346291
 20
168.8322151078608
 30
0.0
  0
VERTEX
  5
2DBB
  8
0
 10
62.145169797346291
 20
168.57606104272929
 30
0.0
  0
SEQEND
  5
2DBC
  8
0
  0
POLYLINE
  5
2671
  8
0
 66
     1
 10
0.0
 20
0.0
 30
0.0
  0
VERTEX
  5
2DBD
  8
0
 10
66.403500046543613
 20
166.11751292705691
 30
0.0
  0
VERTEX
  5
2DBE
  8
0
 10
66.552616746506573
 20
166.03142036019261
 30
0.0
  0
VERTEX
  5
2DBF
  8
0
 10
66.922426173161981
 20
165.8179107881642
 30
0.0
  0
VERTEX
  5
2DC0
  8
0
 10
67.299214211813322
 20
165.6003721126215
 30
0.0
  0
VERTEX
  5
2DC1
  8
0
 10
67.685192483467702
 20
165.3775274535804
 30
0.0
  0
VERTEX
  5
2DC2
  8
0
 10
67.882365524179377
 20
165.26368954544861
 30
0.0
  0
VERTEX
  5
2DC3
  8
0
 10
68.082747482625066
 20
165.14799896779931
 30
0.0
  0
VERTEX
  5
2DC4
  8
0
 10
68.494493261063084
 20
164.9102774317804
 30
0.0
  0
VERTEX
  5
2DC5
  8
0
 10
68.923333869659714
 20
164.66268619096761
 30
0.0
  0
VERTEX
  5
2DC6
  8
0
 10
69.145169797346284
 20
164.53460915840191
 30
0.0
  0
SEQEND
  5
2DC7
  8
0
  0
ARC
  5
2672
  8
0
 10
69.145169797346284
 20
172.61751292705671
 30
0.0
 40
6.9900000000000002
 50
248.4192098971354
 51
291.5807901028644
  0
POLYLINE
  5
2673
  8
0
 66
     1
 10
0.0
 20
0.0
 30
0.0
  0
VERTEX
  5
2DC8
  8
0
 10
73.403500046543499
 20
166.99315727407409
 30
0.0
  0
VERTEX
  5
2DC9
  8
0
 10
73.552616746506573
 20
167.07924984093859
 30
0.0
  0
VERTEX
  5
2DCA
  8
0
 10
73.922426173161981
 20
167.29275941296689
 30
0.0
  0
VERTEX
  5
2DCB
  8
0
 10
74.299214211813322
 20
167.5102980885097
 30
0.0
  0
VERTEX
  5
2DCC
  8
0
 10
74.685192483467702
 20
167.73314274755069
 30
0.0
  0
VERTEX
  5
2DCD
  8
0
 10
74.882365524179392
 20
167.8469806556825
 30
0.0
  0
VERTEX
  5
2DCE
  8
0
 10
75.082747482625066
 20
167.9626712333318
 30
0.0
  0
VERTEX
  5
2DCF
  8
0
 10
75.494493261063084
 20
168.2003927693508
 30
0.0
  0
VERTEX
  5
2DD0
  8
0
 10
75.923333869659743
 20
168.44798401016351
 30
0.0
  0
VERTEX
  5
2DD1
  8
0
 10
76.14516979734627
 20
168.57606104272929
 30
0.0
  0
SEQEND
  5
2DD2
  8
0
  0
ARC
  5
2674
  8
0
 10
69.145169797346284
 20
172.61751292705671
 30
0.0
 40
6.9900000000000002
 50
308.41920989713418
 51
351.5807901028665
  0
POLYLINE
  5
2675
  8
0
 66
     1
 10
0.0
 20
0.0
 30
0.0
  0
VERTEX
  5
2DD3
  8
0
 10
76.14516979734627
 20
173.49315727407381
 30
0.0
  0
VERTEX
  5
2DD4
  8
0
 10
76.14516979734627
 20
173.66534240780271
 30
0.0
  0
VERTEX
  5
2DD5
  8
0
 10
76.14516979734627
 20
174.0923615518594
 30
0.0
  0
VERTEX
  5
2DD6
  8
0
 10
76.14516979734627
 20
174.52743890294491
 30
0.0
  0
VERTEX
  5
2DD7
  8
0
 10
76.14516979734627
 20
174.97312822102691
 30
0.0
  0
VERTEX
  5
2DD8
  8
0
 10
76.14516979734627
 20
175.2008040372906
 30
0.0
  0
VERTEX
  5
2DD9
  8
0
 10
76.14516979734627
 20
175.43218519258929
 30
0.0
  0
VERTEX
  5
2DDA
  8
0
 10
76.14516979734627
 20
175.90762826462711
 30
0.0
  0
VERTEX
  5
2DDB
  8
0
 10
76.14516979734627
 20
176.4028107462525
 30
0.0
  0
VERTEX
  5
2DDC
  8
0
 10
76.14516979734627
 20
176.65896481138401
 30
0.0
  0
SEQEND
  5
2DDD
  8
0
  0
ARC
  5
2676
  8
0
 10
69.145169797346284
 20
172.61751292705671
 30
0.0
 40
6.9900000000000002
 50
8.4192098971328502
 51
51.58079010286653
  0
CIRCLE
  5
2689
  8
0
 10
69.145169797346284
 20
172.61751292705671
 30
0.0
 40
6.25
  0
LINE
  5
268D
  8
0
 10
147.43073188316279
 20
118.9904860702095
 30
0.0
 11
145.89673188316269
 21
120.52448607020951
 31
0.0
  0
LINE
  5
268E
  8
0
 10
140.96473188316281
 20
120.52448607020951
 30
0.0
 11
139.43073188316279
 21
118.9904860702095
 31
0.0
  0
LINE
  5
268F
  8
0
 10
147.43073188316279
 20
52.52448607020947
 30
0.0
 11
147.43073188316279
 21
66.524486070209463
 31
0.0
  0
LINE
  5
2690
  8
0
 10
147.43073188316279
 20
73.024486070209463
 30
0.0
 11
147.43073188316279
 21
118.9904860702095
 31
0.0
  0
LINE
  5
2691
  8
0
 10
139.43073188316279
 20
118.9904860702095
 30
0.0
 11
139.43073188316279
 21
73.024486070209463
 31
0.0
  0
LINE
  5
2692
  8
0
 10
139.43073188316279
 20
66.524486070209463
 30
0.0
 11
139.43073188316279
 21
52.52448607020947
 31
0.0
  0
LINE
  5
2697
  8
0
 10
145.89673188316269
 20
120.52448607020951
 30
0.0
 11
140.96473188316281
 21
120.52448607020951
 31
0.0
  0
LINE
  5
2698
  8
0
 10
147.43073188316279
 20
118.9904860702095
 30
0.0
 11
139.43073188316279
 21
118.9904860702095
 31
0.0
  0
LINE
  5
26A1
  8
3
 10
146.75423188316279
 20
119.6669860702094
 30
0.0
 11
146.75423188316279
 21
73.024486070209463
 31
0.0
  0
LINE
  5
26A2
  8
3
 10
146.7542318831629
 20
66.524486070209463
 30
0.0
 11
146.7542318831629
 21
54.52448607020952
 31
0.0
  0
LINE
  5
26A3
  8
1
 10
143.43073188316279
 20
124.52448607020951
 30
0.0
 11
143.43073188316279
 21
21.524486070209491
 31
0.0
  0
LINE
  5
26A8
  8
0
 10
168.43073188316279
 20
32.024486070209477
 30
0.0
 11
155.3705647006885
 21
37.590615195015047
 31
0.0
  0
LINE
  5
26A9
  8
0
 10
131.490899065637
 20
37.590615195015047
 30
0.0
 11
118.43073188316281
 21
32.02448607020947
 31
0.0
  0
LINE
  5
26AA
  8
0
 10
167.93073188316279
 20
25.52448607020948
 30
0.0
 11
168.43073188316279
 21
26.02448607020948
 31
0.0
  0
LINE
  5
26AB
  8
0
 10
118.43073188316281
 20
26.02448607020948
 30
0.0
 11
118.93073188316281
 21
25.52448607020948
 31
0.0
  0
LINE
  5
26AD
  8
0
 10
168.43073188316279
 20
32.024486070209477
 30
0.0
 11
118.43073188316281
 21
32.02448607020947
 31
0.0
  0
LINE
  5
26AE
  8
0
 10
167.93073188316279
 20
25.52448607020948
 30
0.0
 11
118.93073188316281
 21
25.52448607020948
 31
0.0
  0
POINT
  5
26B0
  8
0
 10
143.43073188316279
 20
25.52448607020948
 30
0.0
210
0.0
220
1.0
230
0.0
  0
LINE
  5
26B1
  8
3
 10
146.7542318831629
 20
54.524486070209527
 30
0.0
 11
147.43073188316279
 21
53.352753698889408
 31
0.0
  0
LINE
  5
26B2
  8
3
 10
140.10723188316271
 20
54.524486070209527
 30
0.0
 11
139.43073188316279
 21
53.352753698889408
 31
0.0
  0
LINE
  5
26B3
  8
0
 10
139.43073188316279
 20
54.524486070209527
 30
0.0
 11
147.43073188316279
 21
54.524486070209463
 31
0.0
  0
LINE
  5
26B4
  8
3
 10
140.10723188316391
 20
119.6669860702095
 30
0.0
 11
140.10723188316319
 21
73.024486070209463
 31
0.0
  0
LINE
  5
26B5
  8
3
 10
140.107231883163
 20
66.524486070209463
 30
0.0
 11
140.10723188316271
 21
54.524486070209612
 31
0.0
  0
LINE
  5
26BB
  8
0
 10
168.43073188316279
 20
26.02448607020948
 30
0.0
 11
168.43073188316279
 21
32.02448607020947
 31
0.0
  0
LINE
  5
26BC
  8
0
 10
118.43073188316281
 20
26.02448607020948
 30
0.0
 11
118.43073188316281
 21
32.02448607020947
 31
0.0
  0
LINE
  5
26BD
  8
0
 10
131.490899065637
 20
37.590615195015047
 30
0.0
 11
155.3705647006885
 21
37.590615195015047
 31
0.0
  0
LINE
  5
26CF
  8
0
 10
155.3705647006885
 20
37.590615195015047
 30
0.0
 11
154.43073188316279
 21
43.524486070209477
 31
0.0
  0
LINE
  5
26D0
  8
0
 10
132.43073188316279
 20
43.524486070209477
 30
0.0
 11
131.490899065637
 21
37.590615195015047
 31
0.0
  0
LINE
  5
26D1
  8
0
 10
154.43073188316279
 20
43.524486070209477
 30
0.0
 11
132.43073188316279
 21
43.524486070209477
 31
0.0
  0
LINE
  5
271F
  8
0
 10
149.93073188316291
 20
72.880148502911283
 30
0.0
 11
149.68073188316171
 21
73.024486070209335
 31
0.0
  0
ARC
  5
2720
  8
0
 10
146.68073188316291
 20
63.492996367662577
 30
0.0
 40
9.3871521352487513
 50
69.743841999583196
 51
110.2561580004168
  0
ARC
  5
2721
  8
0
 10
146.68073188316291
 20
76.055975772756113
 30
0.0
 40
9.3871521352487513
 50
249.7438419995832
 51
290.2561580004168
  0
LINE
  5
2722
  8
0
 10
149.93073188316291
 20
66.668823637507415
 30
0.0
 11
149.68073188316171
 21
66.524486070209349
 31
0.0
  0
LINE
  5
2723
  8
0
 10
149.93073188316291
 20
72.880148502911283
 30
0.0
 11
149.93073188316291
 21
66.668823637507415
 31
0.0
  0
LINE
  5
2724
  8
0
 10
143.43073188316311
 20
72.299591919310132
 30
0.0
 11
143.43073188316311
 21
67.249380221108169
 31
0.0
  0
LINE
  5
2725
  8
0
 10
136.9307318831633
 20
72.880148502911283
 30
0.0
 11
136.9307318831633
 21
66.668823637507415
 31
0.0
  0
LINE
  5
2726
  8
0
 10
136.9307318831633
 20
66.668823637507415
 30
0.0
 11
137.1807318831645
 21
66.524486070209349
 31
0.0
  0
ARC
  5
2727
  8
0
 10
140.1807318831633
 20
76.055975772756113
 30
0.0
 40
9.3871521352487513
 50
249.7438419995832
 51
290.2561580004168
  0
ARC
  5
2728
  8
0
 10
140.1807318831633
 20
63.492996367662577
 30
0.0
 40
9.3871521352487513
 50
69.743841999583196
 51
110.2561580004168
  0
LINE
  5
2729
  8
0
 10
136.9307318831633
 20
72.880148502911283
 30
0.0
 11
137.1807318831645
 21
73.024486070209335
 31
0.0
  0
LINE
  5
272A
  8
0
 10
137.1807318831645
 20
73.024486070209335
 30
0.0
 11
149.68073188316171
 21
73.024486070209335
 31
0.0
  0
LINE
  5
272B
  8
0
 10
149.68073188316171
 20
66.524486070209349
 30
0.0
 11
137.1807318831645
 21
66.524486070209349
 31
0.0
  0
LINE
  5
28F2
  8
0
 10
148.93073188316271
 20
43.854613089131703
 30
0.0
 11
148.93073188316271
 21
47.524486070209491
 31
0.0
  0
LINE
  5
28F3
  8
0
 10
137.93073188316271
 20
47.524486070209491
 30
0.0
 11
137.93073188316271
 21
43.854613089131703
 31
0.0
  0
ARC
  5
28F4
  8
0
 10
143.43073188315799
 20
39.524486070212937
 30
0.0
 40
6.9999999999941682
 50
141.78678929826029
 51
145.15009542095461
  0
ARC
  5
28F5
  8
0
 10
143.43073188316481
 20
39.524486070210997
 30
0.0
 40
6.999999999997466
 50
34.849904579045777
 51
38.21321070173866
  0
LINE
  5
28F6
  8
0
 10
148.93073188316271
 20
43.854613089131703
 30
0.0
 11
137.93073188316271
 21
43.854613089131703
 31
0.0
  0
LINE
  5
2902
  8
0
 10
74.64516979734627
 20
43.854613089131703
 30
0.0
 11
74.64516979734627
 21
47.524486070209491
 31
0.0
  0
LINE
  5
2903
  8
0
 10
63.645169797346249
 20
47.524486070209491
 30
0.0
 11
63.645169797346249
 21
43.854613089131703
 31
0.0
  0
ARC
  5
2904
  8
0
 10
69.145169797341538
 20
39.524486070212937
 30
0.0
 40
6.9999999999941682
 50
141.78678929825989
 51
145.15009542095461
  0
ARC
  5
2905
  8
0
 10
69.145169797348302
 20
39.524486070210997
 30
0.0
 40
6.999999999997466
 50
34.849904579045777
 51
38.213210701738731
  0
LINE
  5
2906
  8
0
 10
74.64516979734627
 20
43.854613089131703
 30
0.0
 11
63.645169797346249
 21
43.854613089131703
 31
0.0
  0
LINE
  5
2968
  8
0
 10
69.145169797346171
 20
51.743830830780041
 30
0.0
 11
69.145169797346142
 21
48.30514130963892
 31
0.0
  0
LINE
  5
2969
  8
0
 10
62.145169797346178
 20
52.369045613119233
 30
0.0
 11
62.145169797346178
 21
47.679926527299699
 31
0.0
  0
LINE
  5
296A
  8
0
 10
76.145169797346185
 20
52.369045613119233
 30
0.0
 11
76.145169797346185
 21
47.679926527299699
 31
0.0
  0
LINE
  5
296B
  8
0
 10
75.875939028114132
 20
52.524486070209491
 30
0.0
 11
62.414400566578159
 21
52.524486070209491
 31
0.0
  0
ARC
  5
296C
  8
0
 10
65.645169797346284
 20
42.259804852081828
 30
0.0
 40
10.10924076103746
 50
69.743841999583253
 51
110.2561580004167
  0
LINE
  5
296D
  8
0
 10
62.145169797346178
 20
52.369045613119233
 30
0.0
 11
62.414400566578159
 21
52.524486070209491
 31
0.0
  0
LINE
  5
296E
  8
0
 10
76.145169797346185
 20
52.369045613119233
 30
0.0
 11
75.875939028114132
 21
52.524486070209491
 31
0.0
  0
ARC
  5
296F
  8
0
 10
72.645169797346043
 20
42.259804852081828
 30
0.0
 40
10.10924076103746
 50
69.743841999583253
 51
110.2561580004167
  0
LINE
  5
2970
  8
0
 10
75.875939028114132
 20
47.524486070209491
 30
0.0
 11
62.414400566578159
 21
47.524486070209491
 31
0.0
  0
ARC
  5
2971
  8
0
 10
65.645169797346284
 20
57.789167288337133
 30
0.0
 40
10.10924076103746
 50
249.74384199958311
 51
290.25615800041669
  0
LINE
  5
2972
  8
0
 10
62.145169797346178
 20
47.679926527299699
 30
0.0
 11
62.414400566578159
 21
47.524486070209491
 31
0.0
  0
LINE
  5
2973
  8
0
 10
76.145169797346185
 20
47.679926527299699
 30
0.0
 11
75.875939028114132
 21
47.524486070209491
 31
0.0
  0
ARC
  5
2974
  8
0
 10
72.645169797346043
 20
57.789167288337133
 30
0.0
 40
10.10924076103746
 50
249.74384199958311
 51
290.25615800041669
  0
LINE
  5
2975
  8
0
 10
150.16150111393071
 20
47.524486070209598
 30
0.0
 11
136.6999626523949
 21
47.524486070209598
 31
0.0
  0
LINE
  5
2976
  8
0
 10
136.69996265239351
 20
52.524486070209491
 30
0.0
 11
150.1615011139304
 21
52.524486070209491
 31
0.0
  0
ARC
  5
2977
  8
0
 10
149.49290970965359
 20
48.790893765326807
 30
0.0
 40
3.5781518477924039
 50
64.384247467826285
 51
124.3842474680382
  0
LINE
  5
2978
  8
0
 10
151.51363565181751
 20
51.743830830779963
 30
0.0
 11
150.16150111393071
 21
52.524486070209491
 31
0.0
  0
LINE
  5
2979
  8
0
 10
151.51363565181751
 20
48.30514130963919
 30
0.0
 11
150.16150111393071
 21
47.524486070209598
 31
0.0
  0
ARC
  5
297A
  8
0
 10
149.49290970965359
 20
51.258078375092289
 30
0.0
 40
3.5781518477924039
 50
235.61575253196179
 51
295.6157525321737
  0
LINE
  5
297B
  8
0
 10
151.5136356518174
 20
51.743830830779991
 30
0.0
 11
151.51363565181751
 21
48.30514130963919
 31
0.0
  0
LINE
  5
297C
  8
0
 10
147.4721837674883
 20
51.743830830780489
 30
0.0
 11
147.47218376749009
 21
48.305141309640831
 31
0.0
  0
LINE
  5
297D
  8
0
 10
139.389279998837
 20
51.743830830778798
 30
0.0
 11
139.38927999883521
 21
48.305141309640831
 31
0.0
  0
LINE
  5
297E
  8
0
 10
135.34782811450779
 20
51.743830830779963
 30
0.0
 11
135.34782811450779
 21
48.30514130963919
 31
0.0
  0
ARC
  5
297F
  8
0
 10
143.4307318831637
 20
61.054711744953643
 30
0.0
 40
13.374785217653811
 50
252.4120462259954
 51
287.58795377400293
  0
ARC
  5
2980
  8
0
 10
137.36855405667171
 20
51.258078375092289
 30
0.0
 40
3.5781518477924039
 50
244.3842474678259
 51
304.38424746803821
  0
LINE
  5
2981
  8
0
 10
135.34782811450779
 20
48.30514130963919
 30
0.0
 11
136.6999626523947
 21
47.524486070209598
 31
0.0
  0
LINE
  5
2982
  8
0
 10
135.34782811450779
 20
51.743830830779963
 30
0.0
 11
136.6999626523947
 21
52.524486070209491
 31
0.0
  0
ARC
  5
2983
  8
0
 10
143.4307318831637
 20
38.994260395465467
 30
0.0
 40
13.374785217653811
 50
72.412046225997074
 51
107.5879537740046
  0
ARC
  5
2984
  8
0
 10
137.36855405667171
 20
48.790893765326807
 30
0.0
 40
3.5781518477924039
 50
55.615752531961753
 51
115.6157525321737
  0
TEXT
  5
2CE4
  8
0
 62
     3
 10
0.0
 20
0.0
 30
0.0
 40
10.0
  1
LSA50S8B
  7
STANDARD1
  0
ENDSEC
  0
EOF
