  0
SECTION
  2
HEADER
  9
$ACADVER
  1
AC1009
  9
$INSBASE
 10
0.0
 20
0.0
 30
0.0
  9
$EXTMIN
 10
0.0
 20
-2.960436562073669
 30
0.0
  9
$EXTMAX
 10
119.5839017735334
 20
207.37126899688079
 30
0.0
  9
$LIMMIN
 10
0.0
 20
0.0
  9
$LIMMAX
 10
375.0
 20
270.0
  9
$ORTHOMODE
 70
     1
  9
$REGENMODE
 70
     1
  9
$FILLMODE
 70
     1
  9
$QTEXTMODE
 70
     0
  9
$MIRRTEXT
 70
     0
  9
$DRAGMODE
 70
     2
  9
$LTSCALE
 40
6.0
  9
$OSMODE
 70
  3071
  9
$ATTMODE
 70
     1
  9
$TEXTSIZE
 40
0.2
  9
$TRACEWID
 40
0.05
  9
$TEXTSTYLE
  7
STANDARD
  9
$CLAYER
  8
0
  9
$CELTYPE
  6
BYLAYER
  9
$CECOLOR
 62
   256
  9
$DIMSCALE
 40
1.0
  9
$DIMASZ
 40
3.0
  9
$DIMEXO
 40
1.0
  9
$DIMDLI
 40
6.0
  9
$DIMRND
 40
0.0
  9
$DIMDLE
 40
0.0
  9
$DIMEXE
 40
1.0
  9
$DIMTP
 40
495.0
  9
$DIMTM
 40
0.0
  9
$DIMTXT
 40
3.0
  9
$DIMCEN
 40
0.0
  9
$DIMTSZ
 40
0.0
  9
$DIMTOL
 70
     0
  9
$DIMLIM
 70
     0
  9
$DIMTIH
 70
     0
  9
$DIMTOH
 70
     0
  9
$DIMSE1
 70
     0
  9
$DIMSE2
 70
     0
  9
$DIMTAD
 70
     1
  9
$DIMZIN
 70
     0
  9
$DIMBLK
  1

  9
$DIMASO
 70
     0
  9
$DIMSHO
 70
     0
  9
$DIMPOST
  1

  9
$DIMAPOST
  1

  9
$DIMALT
 70
     0
  9
$DIMALTD
 70
     2
  9
$DIMALTF
 40
25.399999999999999
  9
$DIMLFAC
 40
1.0
  9
$DIMTOFL
 70
     1
  9
$DIMTVP
 40
0.0
  9
$DIMTIX
 70
     1
  9
$DIMSOXD
 70
     0
  9
$DIMSAH
 70
     0
  9
$DIMBLK1
  1

  9
$DIMBLK2
  1

  9
$DIMSTYLE
  2
STANDARD
  9
$DIMCLRD
 70
     0
  9
$DIMCLRE
 70
     0
  9
$DIMCLRT
 70
     4
  9
$DIMTFAC
 40
1.0
  9
$DIMGAP
 40
1.0
  9
$LUNITS
 70
     2
  9
$LUPREC
 70
     4
  9
$SKETCHINC
 40
0.1
  9
$FILLETRAD
 40
2.0
  9
$AUNITS
 70
     0
  9
$AUPREC
 70
     0
  9
$MENU
  1
C:\R13\WIN\SUPPORT\ACAD-I
  9
$ELEVATION
 40
0.0
  9
$PELEVATION
 40
0.0
  9
$THICKNESS
 40
0.0
  9
$LIMCHECK
 70
     0
  9
$BLIPMODE
 70
     0
  9
$CHAMFERA
 40
0.0
  9
$CHAMFERB
 40
0.0
  9
$SKPOLY
 70
     0
  9
$TDCREATE
 40
2451961.6927103242
  9
$TDUPDATE
 40
2456597.6075120601
  9
$TDINDWG
 40
0.0462649884
  9
$TDUSRTIMER
 40
2456548.0703002778
  9
$USRTIMER
 70
     1
  9
$ANGBASE
 50
0.0
  9
$ANGDIR
 70
     0
  9
$PDMODE
 70
     0
  9
$PDSIZE
 40
0.0
  9
$PLINEWID
 40
0.0
  9
$COORDS
 70
     1
  9
$SPLFRAME
 70
     0
  9
$SPLINETYPE
 70
     6
  9
$SPLINESEGS
 70
     8
  9
$ATTDIA
 70
     0
  9
$ATTREQ
 70
     1
  9
$HANDLING
 70
     1
  9
$HANDSEED
  5
1B75
  9
$SURFTAB1
 70
     6
  9
$SURFTAB2
 70
     6
  9
$SURFTYPE
 70
     6
  9
$SURFU
 70
     6
  9
$SURFV
 70
     6
  9
$UCSNAME
  2

  9
$UCSORG
 10
0.0
 20
0.0
 30
0.0
  9
$UCSXDIR
 10
1.0
 20
0.0
 30
0.0
  9
$UCSYDIR
 10
0.0
 20
1.0
 30
0.0
  9
$PUCSNAME
  2

  9
$PUCSORG
 10
0.0
 20
0.0
 30
0.0
  9
$PUCSXDIR
 10
1.0
 20
0.0
 30
0.0
  9
$PUCSYDIR
 10
0.0
 20
1.0
 30
0.0
  9
$USERI1
 70
     4
  9
$USERI2
 70
     1
  9
$USERI3
 70
     0
  9
$USERI4
 70
     0
  9
$USERI5
 70
     0
  9
$USERR1
 40
1.0
  9
$USERR2
 40
3.0
  9
$USERR3
 40
3.0
  9
$USERR4
 40
3.0
  9
$USERR5
 40
10.0
  9
$WORLDVIEW
 70
     1
  9
$SHADEDGE
 70
     3
  9
$SHADEDIF
 70
    70
  9
$TILEMODE
 70
     1
  9
$MAXACTVP
 70
    16
  9
$PLIMCHECK
 70
     0
  9
$PEXTMIN
 10
1.0000000000000000E+020
 20
1.0000000000000000E+020
 30
1.0000000000000000E+020
  9
$PEXTMAX
 10
-1.0000000000000000E+020
 20
-1.0000000000000000E+020
 30
-1.0000000000000000E+020
  9
$PLIMMIN
 10
0.0
 20
0.0
  9
$PLIMMAX
 10
12.0
 20
9.0
  9
$UNITMODE
 70
     0
  9
$VISRETAIN
 70
     0
  9
$PLINEGEN
 70
     0
  9
$PSLTSCALE
 70
     0
  0
ENDSEC
  0
SECTION
  2
TABLES
  0
TABLE
  2
VPORT
 70
     1
  0
VPORT
  2
*ACTIVE
 70
     0
 10
0.0
 20
0.0
 11
1.0
 21
1.0
 12
187.49427839065231
 22
134.10366293909439
 13
0.0
 23
0.0
 14
10.0
 24
10.0
 15
10.0
 25
10.0
 16
0.0
 26
0.0
 36
1.0
 17
0.0
 27
0.0
 37
0.0
 40
277.29405978699532
 41
2.304913294797688
 42
50.0
 43
0.0
 44
0.0
 50
0.0
 51
0.0
 71
    16
 72
   100
 73
     1
 74
     0
 75
     0
 76
     0
 77
     0
 78
     0
  0
ENDTAB
  0
TABLE
  2
LTYPE
 70
     3
  0
LTYPE
  2
CONTINUOUS
 70
     0
  3
Solid Line
 72
    65
 73
     0
 40
0.0
  0
LTYPE
  2
PHANTOM2
 70
     0
  3
___ _ _ ___ _ _ ___ _ _ ___ _ _
 72
    65
 73
     6
 40
1.25
 49
0.625
 49
-0.125
 49
0.125
 49
-0.125
 49
0.125
 49
-0.125
  0
LTYPE
  2
CENTER
 70
     0
  3
____ _ ____ _ ____ _ ____ _ ____ _ ____ _ ____
 72
    65
 73
     4
 40
2.0
 49
1.25
 49
-0.25
 49
0.25
 49
-0.25
  0
ENDTAB
  0
TABLE
  2
LAYER
 70
     3
  0
LAYER
  2
0
 70
     0
 62
     7
  6
CONTINUOUS
  0
LAYER
  2
1
 70
     0
 62
     1
  6
CENTER
  0
LAYER
  2
3
 70
     0
 62
     3
  6
CONTINUOUS
  0
ENDTAB
  0
TABLE
  2
STYLE
 70
     3
  0
STYLE
  2
STANDARD
 70
     0
 40
0.0
 41
1.0
 50
0.0
 71
     0
 42
0.2
  3
SIMPLEX
  4
BIGFONT
  0
STYLE
  2
ANNOTATIVE
 70
     0
 40
0.0
 41
1.0
 50
0.0
 71
     0
 42
0.2
  3
txt
  4

  0
STYLE
  2
STANDARD1
 70
     0
 40
0.0
 41
1.0
 50
0.0
 71
     0
 42
3.0
  3
txt
  4

  0
ENDTAB
  0
TABLE
  2
VIEW
 70
     0
  0
ENDTAB
  0
TABLE
  2
UCS
 70
     0
  0
ENDTAB
  0
TABLE
  2
APPID
 70
    29
  0
APPID
  2
ACAD
 70
     0
  0
APPID
  2
ACADANNOTATIVE
 70
     0
  0
APPID
  2
GENIUS_GENOREF_13
 70
     0
  0
APPID
  2
GENIUS_GENOENT_13
 70
     0
  0
APPID
  2
GENIUS_GENBH_13
 70
     0
  0
APPID
  2
GENIUS_GENOBJ_13
 70
     0
  0
APPID
  2
GENIUS_GENODEF_13
 70
     0
  0
APPID
  2
GENIUS_GENOLIS_13
 70
     0
  0
APPID
  2
GENIUS_GENOBJ-NBEHI-BHF_13
 70
     0
  0
APPID
  2
GENIUS_GENOBJ-NBEHI-BHB_13
 70
     0
  0
APPID
  2
GENIUS_GENOBJ-F-PART_13
 70
     0
  0
APPID
  2
GENIUS_GEFSTDP_13
 70
     0
  0
APPID
  2
GENIUS_GENOBJ-N-RSSYM_13
 70
     0
  0
APPID
  2
GENIUS_GENSYMENT_13
 70
     0
  0
APPID
  2
GENIUS_GENOBJ-N-TIT_13
 70
     0
  0
APPID
  2
GENIUS_GENTITLE_13
 70
     0
  0
APPID
  2
GENIUS_GENZVEED_13
 70
     0
  0
APPID
  2
GENIUS_GENOBJ-N-LEADER_13
 70
     0
  0
APPID
  2
GENIUS_GENOBJ-N-FIL_13
 70
     0
  0
APPID
  2
GENIUS_GENOBJ-N-SEC_13
 70
     0
  0
APPID
  2
GENIUS_GENOBJ-N-CRS_13
 70
     0
  0
APPID
  2
GENIUS_GENOBJ-N-ZOO_13
 70
     0
  0
APPID
  2
GENIUS_GENZOO_13
 70
     0
  0
APPID
  2
GENIUS_GENOBJ-F-TOL_13
 70
     0
  0
APPID
  2
GENIUS_GENFIL_13
 70
     0
  0
APPID
  2
GENIUS_GENOBJ-N-CHA_13
 70
     0
  0
APPID
  2
ACAD_MLEADERVER
 70
     0
  0
APPID
  2
ACAD_EXEMPT_FROM_CAD_STANDARDS
 70
     0
  0
APPID
  2
ACAD_NAV_VCDISPLAY
 70
     0
  0
ENDTAB
  0
TABLE
  2
DIMSTYLE
 70
     2
  0
DIMSTYLE
  2
STANDARD
 70
     0
  3

  4

  5

  6

  7

 40
1.0
 41
0.18
 42
0.0625
 43
0.38
 44
0.18
 45
0.0
 46
0.0
 47
0.0
 48
0.0
140
0.18
141
0.09
142
0.0
143
25.399999999999999
144
1.0
145
0.0
146
1.0
147
0.09
 71
     0
 72
     0
 73
     1
 74
     1
 75
     0
 76
     0
 77
     0
 78
     0
170
     0
171
     2
172
     0
173
     0
174
     0
175
     0
176
     0
177
     0
178
     0
  0
DIMSTYLE
  2
ANNOTATIVE
 70
     0
  3

  4

  5

  6

  7

 40
1.0
 41
0.18
 42
0.0625
 43
0.38
 44
0.18
 45
0.0
 46
0.0
 47
0.0
 48
0.0
140
0.18
141
0.09
142
0.0
143
25.399999999999999
144
1.0
145
0.0
146
1.0
147
0.09
 71
     0
 72
     0
 73
     1
 74
     1
 75
     0
 76
     0
 77
     0
 78
     0
170
     0
171
     2
172
     0
173
     0
174
     0
175
     0
176
     0
177
     0
178
     0
  0
ENDTAB
  0
ENDSEC
  0
SECTION
  2
BLOCKS
  0
BLOCK
  8
0
  2
$MODEL_SPACE
 70
     0
 10
0.0
 20
0.0
 30
0.0
  3
$MODEL_SPACE
  1

  0
ENDBLK
  5
1A98
  8
0
  0
BLOCK
 67
     1
  8
0
  2
$PAPER_SPACE
 70
     0
 10
0.0
 20
0.0
 30
0.0
  3
$PAPER_SPACE
  1

  0
ENDBLK
  5
1A94
 67
     1
  8
0
  0
ENDSEC
  0
SECTION
  2
ENTITIES
  0
LINE
  5
165B
  8
0
 10
86.018254089707483
 20
24.078693549276242
 30
0.0
 11
110.0182540897075
 21
24.078693549276242
 31
0.0
  0
LINE
  5
165C
  8
0
 10
86.018254089707483
 20
24.078693549276348
 30
0.0
 11
86.018254089707483
 21
27.078693549276242
 31
0.0
  0
LINE
  5
165D
  8
0
 10
110.0182540897075
 20
24.078693549276121
 30
0.0
 11
110.0182540897074
 21
27.078693549276242
 31
0.0
  0
LINE
  5
165E
  8
0
 10
56.89800392052674
 20
24.078693549276121
 30
0.0
 11
56.898003920526641
 21
27.078693549276242
 31
0.0
  0
LINE
  5
165F
  8
0
 10
32.898003920526762
 20
24.078693549276348
 30
0.0
 11
32.898003920526762
 21
27.078693549276242
 31
0.0
  0
LINE
  5
1660
  8
0
 10
32.898003920526762
 20
24.078693549276242
 30
0.0
 11
56.89800392052674
 21
24.078693549276242
 31
0.0
  0
LINE
  5
1661
  8
0
 10
32.898003920526762
 20
27.078693549276242
 30
0.0
 11
56.89800392052674
 21
27.078693549276242
 31
0.0
  0
LINE
  5
1662
  8
0
 10
32.398003920526747
 20
27.578693549276242
 30
0.0
 11
32.398003920526747
 21
31.078693549276242
 31
0.0
  0
LINE
  5
1663
  8
0
 10
57.39800392052674
 20
27.578693549276242
 30
0.0
 11
57.39800392052674
 21
31.078693549276242
 31
0.0
  0
LINE
  5
1664
  8
0
 10
32.898003920526762
 20
27.078693549276242
 30
0.0
 11
32.398003920526747
 21
27.578693549276242
 31
0.0
  0
LINE
  5
1665
  8
0
 10
57.39800392052674
 20
27.578693549276242
 30
0.0
 11
56.89800392052674
 21
27.078693549276242
 31
0.0
  0
LINE
  5
1666
  8
0
 10
36.398003920526762
 20
39.078693549276252
 30
0.0
 11
53.39800392052674
 21
39.078693549276252
 31
0.0
  0
LINE
  5
1667
  8
0
 10
32.398003920526747
 20
31.078693549276242
 30
0.0
 11
57.39800392052674
 21
31.078693549276242
 31
0.0
  0
LINE
  5
1668
  8
0
 10
57.39800392052674
 20
31.078693549276242
 30
0.0
 11
54.89800392052674
 21
33.578693549276238
 31
0.0
  0
LINE
  5
1669
  8
0
 10
53.39800392052674
 20
39.078693549276252
 30
0.0
 11
54.89800392052674
 21
33.578693549276238
 31
0.0
  0
LINE
  5
166A
  8
0
 10
32.398003920526747
 20
31.078693549276242
 30
0.0
 11
34.898003920526747
 21
33.578693549276238
 31
0.0
  0
LINE
  5
166B
  8
0
 10
36.398003920526762
 20
39.078693549276252
 30
0.0
 11
34.898003920526747
 21
33.578693549276238
 31
0.0
  0
LINE
  5
166C
  8
0
 10
54.89800392052674
 20
33.578693549276238
 30
0.0
 11
34.898003920526747
 21
33.578693549276238
 31
0.0
  0
LINE
  5
166D
  8
0
 10
50.398003920526847
 20
42.078693549276217
 30
0.0
 11
39.398003920526868
 21
42.078693549276217
 31
0.0
  0
LINE
  5
166E
  8
0
 10
39.398003920526868
 20
42.078693549276217
 30
0.0
 11
39.398003920526868
 21
45.078693549276011
 31
0.0
  0
LINE
  5
166F
  8
0
 10
50.398003920526847
 20
42.078693549276217
 30
0.0
 11
50.398003920526847
 21
45.078693549276011
 31
0.0
  0
ARC
  5
1670
  8
0
 10
44.898003920526861
 20
37.748566530354033
 30
0.0
 40
7.0
 50
141.78678929826171
 51
169.04615684538459
  0
ARC
  5
1671
  8
0
 10
44.898003920526861
 20
37.748566530354033
 30
0.0
 40
7.0
 50
10.95384315461536
 51
38.213210701738468
  0
ARC
  5
1672
  8
0
 10
98.018254089707582
 20
37.748566530354033
 30
0.0
 40
7.0
 50
10.95384315461536
 51
38.213210701738468
  0
ARC
  5
1673
  8
0
 10
98.018254089707582
 20
37.748566530354033
 30
0.0
 40
7.0
 50
141.78678929826171
 51
169.04615684538459
  0
LINE
  5
1674
  8
0
 10
103.5182540897076
 20
42.078693549276217
 30
0.0
 11
103.5182540897076
 21
45.07869354927611
 31
0.0
  0
LINE
  5
1675
  8
0
 10
92.518254089707568
 20
42.078693549276217
 30
0.0
 11
92.518254089707568
 21
45.07869354927611
 31
0.0
  0
LINE
  5
1676
  8
0
 10
103.5182540897076
 20
42.078693549276217
 30
0.0
 11
92.518254089707568
 21
42.078693549276217
 31
0.0
  0
LINE
  5
1677
  8
0
 10
108.0182540897075
 20
33.578693549276238
 30
0.0
 11
88.018254089707469
 21
33.578693549276238
 31
0.0
  0
LINE
  5
1678
  8
0
 10
89.518254089707483
 20
39.078693549276252
 30
0.0
 11
88.018254089707469
 21
33.578693549276238
 31
0.0
  0
LINE
  5
1679
  8
0
 10
85.518254089707469
 20
31.078693549276242
 30
0.0
 11
88.018254089707469
 21
33.578693549276238
 31
0.0
  0
LINE
  5
167A
  8
0
 10
106.5182540897074
 20
39.078693549276252
 30
0.0
 11
108.0182540897075
 21
33.578693549276238
 31
0.0
  0
LINE
  5
167B
  8
0
 10
110.5182540897075
 20
31.078693549276242
 30
0.0
 11
108.0182540897075
 21
33.578693549276238
 31
0.0
  0
LINE
  5
167C
  8
0
 10
85.518254089707469
 20
31.078693549276242
 30
0.0
 11
110.5182540897075
 21
31.078693549276242
 31
0.0
  0
LINE
  5
167D
  8
0
 10
89.518254089707483
 20
39.078693549276252
 30
0.0
 11
106.5182540897074
 21
39.078693549276252
 31
0.0
  0
LINE
  5
167E
  8
0
 10
110.5182540897075
 20
27.578693549276242
 30
0.0
 11
110.0182540897075
 21
27.078693549276242
 31
0.0
  0
LINE
  5
167F
  8
0
 10
86.018254089707483
 20
27.078693549276242
 30
0.0
 11
85.518254089707469
 21
27.578693549276242
 31
0.0
  0
LINE
  5
1680
  8
0
 10
110.5182540897075
 20
27.578693549276242
 30
0.0
 11
110.5182540897075
 21
31.078693549276242
 31
0.0
  0
LINE
  5
1681
  8
0
 10
85.518254089707469
 20
27.578693549276242
 30
0.0
 11
85.518254089707469
 21
31.078693549276242
 31
0.0
  0
LINE
  5
1682
  8
0
 10
86.018254089707483
 20
27.078693549276242
 30
0.0
 11
110.0182540897075
 21
27.078693549276242
 31
0.0
  0
ARC
  5
1683
  8
0
 10
44.898003920527771
 20
191.87126899688079
 30
0.0
 40
12.5
 50
253.73979529168909
 51
286.26020470831071
  0
LINE
  5
1684
  8
1
 10
44.898003920527771
 20
207.37126899688079
 30
0.0
 11
44.898003920527771
 21
176.37126899688079
 31
0.0
  0
LINE
  5
1694
  8
0
 10
51.826207150803249
 20
203.87126899688079
 30
0.0
 11
37.969800690252313
 21
203.87126899688079
 31
0.0
  0
LINE
  5
1695
  8
0
 10
37.969800690252313
 20
203.87126899688079
 30
0.0
 11
31.041597459976721
 21
191.87126899688079
 31
0.0
  0
LINE
  5
1696
  8
0
 10
31.041597459976721
 20
191.87126899688079
 30
0.0
 11
37.969800690252313
 21
179.87126899688079
 31
0.0
  0
LINE
  5
1697
  8
0
 10
37.969800690252313
 20
179.87126899688079
 30
0.0
 11
51.826207150803249
 21
179.87126899688079
 31
0.0
  0
LINE
  5
1698
  8
0
 10
51.826207150803249
 20
179.87126899688079
 30
0.0
 11
58.754410381078827
 21
191.87126899688079
 31
0.0
  0
LINE
  5
1699
  8
0
 10
58.754410381078827
 20
191.87126899688079
 30
0.0
 11
51.826207150803249
 21
203.87126899688079
 31
0.0
  0
CIRCLE
  5
169A
  8
0
 10
44.898003920527771
 20
191.87126899688079
 30
0.0
 40
11.5
  0
CIRCLE
  5
169B
  8
0
 10
44.898003920527771
 20
191.87126899688079
 30
0.0
 40
8.0
  0
CIRCLE
  5
169C
  8
3
 10
44.898003920527771
 20
191.87126899688079
 30
0.0
 40
6.9175000000000004
  0
ARC
  5
169D
  8
0
 10
104.01825408974069
 20
73.248566531962112
 30
0.0
 40
17.330127017333279
 50
69.743841997641454
 51
110.2561580023585
  0
LINE
  5
169E
  8
0
 10
110.0182540897557
 20
90.578693549295451
 30
0.0
 11
109.51825408974059
 21
90.867368683898874
 31
0.0
  0
LINE
  5
169F
  8
0
 10
110.0182540897557
 20
78.156043818425402
 30
0.0
 11
109.51825408974059
 21
77.867368683822008
 31
0.0
  0
ARC
  5
16A0
  8
0
 10
104.01825408974069
 20
95.486170835758756
 30
0.0
 40
17.330127017333279
 50
249.7438419976414
 51
290.25615800235852
  0
LINE
  5
16A1
  8
0
 10
110.0182540897557
 20
90.578693549295451
 30
0.0
 11
110.01825408974069
 21
78.156043818416762
 31
0.0
  0
LINE
  5
16A3
  8
0
 10
86.018254089725644
 20
90.578693549295451
 30
0.0
 11
86.018254089740694
 21
78.156043818416762
 31
0.0
  0
ARC
  5
16A4
  8
0
 10
92.018254089740694
 20
95.486170835758756
 30
0.0
 40
17.330127017333279
 50
249.7438419976414
 51
290.25615800235852
  0
LINE
  5
16A5
  8
0
 10
86.018254089725644
 20
78.156043818425402
 30
0.0
 11
86.518254089740651
 21
77.867368683822008
 31
0.0
  0
LINE
  5
16A6
  8
0
 10
86.018254089725644
 20
90.578693549295451
 30
0.0
 11
86.518254089740651
 21
90.867368683898874
 31
0.0
  0
ARC
  5
16A7
  8
0
 10
92.018254089740694
 20
73.248566531962112
 30
0.0
 40
17.330127017333279
 50
69.743841997641454
 51
110.2561580023585
  0
LINE
  5
16A8
  8
0
 10
86.518254089674244
 20
90.867368683860434
 30
0.0
 11
109.51825408974059
 21
90.867368683898874
 31
0.0
  0
LINE
  5
16A9
  8
0
 10
109.51825408974059
 20
77.867368683822008
 30
0.0
 11
86.518254089674244
 21
77.867368683860434
 31
0.0
  0
ARC
  5
16AA
  8
0
 10
44.898003920527202
 20
67.650490321136601
 30
0.0
 40
22.928203228139491
 50
72.412046224314182
 51
107.5879537756858
  0
ARC
  5
16AB
  8
0
 10
34.505699075113718
 20
84.444718953555309
 30
0.0
 40
6.1339745957208196
 50
55.615752528788711
 51
115.6157525301481
  0
LINE
  5
16AC
  8
0
 10
31.041597459954211
 20
89.50689677944689
 30
0.0
 11
33.398003920634977
 21
90.867368683841093
 31
0.0
  0
LINE
  5
16AD
  8
0
 10
31.041597459954211
 20
79.227840588235324
 30
0.0
 11
33.398003920634977
 21
77.867368683841093
 31
0.0
  0
ARC
  5
16AE
  8
0
 10
34.505699075113718
 20
84.290018414126905
 30
0.0
 40
6.1339745957208196
 50
244.384247469852
 51
304.38424747121132
  0
ARC
  5
16AF
  8
0
 10
44.898003920527202
 20
101.0842470465456
 30
0.0
 40
22.928203228139491
 50
252.41204622431411
 51
287.58795377568589
  0
LINE
  5
16B0
  8
0
 10
31.041597459976039
 20
89.50689677944689
 30
0.0
 11
31.041597459976039
 21
79.227840588222705
 31
0.0
  0
LINE
  5
16B1
  8
0
 10
37.969800690251851
 20
89.50689677944689
 30
0.0
 11
37.969800690251851
 21
79.227840588235324
 31
0.0
  0
LINE
  5
16B2
  8
0
 10
51.826207150802581
 20
89.50689677944689
 30
0.0
 11
51.826207150802581
 21
79.227840588235324
 31
0.0
  0
LINE
  5
16B3
  8
0
 10
58.754410381078387
 20
89.50689677944689
 30
0.0
 11
58.754410381078387
 21
79.227840588222705
 31
0.0
  0
ARC
  5
16B4
  8
0
 10
55.290308765940701
 20
84.290018414126905
 30
0.0
 40
6.1339745957208196
 50
235.6157525287887
 51
295.61575253014797
  0
LINE
  5
16B5
  8
0
 10
58.754410381100207
 20
79.227840588235324
 30
0.0
 11
56.398003920419427
 21
77.867368683841093
 31
0.0
  0
LINE
  5
16B6
  8
0
 10
58.754410381100207
 20
89.50689677944689
 30
0.0
 11
56.398003920419427
 21
90.867368683841093
 31
0.0
  0
ARC
  5
16B7
  8
0
 10
55.290308765940701
 20
84.444718953555309
 30
0.0
 40
6.1339745957208196
 50
64.384247469851928
 51
124.3842474712113
  0
LINE
  5
16B8
  8
0
 10
33.398003920527209
 20
90.867368683841093
 30
0.0
 11
56.398003920419427
 21
90.867368683841093
 31
0.0
  0
LINE
  5
16B9
  8
0
 10
56.398003920419427
 20
77.867368683841093
 30
0.0
 11
33.398003920634977
 21
77.867368683841093
 31
0.0
  0
LINE
  5
16BA
  8
3
 10
51.815503920527448
 20
53.078693549276238
 30
0.0
 11
52.898003920527429
 21
51.203748550082928
 31
0.0
  0
LINE
  5
16BB
  8
3
 10
37.980503920527468
 20
53.078693549276238
 30
0.0
 11
36.898003920527493
 21
51.203748550082928
 31
0.0
  0
LINE
  5
16BC
  8
0
 10
36.898003920527493
 20
53.078693549276238
 30
0.0
 11
52.898003920527429
 21
53.078693549276238
 31
0.0
  0
LINE
  5
16BD
  8
0
 10
52.898003920527429
 20
157.07869354927621
 30
0.0
 11
36.898003920527493
 21
157.07869354927621
 31
0.0
  0
LINE
  5
16BE
  8
0
 10
50.898003920527437
 20
159.07869354927621
 30
0.0
 11
52.898003920527429
 21
157.07869354927621
 31
0.0
  0
LINE
  5
16BF
  8
0
 10
36.898003920527493
 20
157.07869354927621
 30
0.0
 11
38.898003920527508
 21
159.07869354927621
 31
0.0
  0
LINE
  5
16C0
  8
0
 10
36.898003920527493
 20
50.942846427113572
 30
0.0
 11
36.898003920527493
 21
77.867368683841093
 31
0.0
  0
LINE
  5
16C1
  8
3
 10
37.980503920527468
 20
53.078693549276238
 30
0.0
 11
37.980503920527468
 21
77.867368683840979
 31
0.0
  0
LINE
  5
16C2
  8
3
 10
51.815503920527448
 20
53.078693549276238
 30
0.0
 11
51.815503920527448
 21
77.867368683840979
 31
0.0
  0
LINE
  5
16C3
  8
0
 10
52.898003920527543
 20
50.942846427113011
 30
0.0
 11
52.898003920527543
 21
77.867368683840979
 31
0.0
  0
LINE
  5
16C4
  8
0
 10
38.898003920527508
 20
159.07869354927621
 30
0.0
 11
50.898003920527437
 21
159.07869354927621
 31
0.0
  0
ARC
  5
16C5
  8
0
 10
48.898003920526982
 20
39.389428414485963
 30
0.0
 40
11.55341801262729
 50
69.743841999606843
 51
110.256158000393
  0
LINE
  5
16C6
  8
0
 10
52.898003920526968
 20
50.942846427113253
 30
0.0
 11
52.662709802879
 21
51.078693549276011
 31
0.0
  0
LINE
  5
16C7
  8
0
 10
52.898003920526968
 20
45.214540671438328
 30
0.0
 11
52.662709802879
 21
45.078693549275428
 31
0.0
  0
ARC
  5
16C8
  8
0
 10
48.898003920526982
 20
56.767958684065498
 30
0.0
 40
11.55341801262729
 50
249.74384199960679
 51
290.2561580003931
  0
LINE
  5
16C9
  8
0
 10
52.898003920526968
 20
50.942846427113253
 30
0.0
 11
52.898003920526968
 21
45.214540671438328
 31
0.0
  0
LINE
  5
16CB
  8
0
 10
36.898003920526918
 20
50.942846427113253
 30
0.0
 11
36.898003920526982
 21
45.214540671438328
 31
0.0
  0
LINE
  5
16CC
  8
0
 10
36.898003920526918
 20
45.214540671438328
 30
0.0
 11
37.133298038174964
 21
45.078693549275428
 31
0.0
  0
ARC
  5
16CD
  8
0
 10
40.898003920526968
 20
56.767958684065498
 30
0.0
 40
11.55341801262729
 50
249.74384199960679
 51
290.2561580003931
  0
LINE
  5
16CE
  8
0
 10
36.898003920526918
 20
50.942846427113253
 30
0.0
 11
37.133298038174964
 21
51.078693549276011
 31
0.0
  0
ARC
  5
16CF
  8
0
 10
40.898003920526968
 20
39.389428414485963
 30
0.0
 40
11.55341801262729
 50
69.743841999606843
 51
110.256158000393
  0
LINE
  5
16D0
  8
0
 10
52.662709802878879
 20
51.078693549276011
 30
0.0
 11
37.133298038174964
 21
51.078693549276011
 31
0.0
  0
LINE
  5
16D1
  8
0
 10
37.133298038173997
 20
45.078693549276011
 30
0.0
 11
52.662709802879903
 21
45.078693549276011
 31
0.0
  0
ARC
  5
16D2
  8
0
 10
91.043665794484994
 20
46.853530029632502
 30
0.0
 40
4.0893163974808306
 50
55.615752531995213
 51
115.6157525321115
  0
ARC
  5
16D3
  8
0
 10
97.971869024759926
 20
35.657377606909513
 30
0.0
 40
15.28546882020385
 50
72.412046226028565
 51
107.58795377397141
  0
LINE
  5
16D4
  8
0
 10
88.734264717726504
 20
50.228315247297758
 30
0.0
 11
90.207163142407424
 21
51.078693549276352
 31
0.0
  0
LINE
  5
16D5
  8
0
 10
88.734264717726504
 20
45.929071851254612
 30
0.0
 11
90.207163142407424
 21
45.078693549276011
 31
0.0
  0
ARC
  5
16D6
  8
0
 10
91.043665794484994
 20
49.303857068919861
 30
0.0
 40
4.0893163974808306
 50
244.3842474678884
 51
304.38424746800479
  0
ARC
  5
16D7
  8
0
 10
97.971869024759926
 20
60.500009491642849
 30
0.0
 40
15.28546882020385
 50
252.41204622602851
 51
287.58795377397138
  0
LINE
  5
16D8
  8
0
 10
88.734264717726504
 20
50.228315247297758
 30
0.0
 11
88.734264717726504
 21
45.929071851254612
 31
0.0
  0
LINE
  5
16D9
  8
0
 10
93.353066871242504
 20
50.228315247297758
 30
0.0
 11
93.353066871243129
 21
45.929071851254371
 31
0.0
  0
LINE
  5
16DA
  8
0
 10
102.5906711782785
 20
50.228315247297758
 30
0.0
 11
102.5906711782778
 21
45.929071851254371
 31
0.0
  0
LINE
  5
16DB
  8
0
 10
107.2094733317943
 20
50.228315247297758
 30
0.0
 11
107.2094733317943
 21
45.929071851254612
 31
0.0
  0
ARC
  5
16DC
  8
0
 10
104.90007225503589
 20
49.303857068919861
 30
0.0
 40
4.0893163974808306
 50
235.6157525319951
 51
295.61575253211151
  0
LINE
  5
16DD
  8
0
 10
107.2094733317943
 20
45.929071851254612
 30
0.0
 11
105.73657490711339
 21
45.078693549276011
 31
0.0
  0
LINE
  5
16DE
  8
0
 10
107.2094733317943
 20
50.228315247297758
 30
0.0
 11
105.73657490711339
 21
51.078693549276352
 31
0.0
  0
ARC
  5
16DF
  8
0
 10
104.90007225503589
 20
46.853530029632502
 30
0.0
 40
4.0893163974808306
 50
64.3842474678885
 51
124.3842474680048
  0
LINE
  5
16E0
  8
0
 10
90.207163142407424
 20
51.078693549276352
 30
0.0
 11
105.73657490711361
 21
51.07869354927611
 31
0.0
  0
LINE
  5
16E1
  8
0
 10
105.73657490711371
 20
45.078693549276231
 30
0.0
 11
90.207163142407197
 21
45.078693549276231
 31
0.0
  0
LINE
  5
16E2
  8
1
 10
44.89800392052674
 20
21.078693549276242
 30
0.0
 11
44.898003920527657
 21
162.07869354927621
 31
0.0
  0
LINE
  5
16E3
  8
0
 10
92.018254089707483
 20
159.07869354927621
 30
0.0
 11
104.0182540897075
 21
159.07869354927621
 31
0.0
  0
LINE
  5
16E4
  8
0
 10
106.0182540897075
 20
50.942846427113011
 30
0.0
 11
106.0182540897075
 21
77.867368683814263
 31
0.0
  0
LINE
  5
16E5
  8
3
 10
104.9357540897075
 20
53.078693549276238
 30
0.0
 11
104.9357540897075
 21
77.86736868381621
 31
0.0
  0
LINE
  5
16E6
  8
0
 10
104.0182540897075
 20
159.07869354927621
 30
0.0
 11
106.0182540897075
 21
157.07869354927621
 31
0.0
  0
LINE
  5
16E7
  8
0
 10
106.0182540897075
 20
157.07869354927621
 30
0.0
 11
90.018254089707483
 21
157.07869354927621
 31
0.0
  0
LINE
  5
16E8
  8
0
 10
90.018254089707483
 20
53.078693549276238
 30
0.0
 11
106.0182540897075
 21
53.078693549276238
 31
0.0
  0
LINE
  5
16E9
  8
3
 10
104.9357540897075
 20
53.078693549276238
 30
0.0
 11
106.0182540897075
 21
51.203748550082928
 31
0.0
  0
LINE
  5
16EA
  8
3
 10
91.100754089707451
 20
53.078693549276238
 30
0.0
 11
91.100754089707451
 21
77.867368683839175
 31
0.0
  0
LINE
  5
16EB
  8
0
 10
90.018254089707483
 20
50.942846427113572
 30
0.0
 11
90.018254089707483
 21
77.867368683841093
 31
0.0
  0
LINE
  5
16EC
  8
0
 10
90.018254089707483
 20
157.07869354927621
 30
0.0
 11
92.018254089707483
 21
159.07869354927621
 31
0.0
  0
LINE
  5
16ED
  8
3
 10
91.100754089707451
 20
53.078693549276238
 30
0.0
 11
90.018254089707483
 21
51.203748550082928
 31
0.0
  0
LINE
  5
16EE
  8
3
 10
91.100754089707451
 20
90.867368683854522
 30
0.0
 11
91.100754089707451
 21
158.16119354927619
 31
0.0
  0
LINE
  5
16EF
  8
0
 10
90.018254089707483
 20
90.867368683852703
 30
0.0
 11
90.018254089707483
 21
157.07869354927621
 31
0.0
  0
LINE
  5
16F0
  8
0
 10
106.0182540897075
 20
90.867368683879647
 30
0.0
 11
106.0182540897075
 21
157.07869354927621
 31
0.0
  0
LINE
  5
16F1
  8
3
 10
104.9357540897075
 20
90.867368683877714
 30
0.0
 11
104.9357540897075
 21
158.16119354927619
 31
0.0
  0
LINE
  5
16F2
  8
3
 10
51.815503920527448
 20
90.867368683841093
 30
0.0
 11
51.815503920527448
 21
158.16119354927619
 31
0.0
  0
LINE
  5
16F3
  8
0
 10
52.898003920527429
 20
90.867368683841207
 30
0.0
 11
52.898003920527429
 21
157.07869354927621
 31
0.0
  0
LINE
  5
16F4
  8
3
 10
37.980503920527468
 20
90.867368683841207
 30
0.0
 11
37.980503920527468
 21
158.16119354927619
 31
0.0
  0
LINE
  5
16F5
  8
0
 10
36.898003920527493
 20
90.867368683841093
 30
0.0
 11
36.898003920527493
 21
157.07869354927621
 31
0.0
  0
ARC
  5
16F6
  8
0
 10
44.898003920527771
 20
191.87126899688079
 30
0.0
 40
12.5
 50
193.73979529168869
 51
226.2602047083117
  0
ARC
  5
16F7
  8
0
 10
44.898003920527771
 20
191.87126899688079
 30
0.0
 40
12.5
 50
133.7397952916883
 51
166.26020470831131
  0
ARC
  5
16F8
  8
0
 10
44.898003920527771
 20
191.87126899688079
 30
0.0
 40
12.5
 50
73.739795291686903
 51
106.260204708313
  0
ARC
  5
16F9
  8
0
 10
44.898003920527771
 20
191.87126899688079
 30
0.0
 40
12.5
 50
13.739795291687591
 51
46.260204708312791
  0
ARC
  5
16FA
  8
0
 10
44.898003920527771
 20
191.87126899688079
 30
0.0
 40
12.5
 50
313.73979529168719
 51
346.26020470831241
  0
LINE
  5
16FB
  8
1
 10
28.041597459976721
 20
191.87126899688079
 30
0.0
 11
61.754410381078841
 21
191.87126899688079
 31
0.0
  0
LINE
  5
16FC
  8
1
 10
98.018254089707483
 20
162.07869354929119
 30
0.0
 11
98.018254089707483
 21
21.078693549291248
 31
0.0
  0
LINE
  5
19C0
  8
0
 10
44.898003920526918
 20
50.228315247297772
 30
0.0
 11
44.898003920526882
 21
45.929071851253667
 31
0.0
  0
LINE
  5
19C1
  8
0
 10
98.018254089707483
 20
89.506896779453925
 30
0.0
 11
98.018254089707483
 21
79.227840588242429
 31
0.0
  0
TEXT
  5
1B18
  8
0
 62
     3
 10
0.0
 20
0.0
 30
0.0
 40
10.0
  1
LSAR25S16B-SUS
  7
STANDARD1
  0
ENDSEC
  0
EOF
