  0
SECTION
  2
HEADER
  9
$ACADVER
  1
AC1009
  9
$INSBASE
 10
0.0
 20
0.0
 30
0.0
  9
$EXTMIN
 10
0.0
 20
-2.960436562073669
 30
0.0
  9
$EXTMAX
 10
134.18451708900901
 20
254.3743636466973
 30
0.0
  9
$LIMMIN
 10
0.0
 20
0.0
  9
$LIMMAX
 10
375.0
 20
270.0
  9
$ORTHOMODE
 70
     1
  9
$REGENMODE
 70
     1
  9
$FILLMODE
 70
     1
  9
$QTEXTMODE
 70
     0
  9
$MIRRTEXT
 70
     0
  9
$DRAGMODE
 70
     2
  9
$LTSCALE
 40
6.0
  9
$OSMODE
 70
  3071
  9
$ATTMODE
 70
     1
  9
$TEXTSIZE
 40
0.2
  9
$TRACEWID
 40
0.05
  9
$TEXTSTYLE
  7
STANDARD
  9
$CLAYER
  8
0
  9
$CELTYPE
  6
BYLAYER
  9
$CECOLOR
 62
   256
  9
$DIMSCALE
 40
1.0
  9
$DIMASZ
 40
3.0
  9
$DIMEXO
 40
1.0
  9
$DIMDLI
 40
6.0
  9
$DIMRND
 40
0.0
  9
$DIMDLE
 40
0.0
  9
$DIMEXE
 40
1.0
  9
$DIMTP
 40
495.0
  9
$DIMTM
 40
0.0
  9
$DIMTXT
 40
3.0
  9
$DIMCEN
 40
0.0
  9
$DIMTSZ
 40
0.0
  9
$DIMTOL
 70
     0
  9
$DIMLIM
 70
     0
  9
$DIMTIH
 70
     0
  9
$DIMTOH
 70
     0
  9
$DIMSE1
 70
     0
  9
$DIMSE2
 70
     0
  9
$DIMTAD
 70
     1
  9
$DIMZIN
 70
     0
  9
$DIMBLK
  1

  9
$DIMASO
 70
     0
  9
$DIMSHO
 70
     0
  9
$DIMPOST
  1

  9
$DIMAPOST
  1

  9
$DIMALT
 70
     0
  9
$DIMALTD
 70
     2
  9
$DIMALTF
 40
25.399999999999999
  9
$DIMLFAC
 40
1.0
  9
$DIMTOFL
 70
     1
  9
$DIMTVP
 40
0.0
  9
$DIMTIX
 70
     1
  9
$DIMSOXD
 70
     0
  9
$DIMSAH
 70
     0
  9
$DIMBLK1
  1

  9
$DIMBLK2
  1

  9
$DIMSTYLE
  2
STANDARD
  9
$DIMCLRD
 70
     0
  9
$DIMCLRE
 70
     0
  9
$DIMCLRT
 70
     4
  9
$DIMTFAC
 40
1.0
  9
$DIMGAP
 40
1.0
  9
$LUNITS
 70
     2
  9
$LUPREC
 70
     4
  9
$SKETCHINC
 40
0.1
  9
$FILLETRAD
 40
2.0
  9
$AUNITS
 70
     0
  9
$AUPREC
 70
     0
  9
$MENU
  1
C:\R13\WIN\SUPPORT\ACAD-I
  9
$ELEVATION
 40
0.0
  9
$PELEVATION
 40
0.0
  9
$THICKNESS
 40
0.0
  9
$LIMCHECK
 70
     0
  9
$BLIPMODE
 70
     0
  9
$CHAMFERA
 40
0.0
  9
$CHAMFERB
 40
0.0
  9
$SKPOLY
 70
     0
  9
$TDCREATE
 40
2451961.6991652888
  9
$TDUPDATE
 40
2456597.6075308342
  9
$TDINDWG
 40
0.0436920718
  9
$TDUSRTIMER
 40
2456548.0781500582
  9
$USRTIMER
 70
     1
  9
$ANGBASE
 50
0.0
  9
$ANGDIR
 70
     0
  9
$PDMODE
 70
     0
  9
$PDSIZE
 40
0.0
  9
$PLINEWID
 40
0.0
  9
$COORDS
 70
     1
  9
$SPLFRAME
 70
     0
  9
$SPLINETYPE
 70
     6
  9
$SPLINESEGS
 70
     8
  9
$ATTDIA
 70
     0
  9
$ATTREQ
 70
     1
  9
$HANDLING
 70
     1
  9
$HANDSEED
  5
1D1C
  9
$SURFTAB1
 70
     6
  9
$SURFTAB2
 70
     6
  9
$SURFTYPE
 70
     6
  9
$SURFU
 70
     6
  9
$SURFV
 70
     6
  9
$UCSNAME
  2

  9
$UCSORG
 10
0.0
 20
0.0
 30
0.0
  9
$UCSXDIR
 10
1.0
 20
0.0
 30
0.0
  9
$UCSYDIR
 10
0.0
 20
1.0
 30
0.0
  9
$PUCSNAME
  2

  9
$PUCSORG
 10
0.0
 20
0.0
 30
0.0
  9
$PUCSXDIR
 10
1.0
 20
0.0
 30
0.0
  9
$PUCSYDIR
 10
0.0
 20
1.0
 30
0.0
  9
$USERI1
 70
     4
  9
$USERI2
 70
     1
  9
$USERI3
 70
     0
  9
$USERI4
 70
     0
  9
$USERI5
 70
     0
  9
$USERR1
 40
1.0
  9
$USERR2
 40
3.0
  9
$USERR3
 40
3.0
  9
$USERR4
 40
3.0
  9
$USERR5
 40
10.0
  9
$WORLDVIEW
 70
     1
  9
$SHADEDGE
 70
     3
  9
$SHADEDIF
 70
    70
  9
$TILEMODE
 70
     1
  9
$MAXACTVP
 70
    16
  9
$PLIMCHECK
 70
     0
  9
$PEXTMIN
 10
1.0000000000000000E+020
 20
1.0000000000000000E+020
 30
1.0000000000000000E+020
  9
$PEXTMAX
 10
-1.0000000000000000E+020
 20
-1.0000000000000000E+020
 30
-1.0000000000000000E+020
  9
$PLIMMIN
 10
0.0
 20
0.0
  9
$PLIMMAX
 10
12.0
 20
9.0
  9
$UNITMODE
 70
     0
  9
$VISRETAIN
 70
     0
  9
$PLINEGEN
 70
     0
  9
$PSLTSCALE
 70
     0
  0
ENDSEC
  0
SECTION
  2
TABLES
  0
TABLE
  2
VPORT
 70
     1
  0
VPORT
  2
*ACTIVE
 70
     0
 10
0.0
 20
0.0
 11
1.0
 21
1.0
 12
187.49427839065231
 22
134.10366293909439
 13
0.0
 23
0.0
 14
10.0
 24
10.0
 15
10.0
 25
10.0
 16
0.0
 26
0.0
 36
1.0
 17
0.0
 27
0.0
 37
0.0
 40
277.29405978699532
 41
2.304913294797688
 42
50.0
 43
0.0
 44
0.0
 50
0.0
 51
0.0
 71
    16
 72
   100
 73
     1
 74
     0
 75
     0
 76
     0
 77
     0
 78
     0
  0
ENDTAB
  0
TABLE
  2
LTYPE
 70
     3
  0
LTYPE
  2
CONTINUOUS
 70
     0
  3
Solid Line
 72
    65
 73
     0
 40
0.0
  0
LTYPE
  2
PHANTOM2
 70
     0
  3
___ _ _ ___ _ _ ___ _ _ ___ _ _
 72
    65
 73
     6
 40
1.25
 49
0.625
 49
-0.125
 49
0.125
 49
-0.125
 49
0.125
 49
-0.125
  0
LTYPE
  2
CENTER
 70
     0
  3
____ _ ____ _ ____ _ ____ _ ____ _ ____ _ ____
 72
    65
 73
     4
 40
2.0
 49
1.25
 49
-0.25
 49
0.25
 49
-0.25
  0
ENDTAB
  0
TABLE
  2
LAYER
 70
     3
  0
LAYER
  2
0
 70
     0
 62
     7
  6
CONTINUOUS
  0
LAYER
  2
1
 70
     0
 62
     1
  6
CENTER
  0
LAYER
  2
3
 70
     0
 62
     3
  6
CONTINUOUS
  0
ENDTAB
  0
TABLE
  2
STYLE
 70
     3
  0
STYLE
  2
STANDARD
 70
     0
 40
0.0
 41
1.0
 50
0.0
 71
     0
 42
0.2
  3
SIMPLEX
  4
BIGFONT
  0
STYLE
  2
ANNOTATIVE
 70
     0
 40
0.0
 41
1.0
 50
0.0
 71
     0
 42
0.2
  3
txt
  4

  0
STYLE
  2
STANDARD1
 70
     0
 40
0.0
 41
1.0
 50
0.0
 71
     0
 42
3.0
  3
txt
  4

  0
ENDTAB
  0
TABLE
  2
VIEW
 70
     0
  0
ENDTAB
  0
TABLE
  2
UCS
 70
     0
  0
ENDTAB
  0
TABLE
  2
APPID
 70
    29
  0
APPID
  2
ACAD
 70
     0
  0
APPID
  2
ACADANNOTATIVE
 70
     0
  0
APPID
  2
GENIUS_GENOREF_13
 70
     0
  0
APPID
  2
GENIUS_GENOENT_13
 70
     0
  0
APPID
  2
GENIUS_GENBH_13
 70
     0
  0
APPID
  2
GENIUS_GENOBJ_13
 70
     0
  0
APPID
  2
GENIUS_GENODEF_13
 70
     0
  0
APPID
  2
GENIUS_GENOLIS_13
 70
     0
  0
APPID
  2
GENIUS_GENOBJ-NBEHI-BHF_13
 70
     0
  0
APPID
  2
GENIUS_GENOBJ-NBEHI-BHB_13
 70
     0
  0
APPID
  2
GENIUS_GENOBJ-F-PART_13
 70
     0
  0
APPID
  2
GENIUS_GEFSTDP_13
 70
     0
  0
APPID
  2
GENIUS_GENOBJ-N-RSSYM_13
 70
     0
  0
APPID
  2
GENIUS_GENSYMENT_13
 70
     0
  0
APPID
  2
GENIUS_GENOBJ-N-TIT_13
 70
     0
  0
APPID
  2
GENIUS_GENTITLE_13
 70
     0
  0
APPID
  2
GENIUS_GENZVEED_13
 70
     0
  0
APPID
  2
GENIUS_GENOBJ-N-LEADER_13
 70
     0
  0
APPID
  2
GENIUS_GENOBJ-N-FIL_13
 70
     0
  0
APPID
  2
GENIUS_GENOBJ-N-SEC_13
 70
     0
  0
APPID
  2
GENIUS_GENOBJ-N-CRS_13
 70
     0
  0
APPID
  2
GENIUS_GENOBJ-N-ZOO_13
 70
     0
  0
APPID
  2
GENIUS_GENZOO_13
 70
     0
  0
APPID
  2
GENIUS_GENOBJ-F-TOL_13
 70
     0
  0
APPID
  2
GENIUS_GENFIL_13
 70
     0
  0
APPID
  2
GENIUS_GENOBJ-N-CHA_13
 70
     0
  0
APPID
  2
ACAD_MLEADERVER
 70
     0
  0
APPID
  2
ACAD_EXEMPT_FROM_CAD_STANDARDS
 70
     0
  0
APPID
  2
ACAD_NAV_VCDISPLAY
 70
     0
  0
ENDTAB
  0
TABLE
  2
DIMSTYLE
 70
     2
  0
DIMSTYLE
  2
STANDARD
 70
     0
  3

  4

  5

  6

  7

 40
1.0
 41
0.18
 42
0.0625
 43
0.38
 44
0.18
 45
0.0
 46
0.0
 47
0.0
 48
0.0
140
0.18
141
0.09
142
0.0
143
25.399999999999999
144
1.0
145
0.0
146
1.0
147
0.09
 71
     0
 72
     0
 73
     1
 74
     1
 75
     0
 76
     0
 77
     0
 78
     0
170
     0
171
     2
172
     0
173
     0
174
     0
175
     0
176
     0
177
     0
178
     0
  0
DIMSTYLE
  2
ANNOTATIVE
 70
     0
  3

  4

  5

  6

  7

 40
1.0
 41
0.18
 42
0.0625
 43
0.38
 44
0.18
 45
0.0
 46
0.0
 47
0.0
 48
0.0
140
0.18
141
0.09
142
0.0
143
25.399999999999999
144
1.0
145
0.0
146
1.0
147
0.09
 71
     0
 72
     0
 73
     1
 74
     1
 75
     0
 76
     0
 77
     0
 78
     0
170
     0
171
     2
172
     0
173
     0
174
     0
175
     0
176
     0
177
     0
178
     0
  0
ENDTAB
  0
ENDSEC
  0
SECTION
  2
BLOCKS
  0
BLOCK
  8
0
  2
$MODEL_SPACE
 70
     0
 10
0.0
 20
0.0
 30
0.0
  3
$MODEL_SPACE
  1

  0
ENDBLK
  5
1C3F
  8
0
  0
BLOCK
 67
     1
  8
0
  2
$PAPER_SPACE
 70
     0
 10
0.0
 20
0.0
 30
0.0
  3
$PAPER_SPACE
  1

  0
ENDBLK
  5
1C3B
 67
     1
  8
0
  0
ENDSEC
  0
SECTION
  2
ENTITIES
  0
LINE
  5
180A
  8
1
 10
121.68451708900901
 20
202.0786935492761
 30
0.0
 11
121.68451708900901
 21
21.078693549276242
 31
0.0
  0
LINE
  5
180B
  8
1
 10
28.041597459976629
 20
238.8743636466973
 30
0.0
 11
61.754410381078941
 21
238.8743636466973
 31
0.0
  0
ARC
  5
180C
  8
0
 10
44.898003920527771
 20
238.8743636466973
 30
0.0
 40
12.5
 50
313.73979529168719
 51
346.26020470831241
  0
ARC
  5
180D
  8
0
 10
44.898003920527771
 20
238.8743636466973
 30
0.0
 40
12.5
 50
13.73979529168758
 51
46.260204708312727
  0
ARC
  5
180E
  8
0
 10
44.898003920527771
 20
238.8743636466973
 30
0.0
 40
12.5
 50
73.739795291686903
 51
106.260204708313
  0
ARC
  5
180F
  8
0
 10
44.898003920527771
 20
238.8743636466973
 30
0.0
 40
12.5
 50
133.73979529168821
 51
166.26020470831131
  0
ARC
  5
1810
  8
0
 10
44.898003920527771
 20
238.8743636466973
 30
0.0
 40
12.5
 50
193.73979529168869
 51
226.2602047083117
  0
LINE
  5
1811
  8
0
 10
36.898003920527451
 20
90.867368683841093
 30
0.0
 11
36.898003920527437
 21
197.0786935492763
 31
0.0
  0
LINE
  5
1812
  8
3
 10
37.98050392052744
 20
90.867368683841207
 30
0.0
 11
37.980503920527433
 21
198.16119354927611
 31
0.0
  0
LINE
  5
1813
  8
0
 10
52.898003920527458
 20
90.867368683841207
 30
0.0
 11
52.898003920527429
 21
197.0786935492761
 31
0.0
  0
LINE
  5
1814
  8
3
 10
51.815503920527483
 20
90.867368683841093
 30
0.0
 11
51.815503920527448
 21
198.16119354927611
 31
0.0
  0
LINE
  5
1815
  8
3
 10
128.60201708900911
 20
90.867368683890987
 30
0.0
 11
128.60201708900911
 21
198.16119354927611
 31
0.0
  0
LINE
  5
1816
  8
0
 10
129.68451708900901
 20
90.867368683892934
 30
0.0
 11
129.68451708900901
 21
197.0786935492761
 31
0.0
  0
LINE
  5
1817
  8
0
 10
113.68451708900911
 20
90.867368683866005
 30
0.0
 11
113.68451708900911
 21
197.0786935492763
 31
0.0
  0
LINE
  5
1818
  8
3
 10
114.767017089009
 20
90.867368683867824
 30
0.0
 11
114.767017089009
 21
198.16119354927611
 31
0.0
  0
LINE
  5
1819
  8
3
 10
114.767017089009
 20
53.078693549276238
 30
0.0
 11
113.68451708900911
 21
51.203748550082928
 31
0.0
  0
LINE
  5
181A
  8
0
 10
113.68451708900911
 20
197.0786935492763
 30
0.0
 11
115.68451708900911
 21
199.07869354927621
 31
0.0
  0
LINE
  5
181B
  8
0
 10
113.68451708900911
 20
50.942846427113572
 30
0.0
 11
113.68451708900911
 21
77.867368683854423
 31
0.0
  0
LINE
  5
181C
  8
3
 10
114.767017089009
 20
53.078693549276238
 30
0.0
 11
114.767017089009
 21
77.867368683852433
 31
0.0
  0
LINE
  5
181D
  8
3
 10
128.60201708900911
 20
53.078693549276238
 30
0.0
 11
129.68451708900901
 21
51.203748550082928
 31
0.0
  0
LINE
  5
181E
  8
0
 10
113.68451708900911
 20
53.078693549276238
 30
0.0
 11
129.68451708900901
 21
53.078693549276238
 31
0.0
  0
LINE
  5
181F
  8
0
 10
129.68451708900901
 20
197.0786935492761
 30
0.0
 11
113.68451708900911
 21
197.07869354927621
 31
0.0
  0
LINE
  5
1820
  8
0
 10
127.68451708900901
 20
199.0786935492761
 30
0.0
 11
129.68451708900901
 21
197.0786935492761
 31
0.0
  0
LINE
  5
1821
  8
3
 10
128.60201708900911
 20
53.078693549276238
 30
0.0
 11
128.60201708900911
 21
77.867368683829497
 31
0.0
  0
LINE
  5
1822
  8
0
 10
129.68451708900901
 20
50.942846427113011
 30
0.0
 11
129.68451708900901
 21
77.867368683827578
 31
0.0
  0
LINE
  5
1823
  8
0
 10
115.68451708900911
 20
199.07869354927621
 30
0.0
 11
127.68451708900901
 21
199.0786935492761
 31
0.0
  0
LINE
  5
1824
  8
1
 10
44.898003920526762
 20
21.078693549276242
 30
0.0
 11
44.898003920527657
 21
202.0786935492761
 31
0.0
  0
LINE
  5
1825
  8
0
 10
129.4028379064153
 20
45.078693549276231
 30
0.0
 11
113.8734261417088
 21
45.078693549276231
 31
0.0
  0
LINE
  5
1826
  8
0
 10
113.873426141709
 20
51.078693549276352
 30
0.0
 11
129.4028379064151
 21
51.07869354927611
 31
0.0
  0
ARC
  5
1827
  8
0
 10
128.5663352543375
 20
46.853530029632502
 30
0.0
 40
4.0893163974808306
 50
64.384247467888457
 51
124.3842474680048
  0
LINE
  5
1828
  8
0
 10
130.87573633109591
 20
50.228315247297758
 30
0.0
 11
129.4028379064151
 21
51.078693549276352
 31
0.0
  0
LINE
  5
1829
  8
0
 10
130.87573633109591
 20
45.929071851254612
 30
0.0
 11
129.4028379064151
 21
45.078693549276011
 31
0.0
  0
ARC
  5
182A
  8
0
 10
128.5663352543375
 20
49.303857068919861
 30
0.0
 40
4.0893163974808306
 50
235.61575253199521
 51
295.61575253211151
  0
LINE
  5
182B
  8
0
 10
130.87573633109591
 20
50.228315247297758
 30
0.0
 11
130.87573633109591
 21
45.929071851254612
 31
0.0
  0
LINE
  5
182C
  8
0
 10
126.25693417758011
 20
50.228315247297758
 30
0.0
 11
126.2569341775794
 21
45.929071851254371
 31
0.0
  0
LINE
  5
182D
  8
0
 10
117.019329870544
 20
50.228315247297758
 30
0.0
 11
117.01932987054469
 21
45.929071851254371
 31
0.0
  0
LINE
  5
182E
  8
0
 10
112.400527717028
 20
50.228315247297758
 30
0.0
 11
112.400527717028
 21
45.929071851254612
 31
0.0
  0
ARC
  5
182F
  8
0
 10
121.63813202406151
 20
60.500009491642849
 30
0.0
 40
15.28546882020385
 50
252.41204622602851
 51
287.58795377397138
  0
ARC
  5
1830
  8
0
 10
114.7099287937866
 20
49.303857068919861
 30
0.0
 40
4.0893163974808306
 50
244.3842474678884
 51
304.38424746800479
  0
LINE
  5
1831
  8
0
 10
112.400527717028
 20
45.929071851254612
 30
0.0
 11
113.873426141709
 21
45.078693549276011
 31
0.0
  0
LINE
  5
1832
  8
0
 10
112.400527717028
 20
50.228315247297758
 30
0.0
 11
113.873426141709
 21
51.078693549276352
 31
0.0
  0
ARC
  5
1833
  8
0
 10
121.63813202406151
 20
35.657377606909513
 30
0.0
 40
15.28546882020385
 50
72.412046226028565
 51
107.58795377397141
  0
ARC
  5
1834
  8
0
 10
114.7099287937866
 20
46.853530029632502
 30
0.0
 40
4.0893163974808306
 50
55.615752531995213
 51
115.6157525321115
  0
LINE
  5
1835
  8
0
 10
37.133298038174061
 20
45.078693549276011
 30
0.0
 11
52.662709802879903
 21
45.078693549276011
 31
0.0
  0
LINE
  5
1836
  8
0
 10
52.662709802878886
 20
51.078693549276011
 30
0.0
 11
37.133298038174971
 21
51.078693549276011
 31
0.0
  0
ARC
  5
1837
  8
0
 10
40.898003920526989
 20
39.389428414485963
 30
0.0
 40
11.55341801262729
 50
69.743841999606886
 51
110.2561580003931
  0
LINE
  5
1838
  8
0
 10
36.898003920526989
 20
50.942846427113253
 30
0.0
 11
37.133298038174971
 21
51.078693549276011
 31
0.0
  0
ARC
  5
1839
  8
0
 10
40.898003920526989
 20
56.767958684065498
 30
0.0
 40
11.55341801262729
 50
249.7438419996069
 51
290.2561580003931
  0
LINE
  5
183A
  8
0
 10
36.898003920526989
 20
45.214540671438328
 30
0.0
 11
37.133298038174971
 21
45.078693549275428
 31
0.0
  0
LINE
  5
183B
  8
0
 10
36.898003920526989
 20
50.942846427113253
 30
0.0
 11
36.898003920526989
 21
45.214540671438328
 31
0.0
  0
LINE
  5
183C
  8
0
 10
44.898003920526982
 20
50.228315247297289
 30
0.0
 11
44.898003920526982
 21
45.929071851253923
 31
0.0
  0
LINE
  5
183D
  8
0
 10
52.898003920526968
 20
50.942846427113253
 30
0.0
 11
52.898003920526968
 21
45.214540671438328
 31
0.0
  0
ARC
  5
183E
  8
0
 10
48.898003920526982
 20
56.767958684065498
 30
0.0
 40
11.55341801262729
 50
249.7438419996069
 51
290.2561580003931
  0
LINE
  5
183F
  8
0
 10
52.898003920526968
 20
45.214540671438328
 30
0.0
 11
52.662709802879007
 21
45.078693549275428
 31
0.0
  0
LINE
  5
1840
  8
0
 10
52.898003920526968
 20
50.942846427113253
 30
0.0
 11
52.662709802879007
 21
51.078693549276011
 31
0.0
  0
ARC
  5
1841
  8
0
 10
48.898003920526982
 20
39.389428414485963
 30
0.0
 40
11.55341801262729
 50
69.743841999606886
 51
110.2561580003931
  0
LINE
  5
1842
  8
0
 10
38.898003920527451
 20
199.07869354927621
 30
0.0
 11
50.898003920527437
 21
199.0786935492761
 31
0.0
  0
LINE
  5
1843
  8
0
 10
52.898003920527557
 20
50.942846427113011
 30
0.0
 11
52.898003920527557
 21
77.867368683840979
 31
0.0
  0
LINE
  5
1844
  8
3
 10
51.815503920527448
 20
53.078693549276238
 30
0.0
 11
51.815503920527448
 21
77.867368683840979
 31
0.0
  0
LINE
  5
1845
  8
3
 10
37.980503920527433
 20
53.078693549276238
 30
0.0
 11
37.980503920527433
 21
77.867368683840979
 31
0.0
  0
LINE
  5
1846
  8
0
 10
36.898003920527437
 20
50.942846427113572
 30
0.0
 11
36.898003920527437
 21
77.867368683841093
 31
0.0
  0
LINE
  5
1847
  8
0
 10
36.898003920527437
 20
197.0786935492763
 30
0.0
 11
38.898003920527451
 21
199.07869354927621
 31
0.0
  0
LINE
  5
1848
  8
0
 10
50.898003920527437
 20
199.0786935492761
 30
0.0
 11
52.898003920527429
 21
197.0786935492761
 31
0.0
  0
LINE
  5
1849
  8
0
 10
52.898003920527429
 20
197.0786935492761
 30
0.0
 11
36.898003920527437
 21
197.07869354927621
 31
0.0
  0
LINE
  5
184A
  8
0
 10
36.898003920527437
 20
53.078693549276238
 30
0.0
 11
52.898003920527429
 21
53.078693549276238
 31
0.0
  0
LINE
  5
184B
  8
3
 10
37.980503920527433
 20
53.078693549276238
 30
0.0
 11
36.898003920527437
 21
51.203748550082928
 31
0.0
  0
LINE
  5
184C
  8
3
 10
51.815503920527448
 20
53.078693549276238
 30
0.0
 11
52.898003920527429
 21
51.203748550082928
 31
0.0
  0
LINE
  5
184D
  8
0
 10
56.398003920419427
 20
77.867368683841093
 30
0.0
 11
33.398003920634991
 21
77.867368683841093
 31
0.0
  0
LINE
  5
184E
  8
0
 10
33.398003920527231
 20
90.867368683841093
 30
0.0
 11
56.398003920419448
 21
90.867368683841093
 31
0.0
  0
ARC
  5
184F
  8
0
 10
55.290308765940722
 20
84.444718953555309
 30
0.0
 40
6.1339745957208196
 50
64.384247469851957
 51
124.3842474712113
  0
LINE
  5
1850
  8
0
 10
58.754410381100229
 20
89.50689677944689
 30
0.0
 11
56.398003920419448
 21
90.867368683841093
 31
0.0
  0
LINE
  5
1851
  8
0
 10
58.754410381100222
 20
79.227840588235324
 30
0.0
 11
56.398003920419427
 21
77.867368683841093
 31
0.0
  0
ARC
  5
1852
  8
0
 10
55.290308765940701
 20
84.290018414126905
 30
0.0
 40
6.1339745957208196
 50
235.6157525287887
 51
295.61575253014797
  0
LINE
  5
1853
  8
0
 10
58.754410381078387
 20
89.50689677944689
 30
0.0
 11
58.754410381078387
 21
79.227840588222705
 31
0.0
  0
LINE
  5
1854
  8
0
 10
51.826207150802581
 20
89.50689677944689
 30
0.0
 11
51.826207150802581
 21
79.227840588235324
 31
0.0
  0
LINE
  5
1855
  8
0
 10
37.969800690251873
 20
89.50689677944689
 30
0.0
 11
37.969800690251851
 21
79.227840588235324
 31
0.0
  0
LINE
  5
1856
  8
0
 10
31.04159745997606
 20
89.50689677944689
 30
0.0
 11
31.04159745997605
 21
79.227840588222705
 31
0.0
  0
ARC
  5
1857
  8
0
 10
44.898003920527202
 20
101.0842470465456
 30
0.0
 40
22.928203228139491
 50
252.41204622431411
 51
287.58795377568589
  0
ARC
  5
1858
  8
0
 10
34.505699075113718
 20
84.290018414126905
 30
0.0
 40
6.1339745957208196
 50
244.384247469852
 51
304.38424747121132
  0
LINE
  5
1859
  8
0
 10
31.041597459954229
 20
79.227840588235324
 30
0.0
 11
33.398003920634991
 21
77.867368683841093
 31
0.0
  0
LINE
  5
185A
  8
0
 10
31.041597459954229
 20
89.50689677944689
 30
0.0
 11
33.398003920635013
 21
90.867368683841093
 31
0.0
  0
ARC
  5
185B
  8
0
 10
34.505699075113732
 20
84.444718953555309
 30
0.0
 40
6.1339745957208196
 50
55.615752528788711
 51
115.615752530148
  0
ARC
  5
185C
  8
0
 10
44.898003920527231
 20
67.650490321136601
 30
0.0
 40
22.928203228139491
 50
72.412046224314139
 51
107.5879537756858
  0
LINE
  5
185D
  8
0
 10
133.18451708900901
 20
77.86736868382178
 30
0.0
 11
110.1845170889427
 21
77.867368683860192
 31
0.0
  0
LINE
  5
185E
  8
0
 10
110.1845170889427
 20
90.867368683860207
 30
0.0
 11
133.18451708900901
 21
90.867368683898633
 31
0.0
  0
ARC
  5
185F
  8
0
 10
115.68451708900911
 20
73.248566531961913
 30
0.0
 40
17.330127017333279
 50
69.743841997641411
 51
110.2561580023586
  0
LINE
  5
1860
  8
0
 10
109.6845170889941
 20
90.578693549295195
 30
0.0
 11
110.18451708900911
 21
90.867368683898633
 31
0.0
  0
LINE
  5
1861
  8
0
 10
109.684517088994
 20
78.156043818425175
 30
0.0
 11
110.18451708900901
 21
77.86736868382178
 31
0.0
  0
ARC
  5
1862
  8
0
 10
115.68451708900911
 20
95.486170835758514
 30
0.0
 40
17.330127017333279
 50
249.7438419976414
 51
290.25615800235857
  0
LINE
  5
1863
  8
0
 10
109.6845170889941
 20
90.578693549295195
 30
0.0
 11
109.68451708900911
 21
78.156043818416563
 31
0.0
  0
LINE
  5
1864
  8
0
 10
121.68451708900901
 20
79.227840588254423
 30
0.0
 11
121.68451708900911
 21
89.506896779465976
 31
0.0
  0
LINE
  5
1865
  8
0
 10
133.6845170890241
 20
90.578693549295195
 30
0.0
 11
133.68451708900901
 21
78.156043818416563
 31
0.0
  0
ARC
  5
1866
  8
0
 10
127.68451708900901
 20
95.486170835758514
 30
0.0
 40
17.330127017333279
 50
249.7438419976414
 51
290.25615800235857
  0
LINE
  5
1867
  8
0
 10
133.6845170890241
 20
78.156043818425175
 30
0.0
 11
133.18451708900901
 21
77.86736868382178
 31
0.0
  0
LINE
  5
1868
  8
0
 10
133.6845170890241
 20
90.578693549295195
 30
0.0
 11
133.18451708900901
 21
90.867368683898633
 31
0.0
  0
ARC
  5
1869
  8
0
 10
127.68451708900911
 20
73.248566531961913
 30
0.0
 40
17.330127017333279
 50
69.743841997641411
 51
110.2561580023586
  0
CIRCLE
  5
186A
  8
3
 10
44.898003920527771
 20
238.8743636466973
 30
0.0
 40
6.9175000000000004
  0
CIRCLE
  5
186B
  8
0
 10
44.898003920527771
 20
238.8743636466973
 30
0.0
 40
8.0
  0
CIRCLE
  5
186C
  8
0
 10
44.898003920527771
 20
238.8743636466973
 30
0.0
 40
11.5
  0
LINE
  5
186D
  8
0
 10
58.754410381078941
 20
238.8743636466973
 30
0.0
 11
51.826207150803143
 21
250.8743636466973
 31
0.0
  0
LINE
  5
186E
  8
0
 10
51.826207150803143
 20
226.8743636466973
 30
0.0
 11
58.754410381078941
 21
238.8743636466973
 31
0.0
  0
LINE
  5
186F
  8
0
 10
37.96980069025242
 20
226.8743636466973
 30
0.0
 11
51.826207150803143
 21
226.8743636466973
 31
0.0
  0
LINE
  5
1870
  8
0
 10
31.041597459976611
 20
238.8743636466973
 30
0.0
 11
37.96980069025242
 21
226.8743636466973
 31
0.0
  0
LINE
  5
1871
  8
0
 10
37.96980069025242
 20
250.8743636466973
 30
0.0
 11
31.041597459976611
 21
238.8743636466973
 31
0.0
  0
LINE
  5
1872
  8
0
 10
51.826207150803143
 20
250.8743636466973
 30
0.0
 11
37.96980069025242
 21
250.8743636466973
 31
0.0
  0
LINE
  5
1882
  8
1
 10
44.898003920527771
 20
254.3743636466973
 30
0.0
 11
44.898003920527771
 21
223.3743636466973
 31
0.0
  0
ARC
  5
1883
  8
0
 10
44.898003920527771
 20
238.8743636466973
 30
0.0
 40
12.5
 50
253.73979529168921
 51
286.26020470831082
  0
LINE
  5
1884
  8
0
 10
109.68451708900911
 20
27.078693549276242
 30
0.0
 11
133.68451708900901
 21
27.078693549276242
 31
0.0
  0
LINE
  5
1885
  8
0
 10
109.18451708900901
 20
27.578693549276242
 30
0.0
 11
109.18451708900901
 21
31.078693549276242
 31
0.0
  0
LINE
  5
1886
  8
0
 10
134.18451708900901
 20
27.578693549276242
 30
0.0
 11
134.18451708900901
 21
31.078693549276242
 31
0.0
  0
LINE
  5
1887
  8
0
 10
109.68451708900911
 20
27.078693549276242
 30
0.0
 11
109.18451708900901
 21
27.578693549276242
 31
0.0
  0
LINE
  5
1888
  8
0
 10
134.18451708900901
 20
27.578693549276242
 30
0.0
 11
133.68451708900901
 21
27.078693549276242
 31
0.0
  0
LINE
  5
1889
  8
0
 10
113.18451708900901
 20
39.078693549276252
 30
0.0
 11
130.18451708900901
 21
39.078693549276252
 31
0.0
  0
LINE
  5
188A
  8
0
 10
109.18451708900901
 20
31.078693549276242
 30
0.0
 11
134.18451708900901
 21
31.078693549276242
 31
0.0
  0
LINE
  5
188B
  8
0
 10
134.18451708900901
 20
31.078693549276242
 30
0.0
 11
131.68451708900901
 21
33.578693549276238
 31
0.0
  0
LINE
  5
188C
  8
0
 10
130.18451708900901
 20
39.078693549276252
 30
0.0
 11
131.68451708900901
 21
33.578693549276238
 31
0.0
  0
LINE
  5
188D
  8
0
 10
109.18451708900901
 20
31.078693549276242
 30
0.0
 11
111.68451708900911
 21
33.578693549276238
 31
0.0
  0
LINE
  5
188E
  8
0
 10
113.18451708900901
 20
39.078693549276252
 30
0.0
 11
111.68451708900911
 21
33.578693549276238
 31
0.0
  0
LINE
  5
188F
  8
0
 10
131.68451708900901
 20
33.578693549276238
 30
0.0
 11
111.68451708900911
 21
33.578693549276238
 31
0.0
  0
LINE
  5
1890
  8
0
 10
127.18451708900911
 20
42.078693549276217
 30
0.0
 11
116.18451708900901
 21
42.078693549276217
 31
0.0
  0
LINE
  5
1891
  8
0
 10
116.18451708900901
 20
42.078693549276217
 30
0.0
 11
116.18451708900901
 21
45.07869354927611
 31
0.0
  0
LINE
  5
1892
  8
0
 10
127.18451708900911
 20
42.078693549276217
 30
0.0
 11
127.18451708900911
 21
45.07869354927611
 31
0.0
  0
ARC
  5
1893
  8
0
 10
121.68451708900901
 20
37.748566530354033
 30
0.0
 40
7.0
 50
141.78678929826171
 51
169.04615684538459
  0
ARC
  5
1894
  8
0
 10
121.68451708900901
 20
37.748566530354033
 30
0.0
 40
7.0
 50
10.95384315461536
 51
38.213210701738468
  0
ARC
  5
1895
  8
0
 10
44.898003920526861
 20
37.748566530354033
 30
0.0
 40
7.0
 50
10.95384315461536
 51
38.213210701738468
  0
ARC
  5
1896
  8
0
 10
44.898003920526861
 20
37.748566530354033
 30
0.0
 40
7.0
 50
141.78678929826171
 51
169.04615684538459
  0
LINE
  5
1897
  8
0
 10
50.398003920526861
 20
42.078693549276217
 30
0.0
 11
50.398003920526861
 21
45.078693549276011
 31
0.0
  0
LINE
  5
1898
  8
0
 10
39.398003920526882
 20
42.078693549276217
 30
0.0
 11
39.398003920526882
 21
45.078693549276011
 31
0.0
  0
LINE
  5
1899
  8
0
 10
50.398003920526861
 20
42.078693549276217
 30
0.0
 11
39.398003920526882
 21
42.078693549276217
 31
0.0
  0
LINE
  5
189A
  8
0
 10
54.898003920526762
 20
33.578693549276238
 30
0.0
 11
34.898003920526762
 21
33.578693549276238
 31
0.0
  0
LINE
  5
189B
  8
0
 10
36.398003920526762
 20
39.078693549276252
 30
0.0
 11
34.898003920526762
 21
33.578693549276238
 31
0.0
  0
LINE
  5
189C
  8
0
 10
32.398003920526762
 20
31.078693549276242
 30
0.0
 11
34.898003920526762
 21
33.578693549276238
 31
0.0
  0
LINE
  5
189D
  8
0
 10
53.398003920526762
 20
39.078693549276252
 30
0.0
 11
54.898003920526762
 21
33.578693549276238
 31
0.0
  0
LINE
  5
189E
  8
0
 10
57.398003920526762
 20
31.078693549276242
 30
0.0
 11
54.898003920526762
 21
33.578693549276238
 31
0.0
  0
LINE
  5
189F
  8
0
 10
32.398003920526762
 20
31.078693549276242
 30
0.0
 11
57.398003920526762
 21
31.078693549276242
 31
0.0
  0
LINE
  5
18A0
  8
0
 10
36.398003920526762
 20
39.078693549276252
 30
0.0
 11
53.398003920526762
 21
39.078693549276252
 31
0.0
  0
LINE
  5
18A1
  8
0
 10
57.398003920526762
 20
27.578693549276242
 30
0.0
 11
56.898003920526762
 21
27.078693549276242
 31
0.0
  0
LINE
  5
18A2
  8
0
 10
32.898003920526762
 20
27.078693549276242
 30
0.0
 11
32.398003920526762
 21
27.578693549276242
 31
0.0
  0
LINE
  5
18A3
  8
0
 10
57.398003920526762
 20
27.578693549276242
 30
0.0
 11
57.398003920526762
 21
31.078693549276242
 31
0.0
  0
LINE
  5
18A4
  8
0
 10
32.398003920526762
 20
27.578693549276242
 30
0.0
 11
32.398003920526762
 21
31.078693549276242
 31
0.0
  0
LINE
  5
18A5
  8
0
 10
32.898003920526762
 20
27.078693549276242
 30
0.0
 11
56.898003920526762
 21
27.078693549276242
 31
0.0
  0
LINE
  5
18A6
  8
0
 10
32.898003920526762
 20
24.078693549276242
 30
0.0
 11
56.898003920526762
 21
24.078693549276242
 31
0.0
  0
LINE
  5
18A7
  8
0
 10
32.898003920526762
 20
24.078693549276348
 30
0.0
 11
32.898003920526762
 21
27.078693549276242
 31
0.0
  0
LINE
  5
18A8
  8
0
 10
56.898003920526762
 20
24.078693549276121
 30
0.0
 11
56.898003920526527
 21
27.078693549276242
 31
0.0
  0
LINE
  5
18A9
  8
0
 10
133.68451708900901
 20
24.078693549276121
 30
0.0
 11
133.68451708900901
 21
27.078693549276242
 31
0.0
  0
LINE
  5
18AA
  8
0
 10
109.68451708900911
 20
24.078693549276348
 30
0.0
 11
109.68451708900911
 21
27.078693549276242
 31
0.0
  0
LINE
  5
18AB
  8
0
 10
109.68451708900911
 20
24.078693549276242
 30
0.0
 11
133.68451708900901
 21
24.078693549276242
 31
0.0
  0
LINE
  5
1943
  8
0
 10
113.68451708900911
 20
90.867368683892934
 30
0.0
 11
113.68451708900911
 21
197.0786935492761
 31
0.0
  0
TEXT
  5
1CBF
  8
0
 62
     3
 10
0.0
 20
0.0
 30
0.0
 40
10.0
  1
LSAR25S16C-SUS
  7
STANDARD1
  0
ENDSEC
  0
EOF
