  0
SECTION
  2
HEADER
  9
$ACADVER
  1
AC1009
  9
$INSBASE
 10
0.0
 20
0.0
 30
0.0
  9
$EXTMIN
 10
0.0
 20
-2.960436562073669
 30
0.0
  9
$EXTMAX
 10
111.8144611186903
 20
161.65495880472901
 30
0.0
  9
$LIMMIN
 10
0.0
 20
0.0
  9
$LIMMAX
 10
375.0
 20
270.0
  9
$ORTHOMODE
 70
     1
  9
$REGENMODE
 70
     1
  9
$FILLMODE
 70
     1
  9
$QTEXTMODE
 70
     0
  9
$MIRRTEXT
 70
     0
  9
$DRAGMODE
 70
     2
  9
$LTSCALE
 40
6.0
  9
$OSMODE
 70
    37
  9
$ATTMODE
 70
     1
  9
$TEXTSIZE
 40
0.2
  9
$TRACEWID
 40
0.05
  9
$TEXTSTYLE
  7
STANDARD
  9
$CLAYER
  8
0
  9
$CELTYPE
  6
BYLAYER
  9
$CECOLOR
 62
   256
  9
$DIMSCALE
 40
1.0
  9
$DIMASZ
 40
3.0
  9
$DIMEXO
 40
1.0
  9
$DIMDLI
 40
6.0
  9
$DIMRND
 40
0.0
  9
$DIMDLE
 40
0.0
  9
$DIMEXE
 40
1.0
  9
$DIMTP
 40
495.0
  9
$DIMTM
 40
0.0
  9
$DIMTXT
 40
3.0
  9
$DIMCEN
 40
0.0
  9
$DIMTSZ
 40
0.0
  9
$DIMTOL
 70
     0
  9
$DIMLIM
 70
     0
  9
$DIMTIH
 70
     0
  9
$DIMTOH
 70
     0
  9
$DIMSE1
 70
     0
  9
$DIMSE2
 70
     0
  9
$DIMTAD
 70
     1
  9
$DIMZIN
 70
     0
  9
$DIMBLK
  1

  9
$DIMASO
 70
     0
  9
$DIMSHO
 70
     0
  9
$DIMPOST
  1

  9
$DIMAPOST
  1

  9
$DIMALT
 70
     0
  9
$DIMALTD
 70
     2
  9
$DIMALTF
 40
25.399999999999999
  9
$DIMLFAC
 40
1.0
  9
$DIMTOFL
 70
     1
  9
$DIMTVP
 40
0.0
  9
$DIMTIX
 70
     1
  9
$DIMSOXD
 70
     0
  9
$DIMSAH
 70
     0
  9
$DIMBLK1
  1

  9
$DIMBLK2
  1

  9
$DIMSTYLE
  2
STANDARD
  9
$DIMCLRD
 70
     0
  9
$DIMCLRE
 70
     0
  9
$DIMCLRT
 70
     4
  9
$DIMTFAC
 40
1.0
  9
$DIMGAP
 40
1.0
  9
$LUNITS
 70
     2
  9
$LUPREC
 70
     4
  9
$SKETCHINC
 40
0.1
  9
$FILLETRAD
 40
2.0
  9
$AUNITS
 70
     0
  9
$AUPREC
 70
     0
  9
$MENU
  1
C:\R13\WIN\SUPPORT\ACAD-I
  9
$ELEVATION
 40
0.0
  9
$PELEVATION
 40
0.0
  9
$THICKNESS
 40
0.0
  9
$LIMCHECK
 70
     0
  9
$BLIPMODE
 70
     0
  9
$CHAMFERA
 40
0.0
  9
$CHAMFERB
 40
0.0
  9
$SKPOLY
 70
     0
  9
$TDCREATE
 40
2451961.6854414241
  9
$TDUPDATE
 40
2456598.717965486
  9
$TDINDWG
 40
0.0192778125
  9
$TDUSRTIMER
 40
2456598.0138563998
  9
$USRTIMER
 70
     1
  9
$ANGBASE
 50
0.0
  9
$ANGDIR
 70
     0
  9
$PDMODE
 70
     0
  9
$PDSIZE
 40
0.0
  9
$PLINEWID
 40
0.0
  9
$COORDS
 70
     1
  9
$SPLFRAME
 70
     0
  9
$SPLINETYPE
 70
     6
  9
$SPLINESEGS
 70
     8
  9
$ATTDIA
 70
     0
  9
$ATTREQ
 70
     1
  9
$HANDLING
 70
     1
  9
$HANDSEED
  5
1132
  9
$SURFTAB1
 70
     6
  9
$SURFTAB2
 70
     6
  9
$SURFTYPE
 70
     6
  9
$SURFU
 70
     6
  9
$SURFV
 70
     6
  9
$UCSNAME
  2

  9
$UCSORG
 10
0.0
 20
0.0
 30
0.0
  9
$UCSXDIR
 10
1.0
 20
0.0
 30
0.0
  9
$UCSYDIR
 10
0.0
 20
1.0
 30
0.0
  9
$PUCSNAME
  2

  9
$PUCSORG
 10
0.0
 20
0.0
 30
0.0
  9
$PUCSXDIR
 10
1.0
 20
0.0
 30
0.0
  9
$PUCSYDIR
 10
0.0
 20
1.0
 30
0.0
  9
$USERI1
 70
     4
  9
$USERI2
 70
     1
  9
$USERI3
 70
     0
  9
$USERI4
 70
     0
  9
$USERI5
 70
     0
  9
$USERR1
 40
1.0
  9
$USERR2
 40
3.0
  9
$USERR3
 40
3.0
  9
$USERR4
 40
3.0
  9
$USERR5
 40
10.0
  9
$WORLDVIEW
 70
     1
  9
$SHADEDGE
 70
     3
  9
$SHADEDIF
 70
    70
  9
$TILEMODE
 70
     1
  9
$MAXACTVP
 70
    16
  9
$PLIMCHECK
 70
     0
  9
$PEXTMIN
 10
1.0000000000000000E+020
 20
1.0000000000000000E+020
 30
1.0000000000000000E+020
  9
$PEXTMAX
 10
-1.0000000000000000E+020
 20
-1.0000000000000000E+020
 30
-1.0000000000000000E+020
  9
$PLIMMIN
 10
0.0
 20
0.0
  9
$PLIMMAX
 10
12.0
 20
9.0
  9
$UNITMODE
 70
     0
  9
$VISRETAIN
 70
     0
  9
$PLINEGEN
 70
     0
  9
$PSLTSCALE
 70
     0
  0
ENDSEC
  0
SECTION
  2
TABLES
  0
TABLE
  2
VPORT
 70
     1
  0
VPORT
  2
*ACTIVE
 70
     0
 10
0.0
 20
0.0
 11
1.0
 21
1.0
 12
187.49427839065231
 22
177.52205812711131
 13
0.0
 23
0.0
 14
10.0
 24
10.0
 15
10.0
 25
10.0
 16
0.0
 26
0.0
 36
1.0
 17
0.0
 27
0.0
 37
0.0
 40
364.13085016302909
 41
1.755244755244755
 42
50.0
 43
0.0
 44
0.0
 50
0.0
 51
0.0
 71
    16
 72
   100
 73
     1
 74
     0
 75
     0
 76
     0
 77
     0
 78
     0
  0
ENDTAB
  0
TABLE
  2
LTYPE
 70
     3
  0
LTYPE
  2
CONTINUOUS
 70
     0
  3
Solid Line
 72
    65
 73
     0
 40
0.0
  0
LTYPE
  2
PHANTOM2
 70
     0
  3
___ _ _ ___ _ _ ___ _ _ ___ _ _
 72
    65
 73
     6
 40
1.25
 49
0.625
 49
-0.125
 49
0.125
 49
-0.125
 49
0.125
 49
-0.125
  0
LTYPE
  2
CENTER
 70
     0
  3
____ _ ____ _ ____ _ ____ _ ____ _ ____ _ ____
 72
    65
 73
     4
 40
2.0
 49
1.25
 49
-0.25
 49
0.25
 49
-0.25
  0
ENDTAB
  0
TABLE
  2
LAYER
 70
     3
  0
LAYER
  2
0
 70
     0
 62
     7
  6
CONTINUOUS
  0
LAYER
  2
1
 70
     0
 62
     1
  6
CENTER
  0
LAYER
  2
3
 70
     0
 62
     3
  6
CONTINUOUS
  0
ENDTAB
  0
TABLE
  2
STYLE
 70
     3
  0
STYLE
  2
STANDARD
 70
     0
 40
0.0
 41
1.0
 50
0.0
 71
     0
 42
0.2
  3
SIMPLEX
  4
BIGFONT
  0
STYLE
  2
ANNOTATIVE
 70
     0
 40
0.0
 41
1.0
 50
0.0
 71
     0
 42
0.2
  3
txt
  4

  0
STYLE
  2
STANDARD1
 70
     0
 40
0.0
 41
1.0
 50
0.0
 71
     0
 42
3.0
  3
txt
  4

  0
ENDTAB
  0
TABLE
  2
VIEW
 70
     0
  0
ENDTAB
  0
TABLE
  2
UCS
 70
     0
  0
ENDTAB
  0
TABLE
  2
APPID
 70
    29
  0
APPID
  2
ACAD
 70
     0
  0
APPID
  2
ACADANNOTATIVE
 70
     0
  0
APPID
  2
GENIUS_GENOREF_13
 70
     0
  0
APPID
  2
GENIUS_GENOENT_13
 70
     0
  0
APPID
  2
GENIUS_GENBH_13
 70
     0
  0
APPID
  2
GENIUS_GENOBJ_13
 70
     0
  0
APPID
  2
GENIUS_GENODEF_13
 70
     0
  0
APPID
  2
GENIUS_GENOLIS_13
 70
     0
  0
APPID
  2
GENIUS_GENOBJ-NBEHI-BHF_13
 70
     0
  0
APPID
  2
GENIUS_GENOBJ-NBEHI-BHB_13
 70
     0
  0
APPID
  2
GENIUS_GENOBJ-F-PART_13
 70
     0
  0
APPID
  2
GENIUS_GEFSTDP_13
 70
     0
  0
APPID
  2
GENIUS_GENOBJ-N-RSSYM_13
 70
     0
  0
APPID
  2
GENIUS_GENSYMENT_13
 70
     0
  0
APPID
  2
GENIUS_GENOBJ-N-TIT_13
 70
     0
  0
APPID
  2
GENIUS_GENTITLE_13
 70
     0
  0
APPID
  2
GENIUS_GENZVEED_13
 70
     0
  0
APPID
  2
GENIUS_GENOBJ-N-LEADER_13
 70
     0
  0
APPID
  2
GENIUS_GENOBJ-N-FIL_13
 70
     0
  0
APPID
  2
GENIUS_GENOBJ-N-SEC_13
 70
     0
  0
APPID
  2
GENIUS_GENOBJ-N-CRS_13
 70
     0
  0
APPID
  2
GENIUS_GENOBJ-N-ZOO_13
 70
     0
  0
APPID
  2
GENIUS_GENZOO_13
 70
     0
  0
APPID
  2
GENIUS_GENOBJ-F-TOL_13
 70
     0
  0
APPID
  2
GENIUS_GENFIL_13
 70
     0
  0
APPID
  2
GENIUS_GENOBJ-N-CHA_13
 70
     0
  0
APPID
  2
ACAD_MLEADERVER
 70
     0
  0
APPID
  2
ACAD_EXEMPT_FROM_CAD_STANDARDS
 70
     0
  0
APPID
  2
ACAD_NAV_VCDISPLAY
 70
     0
  0
ENDTAB
  0
TABLE
  2
DIMSTYLE
 70
     2
  0
DIMSTYLE
  2
STANDARD
 70
     0
  3

  4

  5

  6

  7

 40
1.0
 41
0.18
 42
0.0625
 43
0.38
 44
0.18
 45
0.0
 46
0.0
 47
0.0
 48
0.0
140
0.18
141
0.09
142
0.0
143
25.399999999999999
144
1.0
145
0.0
146
1.0
147
0.09
 71
     0
 72
     0
 73
     1
 74
     1
 75
     0
 76
     0
 77
     0
 78
     0
170
     0
171
     2
172
     0
173
     0
174
     0
175
     0
176
     0
177
     0
178
     0
  0
DIMSTYLE
  2
ANNOTATIVE
 70
     0
  3

  4

  5

  6

  7

 40
1.0
 41
0.18
 42
0.0625
 43
0.38
 44
0.18
 45
0.0
 46
0.0
 47
0.0
 48
0.0
140
0.18
141
0.09
142
0.0
143
25.399999999999999
144
1.0
145
0.0
146
1.0
147
0.09
 71
     0
 72
     0
 73
     1
 74
     1
 75
     0
 76
     0
 77
     0
 78
     0
170
     0
171
     2
172
     0
173
     0
174
     0
175
     0
176
     0
177
     0
178
     0
  0
ENDTAB
  0
ENDSEC
  0
SECTION
  2
BLOCKS
  0
BLOCK
  8
0
  2
$MODEL_SPACE
 70
     0
 10
0.0
 20
0.0
 30
0.0
  3
$MODEL_SPACE
  1

  0
ENDBLK
  5
FF9
  8
0
  0
BLOCK
 67
     1
  8
0
  2
$PAPER_SPACE
 70
     0
 10
0.0
 20
0.0
 30
0.0
  3
$PAPER_SPACE
  1

  0
ENDBLK
  5
FF5
 67
     1
  8
0
  0
ENDSEC
  0
SECTION
  2
ENTITIES
  0
LINE
  5
B59
  8
1
 10
95.147960445970284
 20
20.819609701295569
 30
0.0
 11
95.147960445970284
 21
121.8196097012956
 31
0.0
  0
LINE
  5
B5A
  8
1
 10
42.027710276789549
 20
121.8196097012956
 30
0.0
 11
42.027710276789549
 21
20.819609701295569
 31
0.0
  0
LINE
  5
B5B
  8
0
 10
83.14796044597027
 20
23.819609701295569
 30
0.0
 11
107.1479604459703
 21
23.819609701295569
 31
0.0
  0
LINE
  5
B5C
  8
0
 10
83.14796044597027
 20
23.819609701295661
 30
0.0
 11
83.14796044597027
 21
26.819609701295569
 31
0.0
  0
LINE
  5
B5D
  8
0
 10
107.1479604459703
 20
23.819609701295491
 30
0.0
 11
107.1479604459703
 21
26.819609701295569
 31
0.0
  0
LINE
  5
B5E
  8
0
 10
54.027710276789541
 20
23.819609701295491
 30
0.0
 11
54.027710276789442
 21
26.819609701295569
 31
0.0
  0
LINE
  5
B5F
  8
0
 10
30.027710276789549
 20
23.819609701295661
 30
0.0
 11
30.027710276789549
 21
26.819609701295569
 31
0.0
  0
LINE
  5
B60
  8
0
 10
30.027710276789549
 20
23.819609701295569
 30
0.0
 11
54.027710276789541
 21
23.819609701295569
 31
0.0
  0
LINE
  5
B66
  8
1
 10
57.527710276789541
 20
146.15495880472901
 30
0.0
 11
26.527710276789559
 21
146.15495880472901
 31
0.0
  0
LINE
  5
B67
  8
1
 10
42.027710276789549
 20
161.65495880472901
 30
0.0
 11
42.027710276789549
 21
130.65495880472901
 31
0.0
  0
CIRCLE
  5
B68
  8
0
 10
42.027710276789428
 20
146.15495880472901
 30
0.0
 40
8.5000000000000284
  0
CIRCLE
  5
B69
  8
0
 10
42.027710276789549
 20
146.15495880472901
 30
0.0
 40
4.0
  0
CIRCLE
  5
B6A
  8
3
 10
42.027710276789549
 20
146.15495880472901
 30
0.0
 40
3.3235000000000001
  0
CIRCLE
  5
B6B
  8
0
 10
42.027710276789549
 20
146.15495880472901
 30
0.0
 40
6.25
  0
LINE
  5
B6C
  8
0
 10
34.522156777324767
 20
146.15495880472901
 30
0.0
 11
38.274933527057101
 21
139.6549588047292
 31
0.0
  0
LINE
  5
B6D
  8
0
 10
38.274933527057101
 20
152.65495880472869
 30
0.0
 11
34.522156777324767
 21
146.15495880472901
 31
0.0
  0
LINE
  5
B6E
  8
0
 10
45.780487026521989
 20
152.65495880472869
 30
0.0
 11
38.274933527057101
 21
152.65495880472869
 31
0.0
  0
LINE
  5
B6F
  8
0
 10
49.533263776254437
 20
146.15495880472901
 30
0.0
 11
45.780487026521989
 21
152.65495880472869
 31
0.0
  0
LINE
  5
B70
  8
0
 10
45.780487026521989
 20
139.6549588047292
 30
0.0
 11
49.533263776254437
 21
146.15495880472901
 31
0.0
  0
LINE
  5
B71
  8
0
 10
38.274933527057101
 20
139.6549588047292
 30
0.0
 11
45.780487026521989
 21
139.6549588047292
 31
0.0
  0
CIRCLE
  5
B72
  8
0
 10
42.027710276789549
 20
146.15495880472901
 30
0.0
 40
12.5
  0
LINE
  5
B73
  8
0
 10
38.027710276789549
 20
70.319609701295519
 30
0.0
 11
38.027710276789549
 21
117.6196097012956
 31
0.0
  0
LINE
  5
B74
  8
3
 10
38.704210276789468
 20
70.319609701295519
 30
0.0
 11
38.704210276789468
 21
118.29610970129551
 31
0.0
  0
LINE
  5
B75
  8
3
 10
45.351210276789743
 20
70.319609701295519
 30
0.0
 11
45.351210276789743
 21
118.29610970129541
 31
0.0
  0
LINE
  5
B76
  8
0
 10
46.027710276789527
 20
70.319609701295519
 30
0.0
 11
46.027710276789527
 21
117.6196097012955
 31
0.0
  0
LINE
  5
B77
  8
0
 10
91.147960445970284
 20
70.319609701295548
 30
0.0
 11
91.147960445970284
 21
117.6196097012956
 31
0.0
  0
LINE
  5
B78
  8
3
 10
91.824460445970203
 20
70.319609701295519
 30
0.0
 11
91.824460445970203
 21
118.29610970129551
 31
0.0
  0
LINE
  5
B79
  8
0
 10
99.147960445970284
 20
70.319609701295519
 30
0.0
 11
99.147960445970284
 21
117.6196097012955
 31
0.0
  0
LINE
  5
B7A
  8
3
 10
98.471460445970493
 20
70.319609701295548
 30
0.0
 11
98.471460445970493
 21
118.29610970129541
 31
0.0
  0
LINE
  5
B7B
  8
0
 10
101.8787296767383
 20
45.819609701295683
 30
0.0
 11
88.417191215202593
 21
45.819609701295683
 31
0.0
  0
LINE
  5
B7C
  8
0
 10
88.417191215201086
 20
50.819609701295569
 30
0.0
 11
101.8787296767381
 21
50.819609701295569
 31
0.0
  0
ARC
  5
B7D
  8
0
 10
101.21013827246119
 20
47.086017396412899
 30
0.0
 40
3.5781518477924039
 50
64.384247467825787
 51
124.38424746803869
  0
LINE
  5
B7E
  8
0
 10
103.2308642146251
 20
50.038954461866041
 30
0.0
 11
101.8787296767383
 21
50.819609701295569
 31
0.0
  0
LINE
  5
B7F
  8
0
 10
103.2308642146251
 20
46.600264940725253
 30
0.0
 11
101.8787296767383
 21
45.819609701295683
 31
0.0
  0
ARC
  5
B80
  8
0
 10
101.21013827246119
 20
49.553202006178367
 30
0.0
 40
3.5781518477924039
 50
235.61575253196131
 51
295.61575253217421
  0
LINE
  5
B81
  8
0
 10
103.2308642146251
 20
50.038954461866062
 30
0.0
 11
103.2308642146251
 21
46.600264940725253
 31
0.0
  0
LINE
  5
B82
  8
0
 10
99.189412330295923
 20
50.038954461866581
 30
0.0
 11
99.189412330297714
 21
46.600264940726902
 31
0.0
  0
LINE
  5
B83
  8
0
 10
91.106508561644674
 20
50.038954461864861
 30
0.0
 11
91.106508561642841
 21
46.600264940726902
 31
0.0
  0
LINE
  5
B84
  8
0
 10
87.065056677315496
 20
50.038954461866041
 30
0.0
 11
87.065056677315496
 21
46.600264940725253
 31
0.0
  0
ARC
  5
B85
  8
0
 10
95.147960445971293
 20
59.349835376039707
 30
0.0
 40
13.374785217653811
 50
252.4120462259952
 51
287.58795377400378
  0
ARC
  5
B86
  8
0
 10
89.085782619479346
 20
49.553202006178367
 30
0.0
 40
3.5781518477924039
 50
244.38424746782579
 51
304.38424746803872
  0
LINE
  5
B87
  8
0
 10
87.065056677315496
 20
46.600264940725253
 30
0.0
 11
88.417191215202365
 21
45.819609701295683
 31
0.0
  0
LINE
  5
B88
  8
0
 10
87.065056677315496
 20
50.038954461866041
 30
0.0
 11
88.417191215202365
 21
50.819609701295569
 31
0.0
  0
ARC
  5
B89
  8
0
 10
95.147960445971293
 20
37.289384026551552
 30
0.0
 40
13.374785217653811
 50
72.412046225996136
 51
107.5879537740048
  0
ARC
  5
B8A
  8
0
 10
89.085782619479346
 20
47.086017396412899
 30
0.0
 40
3.5781518477924039
 50
55.615752531961242
 51
115.6157525321741
  0
LINE
  5
B8B
  8
0
 10
101.3979604459694
 20
63.819609701295519
 30
0.0
 11
88.897960445972089
 21
63.819609701295519
 31
0.0
  0
LINE
  5
B8C
  8
0
 10
88.897960445972089
 20
70.319609701295519
 30
0.0
 11
101.3979604459694
 21
70.319609701295519
 31
0.0
  0
LINE
  5
B8D
  8
0
 10
88.647960445970952
 20
70.175272133997453
 30
0.0
 11
88.897960445972089
 21
70.319609701295519
 31
0.0
  0
ARC
  5
B8E
  8
0
 10
91.897960445970952
 20
60.788119998748762
 30
0.0
 40
9.3871521352487513
 50
69.74384199958368
 51
110.25615800041631
  0
ARC
  5
B8F
  8
0
 10
91.897960445970952
 20
73.351099403842284
 30
0.0
 40
9.3871521352487513
 50
249.74384199958371
 51
290.25615800041629
  0
LINE
  5
B90
  8
0
 10
88.647960445970952
 20
63.9639472685936
 30
0.0
 11
88.897960445972089
 21
63.819609701295519
 31
0.0
  0
LINE
  5
B91
  8
0
 10
88.647960445970952
 20
70.175272133997453
 30
0.0
 11
88.647960445970952
 21
63.9639472685936
 31
0.0
  0
LINE
  5
B92
  8
0
 10
95.147960445970725
 20
69.594715550396302
 30
0.0
 11
95.147960445970725
 21
64.544503852194339
 31
0.0
  0
LINE
  5
B93
  8
0
 10
101.6479604459705
 20
70.175272133997453
 30
0.0
 11
101.6479604459705
 21
63.9639472685936
 31
0.0
  0
LINE
  5
B94
  8
0
 10
101.6479604459705
 20
63.9639472685936
 30
0.0
 11
101.3979604459694
 21
63.819609701295519
 31
0.0
  0
ARC
  5
B95
  8
0
 10
98.397960445970512
 20
73.351099403842284
 30
0.0
 40
9.3871521352487513
 50
249.74384199958371
 51
290.25615800041629
  0
ARC
  5
B96
  8
0
 10
98.397960445970512
 20
60.788119998748762
 30
0.0
 40
9.3871521352487513
 50
69.74384199958368
 51
110.25615800041631
  0
LINE
  5
B97
  8
0
 10
101.6479604459705
 20
70.175272133997453
 30
0.0
 11
101.3979604459694
 21
70.319609701295519
 31
0.0
  0
LINE
  5
B98
  8
0
 10
83.14796044597027
 20
26.819609701295569
 30
0.0
 11
107.1479604459703
 21
26.819609701295569
 31
0.0
  0
LINE
  5
B99
  8
0
 10
82.647960445970256
 20
27.319609701295569
 30
0.0
 11
82.647960445970256
 21
30.81960970129558
 31
0.0
  0
LINE
  5
B9A
  8
0
 10
107.6479604459703
 20
27.319609701295569
 30
0.0
 11
107.6479604459703
 21
30.819609701295551
 31
0.0
  0
LINE
  5
B9B
  8
0
 10
83.14796044597027
 20
26.819609701295569
 30
0.0
 11
82.647960445970256
 21
27.319609701295569
 31
0.0
  0
LINE
  5
B9C
  8
0
 10
107.6479604459703
 20
27.319609701295569
 30
0.0
 11
107.1479604459703
 21
26.819609701295569
 31
0.0
  0
LINE
  5
B9D
  8
0
 10
86.64796044597027
 20
38.819609701295583
 30
0.0
 11
103.6479604459703
 21
38.819609701295583
 31
0.0
  0
LINE
  5
B9E
  8
0
 10
82.647960445970256
 20
30.81960970129558
 30
0.0
 11
107.6479604459703
 21
30.81960970129558
 31
0.0
  0
LINE
  5
B9F
  8
0
 10
107.6479604459703
 20
30.81960970129558
 30
0.0
 11
105.1479604459703
 21
33.319609701295583
 31
0.0
  0
LINE
  5
BA0
  8
0
 10
103.6479604459703
 20
38.819609701295583
 30
0.0
 11
105.1479604459703
 21
33.319609701295583
 31
0.0
  0
LINE
  5
BA1
  8
0
 10
82.647960445970256
 20
30.81960970129558
 30
0.0
 11
85.147960445970256
 21
33.319609701295583
 31
0.0
  0
LINE
  5
BA2
  8
0
 10
86.64796044597027
 20
38.819609701295583
 30
0.0
 11
85.147960445970256
 21
33.319609701295583
 31
0.0
  0
LINE
  5
BA3
  8
0
 10
105.1479604459703
 20
33.319609701295583
 30
0.0
 11
85.147960445970256
 21
33.319609701295583
 31
0.0
  0
LINE
  5
BA4
  8
3
 10
98.471460445970365
 20
52.81960970129564
 30
0.0
 11
99.147960445970284
 21
51.647877329975522
 31
0.0
  0
LINE
  5
BA5
  8
3
 10
91.824460445970203
 20
52.81960970129564
 30
0.0
 11
91.147960445970284
 21
51.647877329975522
 31
0.0
  0
LINE
  5
BA6
  8
0
 10
91.147960445970284
 20
52.81960970129564
 30
0.0
 11
99.147960445970284
 21
52.819609701295562
 31
0.0
  0
LINE
  5
BA7
  8
0
 10
91.147960445970284
 20
117.6196097012956
 30
0.0
 11
99.147960445970284
 21
117.6196097012955
 31
0.0
  0
LINE
  5
BA8
  8
0
 10
97.947960445970367
 20
118.81960970129551
 30
0.0
 11
99.147960445970284
 21
117.6196097012955
 31
0.0
  0
LINE
  5
BA9
  8
0
 10
91.147960445970284
 20
117.6196097012956
 30
0.0
 11
92.347960445970315
 21
118.8196097012956
 31
0.0
  0
LINE
  5
BAA
  8
0
 10
91.147960445970284
 20
50.819609701295569
 30
0.0
 11
91.147960445970284
 21
63.819609701295519
 31
0.0
  0
LINE
  5
BAB
  8
3
 10
91.824460445970203
 20
52.81960970129564
 30
0.0
 11
91.824460445970203
 21
63.819609701295519
 31
0.0
  0
LINE
  5
BAC
  8
3
 10
98.471460445970493
 20
52.819609701295562
 30
0.0
 11
98.471460445970493
 21
63.819609701295519
 31
0.0
  0
LINE
  5
BAD
  8
0
 10
99.147960445970284
 20
50.819609701295569
 30
0.0
 11
99.147960445970284
 21
63.819609701295519
 31
0.0
  0
LINE
  5
BAE
  8
0
 10
92.347960445970315
 20
118.8196097012956
 30
0.0
 11
97.947960445970367
 21
118.81960970129551
 31
0.0
  0
LINE
  5
BAF
  8
0
 10
100.6479604459704
 20
41.819609701295583
 30
0.0
 11
89.647960445970398
 21
41.819609701295583
 31
0.0
  0
LINE
  5
BB0
  8
0
 10
89.647960445970398
 20
41.819609701295583
 30
0.0
 11
89.647960445970284
 21
45.819609701295683
 31
0.0
  0
LINE
  5
BB1
  8
0
 10
100.6479604459704
 20
41.819609701295583
 30
0.0
 11
100.6479604459703
 21
45.819609701295683
 31
0.0
  0
ARC
  5
BB2
  8
0
 10
95.147960445970384
 20
37.489482682373371
 30
0.0
 40
7.0
 50
141.7867892982616
 51
169.04615684538459
  0
ARC
  5
BB3
  8
0
 10
95.147960445970384
 20
37.489482682373371
 30
0.0
 40
7.0
 50
10.953843154615351
 51
38.213210701738497
  0
LINE
  5
BB4
  8
0
 10
48.277710276789321
 20
63.819609701295519
 30
0.0
 11
35.777710276792277
 21
63.819609701295519
 31
0.0
  0
LINE
  5
BB5
  8
0
 10
35.777710276790913
 20
70.319609701295519
 30
0.0
 11
48.277710276789101
 21
70.319609701295519
 31
0.0
  0
ARC
  5
BB6
  8
0
 10
47.656875401389243
 20
66.852702561047465
 30
0.0
 40
3.3225695729499729
 50
64.384247467825773
 51
124.38424746803869
  0
LINE
  5
BB7
  8
0
 10
49.533263776255581
 20
69.594715550396685
 30
0.0
 11
48.277710276789321
 21
70.319609701295519
 31
0.0
  0
LINE
  5
BB8
  8
0
 10
49.533263776255581
 20
64.544503852194339
 30
0.0
 11
48.277710276789321
 21
63.819609701295519
 31
0.0
  0
ARC
  5
BB9
  8
0
 10
47.656875401389243
 20
67.286516841543573
 30
0.0
 40
3.3225695729499729
 50
235.61575253196139
 51
295.6157525321741
  0
LINE
  5
BBA
  8
0
 10
49.533263776255581
 20
69.594715550396685
 30
0.0
 11
49.533263776255581
 21
64.544503852194339
 31
0.0
  0
LINE
  5
BBB
  8
0
 10
45.7804870265213
 20
69.594715550396685
 30
0.0
 11
45.780487026523133
 21
64.544503852195874
 31
0.0
  0
LINE
  5
BBC
  8
0
 10
38.274933527060057
 20
69.594715550396685
 30
0.0
 11
38.274933527058252
 21
64.544503852195874
 31
0.0
  0
LINE
  5
BBD
  8
0
 10
34.52215677732579
 20
69.594715550396685
 30
0.0
 11
34.52215677732579
 21
64.544503852194339
 31
0.0
  0
ARC
  5
BBE
  8
0
 10
42.027710276791588
 20
76.383390684985969
 30
0.0
 40
12.41944341639239
 50
252.41204622599511
 51
287.58795377400378
  0
ARC
  5
BBF
  8
0
 10
36.398545152192142
 20
67.286516841543573
 30
0.0
 40
3.3225695729499729
 50
244.38424746782579
 51
304.38424746803861
  0
LINE
  5
BC0
  8
0
 10
34.52215677732579
 20
64.544503852194339
 30
0.0
 11
35.777710276792043
 21
63.819609701295519
 31
0.0
  0
LINE
  5
BC1
  8
0
 10
34.52215677732579
 20
69.594715550396685
 30
0.0
 11
35.777710276792043
 21
70.319609701295519
 31
0.0
  0
ARC
  5
BC2
  8
0
 10
42.027710276791588
 20
57.755828717605077
 30
0.0
 40
12.41944341639239
 50
72.412046225996122
 51
107.5879537740048
  0
ARC
  5
BC3
  8
0
 10
36.398545152192142
 20
66.852702561047465
 30
0.0
 40
3.3225695729499729
 50
55.615752531961263
 51
115.6157525321742
  0
ARC
  5
BC4
  8
0
 10
42.027710276789662
 20
37.489482682373371
 30
0.0
 40
7.0
 50
10.953843154615351
 51
38.213210701738468
  0
ARC
  5
BC5
  8
0
 10
42.027710276789662
 20
37.489482682373371
 30
0.0
 40
7.0
 50
141.7867892982616
 51
169.04615684538459
  0
LINE
  5
BC6
  8
0
 10
47.527710276789648
 20
41.819609701295583
 30
0.0
 11
47.527710276789648
 21
45.819609701295583
 31
0.0
  0
LINE
  5
BC7
  8
0
 10
36.527710276789662
 20
41.819609701295583
 30
0.0
 11
36.527710276789719
 21
45.819609701295583
 31
0.0
  0
LINE
  5
BC8
  8
0
 10
47.527710276789648
 20
41.819609701295583
 30
0.0
 11
36.527710276789662
 21
41.819609701295583
 31
0.0
  0
LINE
  5
BC9
  8
0
 10
39.227710276789601
 20
118.8196097012956
 30
0.0
 11
44.827710276789603
 21
118.81960970129551
 31
0.0
  0
LINE
  5
BCA
  8
0
 10
46.027710276789527
 20
50.819609701295569
 30
0.0
 11
46.027710276789527
 21
63.819609701295519
 31
0.0
  0
LINE
  5
BCB
  8
3
 10
45.351210276789743
 20
52.819609701295562
 30
0.0
 11
45.351210276789743
 21
63.819609701295541
 31
0.0
  0
LINE
  5
BCC
  8
3
 10
38.704210276789411
 20
52.81960970129564
 30
0.0
 11
38.704210276789468
 21
63.819609701295519
 31
0.0
  0
LINE
  5
BCD
  8
0
 10
38.027710276789549
 20
50.819609701295569
 30
0.0
 11
38.027710276789549
 21
63.819609701295519
 31
0.0
  0
LINE
  5
BCE
  8
0
 10
38.027710276789549
 20
117.6196097012956
 30
0.0
 11
39.227710276789601
 21
118.8196097012956
 31
0.0
  0
LINE
  5
BCF
  8
0
 10
44.827710276789603
 20
118.81960970129551
 30
0.0
 11
46.027710276789527
 21
117.6196097012955
 31
0.0
  0
LINE
  5
BD0
  8
0
 10
38.027710276789549
 20
117.6196097012956
 30
0.0
 11
46.027710276789527
 21
117.6196097012955
 31
0.0
  0
LINE
  5
BD1
  8
0
 10
38.027710276789549
 20
52.81960970129564
 30
0.0
 11
46.027710276789527
 21
52.819609701295562
 31
0.0
  0
LINE
  5
BD2
  8
3
 10
38.704210276789468
 20
52.81960970129564
 30
0.0
 11
38.027710276789549
 21
51.647877329975522
 31
0.0
  0
LINE
  5
BD3
  8
3
 10
45.351210276789743
 20
52.81960970129564
 30
0.0
 11
46.027710276789527
 21
51.647877329975522
 31
0.0
  0
LINE
  5
BD4
  8
0
 10
42.027710276789549
 20
50.038954461866119
 30
0.0
 11
42.027710276789549
 21
46.600264940724998
 31
0.0
  0
LINE
  5
BD5
  8
0
 10
35.027710276789549
 20
50.664169244205311
 30
0.0
 11
35.027710276789549
 21
45.97505015838577
 31
0.0
  0
LINE
  5
BD6
  8
0
 10
49.027710276789541
 20
50.664169244205311
 30
0.0
 11
49.027710276789541
 21
45.97505015838577
 31
0.0
  0
LINE
  5
BD7
  8
0
 10
48.758479507557581
 20
50.819609701295569
 30
0.0
 11
35.296941046021637
 21
50.819609701295569
 31
0.0
  0
ARC
  5
BD8
  8
0
 10
38.527710276789662
 20
40.55492848316792
 30
0.0
 40
10.10924076103746
 50
69.743841999583665
 51
110.25615800041631
  0
LINE
  5
BD9
  8
0
 10
35.027710276789549
 20
50.664169244205311
 30
0.0
 11
35.296941046021637
 21
50.819609701295569
 31
0.0
  0
LINE
  5
BDA
  8
0
 10
49.027710276789541
 20
50.664169244205311
 30
0.0
 11
48.758479507557581
 21
50.819609701295569
 31
0.0
  0
ARC
  5
BDB
  8
0
 10
45.527710276789421
 20
40.55492848316792
 30
0.0
 40
10.10924076103746
 50
69.743841999583665
 51
110.25615800041631
  0
LINE
  5
BDC
  8
0
 10
48.758479507557581
 20
45.819609701295583
 30
0.0
 11
35.296941046021637
 21
45.819609701295583
 31
0.0
  0
ARC
  5
BDD
  8
0
 10
38.527710276789662
 20
56.084290919423211
 30
0.0
 40
10.10924076103746
 50
249.74384199958371
 51
290.25615800041629
  0
LINE
  5
BDE
  8
0
 10
35.027710276789549
 20
45.97505015838577
 30
0.0
 11
35.296941046021637
 21
45.819609701295583
 31
0.0
  0
LINE
  5
BDF
  8
0
 10
49.027710276789541
 20
45.97505015838577
 30
0.0
 11
48.758479507557581
 21
45.819609701295583
 31
0.0
  0
ARC
  5
BE0
  8
0
 10
45.527710276789421
 20
56.084290919423211
 30
0.0
 40
10.10924076103746
 50
249.74384199958371
 51
290.25615800041629
  0
LINE
  5
BE1
  8
0
 10
52.027710276789541
 20
33.319609701295583
 30
0.0
 11
32.027710276789549
 21
33.319609701295583
 31
0.0
  0
LINE
  5
BE2
  8
0
 10
33.527710276789549
 20
38.819609701295583
 30
0.0
 11
32.027710276789549
 21
33.319609701295583
 31
0.0
  0
LINE
  5
BE3
  8
0
 10
29.527710276789549
 20
30.81960970129558
 30
0.0
 11
32.027710276789549
 21
33.319609701295583
 31
0.0
  0
LINE
  5
BE4
  8
0
 10
50.527710276789541
 20
38.819609701295583
 30
0.0
 11
52.027710276789541
 21
33.319609701295583
 31
0.0
  0
LINE
  5
BE5
  8
0
 10
54.527710276789541
 20
30.81960970129558
 30
0.0
 11
52.027710276789541
 21
33.319609701295583
 31
0.0
  0
LINE
  5
BE6
  8
0
 10
29.527710276789549
 20
30.81960970129558
 30
0.0
 11
54.527710276789541
 21
30.81960970129558
 31
0.0
  0
LINE
  5
BE7
  8
0
 10
33.527710276789549
 20
38.819609701295583
 30
0.0
 11
50.527710276789541
 21
38.819609701295583
 31
0.0
  0
LINE
  5
BE8
  8
0
 10
54.527710276789541
 20
27.319609701295569
 30
0.0
 11
54.027710276789541
 21
26.819609701295569
 31
0.0
  0
LINE
  5
BE9
  8
0
 10
30.027710276789549
 20
26.819609701295569
 30
0.0
 11
29.527710276789549
 21
27.319609701295569
 31
0.0
  0
LINE
  5
BEA
  8
0
 10
54.527710276789541
 20
27.319609701295569
 30
0.0
 11
54.527710276789541
 21
30.819609701295551
 31
0.0
  0
LINE
  5
BEB
  8
0
 10
29.527710276789549
 20
27.319609701295569
 30
0.0
 11
29.527710276789549
 21
30.81960970129558
 31
0.0
  0
LINE
  5
BEC
  8
0
 10
30.027710276789549
 20
26.819609701295569
 30
0.0
 11
54.027710276789541
 21
26.819609701295569
 31
0.0
  0
LINE
  5
DBB
  8
0
 10
35.027710276788881
 20
142.11350692040119
 30
0.0
 11
35.027710276788881
 21
145.2793144577129
 31
0.0
  0
LINE
  5
DBC
  8
0
 10
35.027710276788881
 20
147.03060315174511
 30
0.0
 11
35.027710276788881
 21
150.1964106890552
 31
0.0
  0
LINE
  5
DBD
  8
0
 10
49.027710276788874
 20
142.1135069204004
 30
0.0
 11
49.027710276788881
 21
145.27931445771051
 31
0.0
  0
LINE
  5
DBE
  8
0
 10
49.027710276788881
 20
147.03060315174741
 30
0.0
 11
49.027710276788874
 21
150.19641068905599
 31
0.0
  0
LINE
  5
DBF
  8
0
 10
42.027710276789527
 20
138.07205503607341
 30
0.0
 11
39.286040525985442
 21
139.6549588047292
 31
0.0
  0
LINE
  5
DC0
  8
0
 10
37.76938002759298
 20
140.5306031517454
 30
0.0
 11
35.027710276788881
 21
142.11350692040119
 31
0.0
  0
LINE
  5
DC1
  8
0
 10
49.027710276788874
 20
150.19641068905599
 30
0.0
 11
46.286040525987559
 21
151.77931445771009
 31
0.0
  0
LINE
  5
DC2
  8
0
 10
44.769380027590799
 20
152.65495880472869
 30
0.0
 11
42.027710276789549
 21
154.2378625733829
 31
0.0
  0
LINE
  5
DC3
  8
0
 10
42.027710276789527
 20
138.07205503607341
 30
0.0
 11
44.76938002759357
 21
139.6549588047292
 31
0.0
  0
LINE
  5
DC4
  8
0
 10
46.286040525986166
 20
140.53060315174551
 30
0.0
 11
49.027710276788874
 21
142.1135069204004
 31
0.0
  0
LINE
  5
DC5
  8
0
 10
35.027710276788881
 20
150.1964106890552
 30
0.0
 11
37.769380027591552
 21
151.77931445771009
 31
0.0
  0
LINE
  5
DC6
  8
0
 10
39.286040525988227
 20
152.65495880472869
 30
0.0
 11
42.027710276789549
 21
154.2378625733829
 31
0.0
  0
TEXT
  5
1079
  8
0
 62
     3
 10
0.0
 20
0.0
 30
0.0
 40
10.0
  1
LSAR25S8B-SUS
  7
STANDARD1
  0
ENDSEC
  0
EOF
