  0
SECTION
  2
HEADER
  9
$ACADVER
  1
AC1009
  9
$INSBASE
 10
0.0
 20
0.0
 30
0.0
  9
$EXTMIN
 10
0.0
 20
-2.960436562073669
 30
0.0
  9
$EXTMAX
 10
119.5839017735334
 20
171.89417098823719
 30
0.0
  9
$LIMMIN
 10
0.0
 20
0.0
  9
$LIMMAX
 10
375.0
 20
270.0
  9
$ORTHOMODE
 70
     1
  9
$REGENMODE
 70
     1
  9
$FILLMODE
 70
     1
  9
$QTEXTMODE
 70
     0
  9
$MIRRTEXT
 70
     0
  9
$DRAGMODE
 70
     2
  9
$LTSCALE
 40
6.0
  9
$OSMODE
 70
    37
  9
$ATTMODE
 70
     1
  9
$TEXTSIZE
 40
0.2
  9
$TRACEWID
 40
0.05
  9
$TEXTSTYLE
  7
STANDARD
  9
$CLAYER
  8
0
  9
$CELTYPE
  6
BYLAYER
  9
$CECOLOR
 62
   256
  9
$DIMSCALE
 40
1.0
  9
$DIMASZ
 40
3.0
  9
$DIMEXO
 40
1.0
  9
$DIMDLI
 40
6.0
  9
$DIMRND
 40
0.0
  9
$DIMDLE
 40
0.0
  9
$DIMEXE
 40
1.0
  9
$DIMTP
 40
495.0
  9
$DIMTM
 40
0.0
  9
$DIMTXT
 40
3.0
  9
$DIMCEN
 40
0.0
  9
$DIMTSZ
 40
0.0
  9
$DIMTOL
 70
     0
  9
$DIMLIM
 70
     0
  9
$DIMTIH
 70
     0
  9
$DIMTOH
 70
     0
  9
$DIMSE1
 70
     0
  9
$DIMSE2
 70
     0
  9
$DIMTAD
 70
     1
  9
$DIMZIN
 70
     0
  9
$DIMBLK
  1

  9
$DIMASO
 70
     0
  9
$DIMSHO
 70
     0
  9
$DIMPOST
  1

  9
$DIMAPOST
  1

  9
$DIMALT
 70
     0
  9
$DIMALTD
 70
     2
  9
$DIMALTF
 40
25.399999999999999
  9
$DIMLFAC
 40
1.0
  9
$DIMTOFL
 70
     1
  9
$DIMTVP
 40
0.0
  9
$DIMTIX
 70
     1
  9
$DIMSOXD
 70
     0
  9
$DIMSAH
 70
     0
  9
$DIMBLK1
  1

  9
$DIMBLK2
  1

  9
$DIMSTYLE
  2
STANDARD
  9
$DIMCLRD
 70
     0
  9
$DIMCLRE
 70
     0
  9
$DIMCLRT
 70
     4
  9
$DIMTFAC
 40
1.0
  9
$DIMGAP
 40
1.0
  9
$LUNITS
 70
     2
  9
$LUPREC
 70
     4
  9
$SKETCHINC
 40
0.1
  9
$FILLETRAD
 40
2.0
  9
$AUNITS
 70
     0
  9
$AUPREC
 70
     0
  9
$MENU
  1
C:\R13\WIN\SUPPORT\ACAD-I
  9
$ELEVATION
 40
0.0
  9
$PELEVATION
 40
0.0
  9
$THICKNESS
 40
0.0
  9
$LIMCHECK
 70
     0
  9
$BLIPMODE
 70
     0
  9
$CHAMFERA
 40
0.0
  9
$CHAMFERB
 40
0.0
  9
$SKPOLY
 70
     0
  9
$TDCREATE
 40
2451961.706041262
  9
$TDUPDATE
 40
2456598.7180238082
  9
$TDINDWG
 40
0.0473203935
  9
$TDUSRTIMER
 40
2456598.0157735422
  9
$USRTIMER
 70
     1
  9
$ANGBASE
 50
0.0
  9
$ANGDIR
 70
     0
  9
$PDMODE
 70
     0
  9
$PDSIZE
 40
0.0
  9
$PLINEWID
 40
0.0
  9
$COORDS
 70
     1
  9
$SPLFRAME
 70
     0
  9
$SPLINETYPE
 70
     6
  9
$SPLINESEGS
 70
     8
  9
$ATTDIA
 70
     0
  9
$ATTREQ
 70
     1
  9
$HANDLING
 70
     1
  9
$HANDSEED
  5
1727
  9
$SURFTAB1
 70
     6
  9
$SURFTAB2
 70
     6
  9
$SURFTYPE
 70
     6
  9
$SURFU
 70
     6
  9
$SURFV
 70
     6
  9
$UCSNAME
  2

  9
$UCSORG
 10
0.0
 20
0.0
 30
0.0
  9
$UCSXDIR
 10
1.0
 20
0.0
 30
0.0
  9
$UCSYDIR
 10
0.0
 20
1.0
 30
0.0
  9
$PUCSNAME
  2

  9
$PUCSORG
 10
0.0
 20
0.0
 30
0.0
  9
$PUCSXDIR
 10
1.0
 20
0.0
 30
0.0
  9
$PUCSYDIR
 10
0.0
 20
1.0
 30
0.0
  9
$USERI1
 70
     4
  9
$USERI2
 70
     1
  9
$USERI3
 70
     0
  9
$USERI4
 70
     0
  9
$USERI5
 70
     0
  9
$USERR1
 40
1.0
  9
$USERR2
 40
3.0
  9
$USERR3
 40
3.0
  9
$USERR4
 40
3.0
  9
$USERR5
 40
10.0
  9
$WORLDVIEW
 70
     1
  9
$SHADEDGE
 70
     3
  9
$SHADEDIF
 70
    70
  9
$TILEMODE
 70
     1
  9
$MAXACTVP
 70
    16
  9
$PLIMCHECK
 70
     0
  9
$PEXTMIN
 10
1.0000000000000000E+020
 20
1.0000000000000000E+020
 30
1.0000000000000000E+020
  9
$PEXTMAX
 10
-1.0000000000000000E+020
 20
-1.0000000000000000E+020
 30
-1.0000000000000000E+020
  9
$PLIMMIN
 10
0.0
 20
0.0
  9
$PLIMMAX
 10
12.0
 20
9.0
  9
$UNITMODE
 70
     0
  9
$VISRETAIN
 70
     0
  9
$PLINEGEN
 70
     0
  9
$PSLTSCALE
 70
     0
  0
ENDSEC
  0
SECTION
  2
TABLES
  0
TABLE
  2
VPORT
 70
     1
  0
VPORT
  2
*ACTIVE
 70
     0
 10
0.0
 20
0.0
 11
1.0
 21
1.0
 12
187.49427839065231
 22
177.52205812711131
 13
0.0
 23
0.0
 14
10.0
 24
10.0
 15
10.0
 25
10.0
 16
0.0
 26
0.0
 36
1.0
 17
0.0
 27
0.0
 37
0.0
 40
364.13085016302909
 41
1.755244755244755
 42
50.0
 43
0.0
 44
0.0
 50
0.0
 51
0.0
 71
    16
 72
   100
 73
     1
 74
     0
 75
     0
 76
     0
 77
     0
 78
     0
  0
ENDTAB
  0
TABLE
  2
LTYPE
 70
     3
  0
LTYPE
  2
CONTINUOUS
 70
     0
  3
Solid Line
 72
    65
 73
     0
 40
0.0
  0
LTYPE
  2
PHANTOM2
 70
     0
  3
___ _ _ ___ _ _ ___ _ _ ___ _ _
 72
    65
 73
     6
 40
1.25
 49
0.625
 49
-0.125
 49
0.125
 49
-0.125
 49
0.125
 49
-0.125
  0
LTYPE
  2
CENTER
 70
     0
  3
____ _ ____ _ ____ _ ____ _ ____ _ ____ _ ____
 72
    65
 73
     4
 40
2.0
 49
1.25
 49
-0.25
 49
0.25
 49
-0.25
  0
ENDTAB
  0
TABLE
  2
LAYER
 70
     3
  0
LAYER
  2
0
 70
     0
 62
     7
  6
CONTINUOUS
  0
LAYER
  2
1
 70
     0
 62
     1
  6
CENTER
  0
LAYER
  2
3
 70
     0
 62
     3
  6
CONTINUOUS
  0
ENDTAB
  0
TABLE
  2
STYLE
 70
     3
  0
STYLE
  2
STANDARD
 70
     0
 40
0.0
 41
1.0
 50
0.0
 71
     0
 42
0.2
  3
SIMPLEX
  4
BIGFONT
  0
STYLE
  2
ANNOTATIVE
 70
     0
 40
0.0
 41
1.0
 50
0.0
 71
     0
 42
0.2
  3
txt
  4

  0
STYLE
  2
STANDARD1
 70
     0
 40
0.0
 41
1.0
 50
0.0
 71
     0
 42
3.0
  3
txt
  4

  0
ENDTAB
  0
TABLE
  2
VIEW
 70
     0
  0
ENDTAB
  0
TABLE
  2
UCS
 70
     0
  0
ENDTAB
  0
TABLE
  2
APPID
 70
    29
  0
APPID
  2
ACAD
 70
     0
  0
APPID
  2
ACADANNOTATIVE
 70
     0
  0
APPID
  2
GENIUS_GENOREF_13
 70
     0
  0
APPID
  2
GENIUS_GENOENT_13
 70
     0
  0
APPID
  2
GENIUS_GENBH_13
 70
     0
  0
APPID
  2
GENIUS_GENOBJ_13
 70
     0
  0
APPID
  2
GENIUS_GENODEF_13
 70
     0
  0
APPID
  2
GENIUS_GENOLIS_13
 70
     0
  0
APPID
  2
GENIUS_GENOBJ-NBEHI-BHF_13
 70
     0
  0
APPID
  2
GENIUS_GENOBJ-NBEHI-BHB_13
 70
     0
  0
APPID
  2
GENIUS_GENOBJ-F-PART_13
 70
     0
  0
APPID
  2
GENIUS_GEFSTDP_13
 70
     0
  0
APPID
  2
GENIUS_GENOBJ-N-RSSYM_13
 70
     0
  0
APPID
  2
GENIUS_GENSYMENT_13
 70
     0
  0
APPID
  2
GENIUS_GENOBJ-N-TIT_13
 70
     0
  0
APPID
  2
GENIUS_GENTITLE_13
 70
     0
  0
APPID
  2
GENIUS_GENZVEED_13
 70
     0
  0
APPID
  2
GENIUS_GENOBJ-N-LEADER_13
 70
     0
  0
APPID
  2
GENIUS_GENOBJ-N-FIL_13
 70
     0
  0
APPID
  2
GENIUS_GENOBJ-N-SEC_13
 70
     0
  0
APPID
  2
GENIUS_GENOBJ-N-CRS_13
 70
     0
  0
APPID
  2
GENIUS_GENOBJ-N-ZOO_13
 70
     0
  0
APPID
  2
GENIUS_GENZOO_13
 70
     0
  0
APPID
  2
GENIUS_GENOBJ-F-TOL_13
 70
     0
  0
APPID
  2
GENIUS_GENFIL_13
 70
     0
  0
APPID
  2
GENIUS_GENOBJ-N-CHA_13
 70
     0
  0
APPID
  2
ACAD_MLEADERVER
 70
     0
  0
APPID
  2
ACAD_EXEMPT_FROM_CAD_STANDARDS
 70
     0
  0
APPID
  2
ACAD_NAV_VCDISPLAY
 70
     0
  0
ENDTAB
  0
TABLE
  2
DIMSTYLE
 70
     2
  0
DIMSTYLE
  2
STANDARD
 70
     0
  3

  4

  5

  6

  7

 40
1.0
 41
0.18
 42
0.0625
 43
0.38
 44
0.18
 45
0.0
 46
0.0
 47
0.0
 48
0.0
140
0.18
141
0.09
142
0.0
143
25.399999999999999
144
1.0
145
0.0
146
1.0
147
0.09
 71
     0
 72
     0
 73
     1
 74
     1
 75
     0
 76
     0
 77
     0
 78
     0
170
     0
171
     2
172
     0
173
     0
174
     0
175
     0
176
     0
177
     0
178
     0
  0
DIMSTYLE
  2
ANNOTATIVE
 70
     0
  3

  4

  5

  6

  7

 40
1.0
 41
0.18
 42
0.0625
 43
0.38
 44
0.18
 45
0.0
 46
0.0
 47
0.0
 48
0.0
140
0.18
141
0.09
142
0.0
143
25.399999999999999
144
1.0
145
0.0
146
1.0
147
0.09
 71
     0
 72
     0
 73
     1
 74
     1
 75
     0
 76
     0
 77
     0
 78
     0
170
     0
171
     2
172
     0
173
     0
174
     0
175
     0
176
     0
177
     0
178
     0
  0
ENDTAB
  0
ENDSEC
  0
SECTION
  2
BLOCKS
  0
BLOCK
  8
0
  2
$MODEL_SPACE
 70
     0
 10
0.0
 20
0.0
 30
0.0
  3
$MODEL_SPACE
  1

  0
ENDBLK
  5
15EE
  8
0
  0
BLOCK
 67
     1
  8
0
  2
$PAPER_SPACE
 70
     0
 10
0.0
 20
0.0
 30
0.0
  3
$PAPER_SPACE
  1

  0
ENDBLK
  5
15EA
 67
     1
  8
0
  0
ENDSEC
  0
SECTION
  2
ENTITIES
  0
CIRCLE
  5
FBA
  8
0
 10
28.03641939034981
 20
152.89417098823719
 30
0.0
 40
10.999999999999901
  0
CIRCLE
  5
FBB
  8
0
 10
28.03641939034981
 20
152.89417098823719
 30
0.0
 40
11.82217284568185
  0
CIRCLE
  5
FBC
  8
0
 10
28.03641939034981
 20
152.89417098823719
 30
0.0
 40
15.99999999999994
  0
LINE
  5
FBD
  8
1
 10
28.03641939034981
 20
171.89417098823719
 30
0.0
 11
28.03641939034981
 21
133.89417098823731
 31
0.0
  0
LINE
  5
FBE
  8
1
 10
47.036419390349792
 20
152.89417098823719
 30
0.0
 11
9.0364193903499181
 21
152.89417098823719
 31
0.0
  0
CIRCLE
  5
FBF
  8
0
 10
28.03641939034981
 20
152.89417098823719
 30
0.0
 40
5.0
  0
CIRCLE
  5
FC0
  8
3
 10
28.03641939034981
 20
152.89417098823719
 30
0.0
 40
4.1879999999999979
  0
LINE
  5
FC1
  8
0
 10
23.128942102237929
 20
144.39417098823731
 30
0.0
 11
32.94389667846167
 21
144.39417098823719
 31
0.0
  0
LINE
  5
FC2
  8
0
 10
32.94389667846167
 20
144.39417098823719
 30
0.0
 11
37.851373966573412
 21
152.89417098823731
 31
0.0
  0
LINE
  5
FC3
  8
0
 10
37.851373966573412
 20
152.89417098823731
 30
0.0
 11
32.94389667846167
 21
161.39417098823719
 31
0.0
  0
LINE
  5
FC4
  8
0
 10
32.94389667846167
 20
161.39417098823719
 30
0.0
 11
23.12894210223806
 21
161.39417098823719
 31
0.0
  0
LINE
  5
FC5
  8
0
 10
23.12894210223806
 20
161.39417098823719
 30
0.0
 11
18.22146481412625
 21
152.89417098823719
 31
0.0
  0
LINE
  5
FC6
  8
0
 10
18.22146481412625
 20
152.89417098823719
 30
0.0
 11
23.128942102237929
 21
144.39417098823731
 31
0.0
  0
CIRCLE
  5
FC7
  8
0
 10
28.03641939034981
 20
152.89417098823719
 30
0.0
 40
8.25
  0
LINE
  5
FC8
  8
1
 10
81.156669559530428
 20
20.376145104060232
 30
0.0
 11
81.156669559530542
 21
123.3761451040602
 31
0.0
  0
LINE
  5
FC9
  8
1
 10
28.03641939034981
 20
20.607844616222149
 30
0.0
 11
28.036419390349931
 21
123.6078446162221
 31
0.0
  0
ARC
  5
1009
  8
0
 10
20.67520345818275
 20
68.118608376600591
 30
0.0
 40
4.3448986723233833
 50
55.615752531995213
 51
115.6157525321086
  0
ARC
  5
100A
  8
0
 10
28.03641939034998
 20
56.222696427457358
 30
0.0
 40
16.24081062146659
 50
72.412046226026831
 51
107.5879537739724
  0
LINE
  5
100B
  8
0
 10
18.221464814126922
 20
71.704317670369988
 30
0.0
 11
19.786419390350488
 21
72.607844616222209
 31
0.0
  0
LINE
  5
100C
  8
0
 10
18.221464814126922
 20
65.511371562074061
 30
0.0
 11
19.786419390350488
 21
64.607844616221854
 31
0.0
  0
ARC
  5
100D
  8
0
 10
20.67520345818275
 20
69.097080855843473
 30
0.0
 40
4.3448986723233833
 50
244.3842474678913
 51
304.38424746800479
  0
ARC
  5
100E
  8
0
 10
28.03641939034998
 20
80.992992804986685
 30
0.0
 40
16.24081062146659
 50
252.41204622602669
 51
287.5879537739724
  0
LINE
  5
100F
  8
0
 10
18.221464814126922
 20
71.704317670369932
 30
0.0
 11
18.221464814126922
 21
65.511371562074146
 31
0.0
  0
LINE
  5
1010
  8
0
 10
23.128942102237659
 20
71.704317670369988
 30
0.0
 11
23.128942102238291
 21
65.51137156207389
 31
0.0
  0
LINE
  5
1011
  8
0
 10
32.943896678463389
 20
71.704317670369988
 30
0.0
 11
32.9438966784627
 21
65.51137156207389
 31
0.0
  0
LINE
  5
1012
  8
0
 10
37.851373966574101
 20
71.704317670369932
 30
0.0
 11
37.851373966574101
 21
65.511371562074146
 31
0.0
  0
ARC
  5
1013
  8
0
 10
35.397635322518227
 20
69.097080855843473
 30
0.0
 40
4.3448986723233833
 50
235.6157525319951
 51
295.61575253210867
  0
LINE
  5
1014
  8
0
 10
37.851373966574101
 20
65.511371562074061
 30
0.0
 11
36.286419390350503
 21
64.607844616221854
 31
0.0
  0
LINE
  5
1015
  8
0
 10
37.851373966574101
 20
71.704317670369988
 30
0.0
 11
36.286419390350503
 21
72.607844616222209
 31
0.0
  0
ARC
  5
1016
  8
0
 10
35.397635322518227
 20
68.118608376600591
 30
0.0
 40
4.3448986723233833
 50
64.384247467891285
 51
124.3842474680048
  0
LINE
  5
1017
  8
0
 10
19.786419390350488
 20
72.607844616222209
 30
0.0
 11
36.286419390350829
 21
72.607844616221982
 31
0.0
  0
LINE
  5
1018
  8
0
 10
36.286419390350829
 20
64.607844616222096
 30
0.0
 11
19.78641939035014
 21
64.607844616222096
 31
0.0
  0
LINE
  5
1019
  8
0
 10
24.53641939034998
 20
120.6078446162222
 30
0.0
 11
31.53641939034998
 21
120.6078446162221
 31
0.0
  0
LINE
  5
101A
  8
0
 10
33.03641939034992
 20
52.607844616221989
 30
0.0
 11
33.03641939034992
 21
64.607844616222096
 31
0.0
  0
LINE
  5
101B
  8
3
 10
32.224419390350022
 20
54.607844616222259
 30
0.0
 11
32.224419390350022
 21
64.607844616222096
 31
0.0
  0
LINE
  5
101C
  8
3
 10
23.848419390349878
 20
54.60784461622238
 30
0.0
 11
23.848419390349878
 21
64.607844616222096
 31
0.0
  0
LINE
  5
101D
  8
0
 10
23.03641939034992
 20
52.607844616222032
 30
0.0
 11
23.03641939034998
 21
64.607844616222096
 31
0.0
  0
LINE
  5
101E
  8
0
 10
23.03641939034998
 20
119.1078446162222
 30
0.0
 11
24.53641939034998
 21
120.6078446162222
 31
0.0
  0
LINE
  5
101F
  8
0
 10
31.53641939034998
 20
120.6078446162221
 30
0.0
 11
33.03641939034992
 21
119.1078446162221
 31
0.0
  0
LINE
  5
1020
  8
0
 10
23.03641939034992
 20
54.60784461622238
 30
0.0
 11
33.03641939034992
 21
54.607844616222259
 31
0.0
  0
LINE
  5
1021
  8
3
 10
23.848419390349822
 20
54.60784461622238
 30
0.0
 11
23.03641939034992
 21
53.201419360476542
 31
0.0
  0
LINE
  5
1022
  8
3
 10
32.224419390350022
 20
54.60784461622238
 30
0.0
 11
33.03641939034992
 21
53.201419360476542
 31
0.0
  0
LINE
  5
1023
  8
0
 10
23.03641939034992
 20
119.1078446162222
 30
0.0
 11
33.03641939034992
 21
119.1078446162221
 31
0.0
  0
LINE
  5
1024
  8
3
 10
32.224419390350022
 20
72.607844616222039
 30
0.0
 11
32.224419390350022
 21
119.91984461622199
 31
0.0
  0
LINE
  5
1025
  8
0
 10
33.03641939034992
 20
72.607844616222039
 30
0.0
 11
33.03641939034992
 21
119.1078446162221
 31
0.0
  0
LINE
  5
1026
  8
3
 10
23.848419390349878
 20
72.607844616222152
 30
0.0
 11
23.848419390349878
 21
119.91984461622199
 31
0.0
  0
LINE
  5
1027
  8
0
 10
23.03641939034998
 20
72.607844616222152
 30
0.0
 11
23.03641939034998
 21
119.1078446162222
 31
0.0
  0
LINE
  5
1028
  8
3
 10
76.96866955953044
 20
72.607844616221982
 30
0.0
 11
76.96866955953044
 21
119.91984461622199
 31
0.0
  0
LINE
  5
1029
  8
0
 10
76.156669559530542
 20
72.607844616221982
 30
0.0
 11
76.156669559530542
 21
119.1078446162222
 31
0.0
  0
LINE
  5
102A
  8
0
 10
86.156669559530542
 20
72.607844616221982
 30
0.0
 11
86.156669559530542
 21
119.1078446162221
 31
0.0
  0
LINE
  5
102B
  8
3
 10
85.344669559530757
 20
72.607844616221982
 30
0.0
 11
85.344669559530644
 21
119.91984461622199
 31
0.0
  0
LINE
  5
102C
  8
0
 10
86.156669559530542
 20
52.839544128383508
 30
0.0
 11
86.156669559530542
 21
64.839544128384034
 31
0.0
  0
LINE
  5
102D
  8
0
 10
76.156669559530542
 20
52.839544128383508
 30
0.0
 11
76.156669559530542
 21
64.839544128384034
 31
0.0
  0
LINE
  5
102E
  8
0
 10
77.656669559530542
 20
120.6078446162222
 30
0.0
 11
84.656669559530542
 21
120.6078446162221
 31
0.0
  0
LINE
  5
102F
  8
3
 10
85.344669559530757
 20
54.607844616221577
 30
0.0
 11
85.344669559530757
 21
64.607844616222096
 31
0.0
  0
LINE
  5
1030
  8
3
 10
76.96866955953044
 20
54.607844616221698
 30
0.0
 11
76.968669559530539
 21
64.607844616222096
 31
0.0
  0
LINE
  5
1031
  8
0
 10
76.156669559530542
 20
119.1078446162222
 30
0.0
 11
77.656669559530542
 21
120.6078446162222
 31
0.0
  0
LINE
  5
1032
  8
0
 10
84.656669559530542
 20
120.6078446162221
 30
0.0
 11
86.156669559530542
 21
119.1078446162221
 31
0.0
  0
LINE
  5
1033
  8
0
 10
76.156669559530542
 20
54.607844616221747
 30
0.0
 11
86.156669559530542
 21
54.607844616221627
 31
0.0
  0
LINE
  5
1034
  8
3
 10
76.96866955953044
 20
54.607844616221747
 30
0.0
 11
76.156669559530414
 21
53.201419360475981
 31
0.0
  0
LINE
  5
1035
  8
3
 10
85.34466955953053
 20
54.607844616221747
 30
0.0
 11
86.156669559530428
 21
53.201419360475981
 31
0.0
  0
LINE
  5
1036
  8
0
 10
76.156669559530542
 20
119.1078446162222
 30
0.0
 11
86.156669559530542
 21
119.1078446162221
 31
0.0
  0
LINE
  5
1037
  8
0
 10
72.906669559530542
 20
64.607844616222096
 30
0.0
 11
89.406669559530528
 21
64.607844616222096
 31
0.0
  0
LINE
  5
1038
  8
0
 10
89.406669559529519
 20
72.607844616221982
 30
0.0
 11
72.906669559531551
 21
72.607844616221982
 31
0.0
  0
ARC
  5
1039
  8
0
 10
76.906669559530542
 20
60.188000410507449
 30
0.0
 40
12.275506638416489
 50
69.743841999604228
 51
110.2561580003957
  0
LINE
  5
103A
  8
0
 10
72.656669559530542
 20
72.463507048923972
 30
0.0
 11
72.906669559531551
 21
72.607844616221982
 31
0.0
  0
ARC
  5
103B
  8
0
 10
76.906669559530542
 20
77.027688821935939
 30
0.0
 40
12.275506638416489
 50
249.74384199960431
 51
290.25615800039583
  0
LINE
  5
103C
  8
0
 10
72.656669559530542
 20
64.752182183519466
 30
0.0
 11
72.906669559531551
 21
64.607844616221456
 31
0.0
  0
LINE
  5
103D
  8
0
 10
72.656669559530542
 20
72.463507048923972
 30
0.0
 11
72.656669559530542
 21
64.752182183519466
 31
0.0
  0
LINE
  5
103E
  8
0
 10
81.156669559530542
 20
71.704317670369605
 30
0.0
 11
81.156669559530542
 21
65.511371562073563
 31
0.0
  0
LINE
  5
103F
  8
0
 10
89.656669559530656
 20
72.463507048923972
 30
0.0
 11
89.656669559530542
 21
64.752182183519466
 31
0.0
  0
ARC
  5
1040
  8
0
 10
85.406669559530556
 20
77.027688821935939
 30
0.0
 40
12.275506638416489
 50
249.74384199960431
 51
290.25615800039583
  0
LINE
  5
1041
  8
0
 10
89.656669559530656
 20
64.752182183519466
 30
0.0
 11
89.406669559529519
 21
64.607844616221456
 31
0.0
  0
LINE
  5
1042
  8
0
 10
89.656669559530656
 20
72.463507048923972
 30
0.0
 11
89.406669559529519
 21
72.607844616221982
 31
0.0
  0
ARC
  5
1043
  8
0
 10
85.406669559530556
 20
60.188000410507449
 30
0.0
 40
12.275506638416489
 50
69.743841999604228
 51
110.2561580003957
  0
LINE
  5
124E
  8
0
 10
39.858592236031669
 20
37.60784461622228
 30
0.0
 11
39.036419390349756
 21
42.60784461622228
 31
0.0
  0
LINE
  5
124F
  8
0
 10
44.036419390349749
 20
32.60784461622228
 30
0.0
 11
39.858592236031669
 21
37.60784461622228
 31
0.0
  0
LINE
  5
1250
  8
0
 10
43.536419390349742
 20
27.60784461622228
 30
0.0
 11
44.036419390349749
 21
28.10784461622228
 31
0.0
  0
LINE
  5
1251
  8
0
 10
12.036419390349749
 20
28.10784461622228
 30
0.0
 11
12.53641939034976
 21
27.60784461622228
 31
0.0
  0
LINE
  5
1252
  8
0
 10
43.536419390349742
 20
24.60784461622228
 30
0.0
 11
43.536419390349742
 21
27.60784461622228
 31
0.0
  0
LINE
  5
1253
  8
0
 10
12.53641939034976
 20
27.60784461622228
 30
0.0
 11
12.53641939034976
 21
24.60784461622228
 31
0.0
  0
LINE
  5
1254
  8
0
 10
39.036419390349756
 20
42.60784461622228
 30
0.0
 11
17.03641939034976
 21
42.60784461622228
 31
0.0
  0
LINE
  5
1255
  8
0
 10
44.036419390349749
 20
32.60784461622228
 30
0.0
 11
12.036419390349749
 21
32.60784461622228
 31
0.0
  0
LINE
  5
1256
  8
0
 10
43.536419390349742
 20
27.60784461622228
 30
0.0
 11
12.53641939034976
 21
27.60784461622228
 31
0.0
  0
LINE
  5
1257
  8
0
 10
43.536419390349742
 20
24.60784461622228
 30
0.0
 11
12.53641939034976
 21
24.60784461622228
 31
0.0
  0
LINE
  5
1258
  8
0
 10
44.036419390349749
 20
28.10784461622228
 30
0.0
 11
44.036419390349749
 21
32.607844616222373
 31
0.0
  0
LINE
  5
1259
  8
0
 10
12.036419390349749
 20
28.10784461622228
 30
0.0
 11
12.036419390349749
 21
32.607844616222373
 31
0.0
  0
LINE
  5
125A
  8
0
 10
16.214246544667851
 20
37.60784461622228
 30
0.0
 11
39.858592236031669
 21
37.60784461622228
 31
0.0
  0
LINE
  5
125B
  8
0
 10
16.214246544667851
 20
37.60784461622228
 30
0.0
 11
17.03641939034976
 21
42.60784461622228
 31
0.0
  0
LINE
  5
125C
  8
0
 10
12.036419390349749
 20
32.60784461622228
 30
0.0
 11
16.214246544667851
 21
37.60784461622228
 31
0.0
  0
ARC
  5
125D
  8
0
 10
28.036419390349931
 20
39.277717597300082
 30
0.0
 40
7.0
 50
28.407049271739002
 51
38.213210701736827
  0
ARC
  5
125E
  8
0
 10
28.036419390349931
 20
39.277717597300082
 30
0.0
 40
7.0
 50
141.7867892982631
 51
151.592950728261
  0
LINE
  5
125F
  8
0
 10
33.536419390349927
 20
43.607844616222287
 30
0.0
 11
33.536419390349927
 21
47.60784461622228
 31
0.0
  0
LINE
  5
1260
  8
0
 10
22.536419390349931
 20
43.607844616222287
 30
0.0
 11
22.536419390349931
 21
47.60784461622228
 31
0.0
  0
LINE
  5
1261
  8
0
 10
33.536419390349927
 20
43.607844616222287
 30
0.0
 11
22.536419390349931
 21
43.607844616222287
 31
0.0
  0
LINE
  5
1262
  8
0
 10
28.03641939034982
 20
51.827189376792838
 30
0.0
 11
28.036419390349781
 21
48.388499855651723
 31
0.0
  0
LINE
  5
1263
  8
0
 10
21.036419390349799
 20
52.45240415913203
 30
0.0
 11
21.036419390349799
 21
47.763285073312488
 31
0.0
  0
LINE
  5
1264
  8
0
 10
35.036419390349813
 20
52.45240415913203
 30
0.0
 11
35.036419390349813
 21
47.763285073312488
 31
0.0
  0
LINE
  5
1265
  8
0
 10
34.767188621117789
 20
52.607844616222287
 30
0.0
 11
21.305650159581809
 21
52.607844616222287
 31
0.0
  0
ARC
  5
1266
  8
0
 10
24.536419390349931
 20
42.343163398094617
 30
0.0
 40
10.10924076103746
 50
69.743841999583182
 51
110.2561580004167
  0
LINE
  5
1267
  8
0
 10
21.036419390349799
 20
52.45240415913203
 30
0.0
 11
21.305650159581809
 21
52.607844616222287
 31
0.0
  0
LINE
  5
1268
  8
0
 10
35.036419390349813
 20
52.45240415913203
 30
0.0
 11
34.767188621117789
 21
52.607844616222287
 31
0.0
  0
ARC
  5
1269
  8
0
 10
31.5364193903497
 20
42.343163398094617
 30
0.0
 40
10.10924076103746
 50
69.743841999583211
 51
110.2561580004167
  0
LINE
  5
126A
  8
0
 10
34.767188621117789
 20
47.60784461622228
 30
0.0
 11
21.305650159581809
 21
47.60784461622228
 31
0.0
  0
ARC
  5
126B
  8
0
 10
24.536419390349931
 20
57.872525834349929
 30
0.0
 40
10.10924076103746
 50
249.74384199958311
 51
290.25615800041669
  0
LINE
  5
126C
  8
0
 10
21.036419390349799
 20
47.763285073312488
 30
0.0
 11
21.305650159581809
 21
47.60784461622228
 31
0.0
  0
LINE
  5
126D
  8
0
 10
35.036419390349813
 20
47.763285073312488
 30
0.0
 11
34.767188621117789
 21
47.60784461622228
 31
0.0
  0
ARC
  5
126E
  8
0
 10
31.5364193903497
 20
57.872525834349929
 30
0.0
 40
10.10924076103746
 50
249.74384199958311
 51
290.25615800041669
  0
LINE
  5
126F
  8
0
 10
86.656669559530556
 20
43.607844616222287
 30
0.0
 11
75.656669559530542
 21
43.607844616222287
 31
0.0
  0
LINE
  5
1270
  8
0
 10
75.656669559530542
 20
43.607844616222287
 30
0.0
 11
75.656669559530542
 21
47.60784461622228
 31
0.0
  0
LINE
  5
1271
  8
0
 10
86.656669559530556
 20
43.607844616222287
 30
0.0
 11
86.656669559530556
 21
47.60784461622228
 31
0.0
  0
ARC
  5
1272
  8
0
 10
81.156669559530542
 20
39.277717597300082
 30
0.0
 40
7.0
 50
141.7867892982631
 51
151.592950728261
  0
ARC
  5
1273
  8
0
 10
81.156669559530542
 20
39.277717597300082
 30
0.0
 40
7.0
 50
28.407049271738991
 51
38.213210701736863
  0
LINE
  5
1274
  8
0
 10
65.156669559530357
 20
32.60784461622228
 30
0.0
 11
69.334496713848466
 21
37.60784461622228
 31
0.0
  0
LINE
  5
1275
  8
0
 10
69.334496713848466
 20
37.60784461622228
 30
0.0
 11
70.156669559530357
 21
42.60784461622228
 31
0.0
  0
LINE
  5
1276
  8
0
 10
69.334496713848466
 20
37.60784461622228
 30
0.0
 11
92.978842405212248
 21
37.60784461622228
 31
0.0
  0
LINE
  5
1277
  8
0
 10
65.156669559530343
 20
28.10784461622228
 30
0.0
 11
65.156669559530343
 21
32.607844616222373
 31
0.0
  0
LINE
  5
1278
  8
0
 10
97.156669559530314
 20
28.10784461622228
 30
0.0
 11
97.156669559530314
 21
32.607844616222373
 31
0.0
  0
LINE
  5
1279
  8
0
 10
96.656669559530357
 20
24.60784461622228
 30
0.0
 11
65.656669559530343
 21
24.60784461622228
 31
0.0
  0
LINE
  5
127A
  8
0
 10
96.656669559530357
 20
27.60784461622228
 30
0.0
 11
65.656669559530343
 21
27.60784461622228
 31
0.0
  0
LINE
  5
127B
  8
0
 10
97.156669559530314
 20
32.60784461622228
 30
0.0
 11
65.156669559530357
 21
32.60784461622228
 31
0.0
  0
LINE
  5
127C
  8
0
 10
92.156669559530386
 20
42.60784461622228
 30
0.0
 11
70.156669559530357
 21
42.60784461622228
 31
0.0
  0
LINE
  5
127D
  8
0
 10
65.656669559530343
 20
27.60784461622228
 30
0.0
 11
65.656669559530343
 21
24.60784461622228
 31
0.0
  0
LINE
  5
127E
  8
0
 10
96.656669559530357
 20
24.60784461622228
 30
0.0
 11
96.656669559530357
 21
27.60784461622228
 31
0.0
  0
LINE
  5
127F
  8
0
 10
65.156669559530343
 20
28.10784461622228
 30
0.0
 11
65.656669559530343
 21
27.60784461622228
 31
0.0
  0
LINE
  5
1280
  8
0
 10
96.656669559530357
 20
27.60784461622228
 30
0.0
 11
97.156669559530314
 21
28.10784461622228
 31
0.0
  0
LINE
  5
1281
  8
0
 10
97.156669559530314
 20
32.60784461622228
 30
0.0
 11
92.978842405212248
 21
37.60784461622228
 31
0.0
  0
LINE
  5
1282
  8
0
 10
92.978842405212248
 20
37.60784461622228
 30
0.0
 11
92.156669559530386
 21
42.60784461622228
 31
0.0
  0
LINE
  5
1283
  8
0
 10
87.887438790298276
 20
47.607844616222408
 30
0.0
 11
74.425900328762509
 21
47.607844616222408
 31
0.0
  0
LINE
  5
1284
  8
0
 10
74.42590032876106
 20
52.607844616222287
 30
0.0
 11
87.88743879029802
 21
52.607844616222287
 31
0.0
  0
ARC
  5
1285
  8
0
 10
87.218847386021196
 20
48.874252311339617
 30
0.0
 40
3.5781518477924039
 50
64.384247467826086
 51
124.3842474680382
  0
LINE
  5
1286
  8
0
 10
89.23957332818506
 20
51.827189376792752
 30
0.0
 11
87.887438790298276
 21
52.607844616222287
 31
0.0
  0
LINE
  5
1287
  8
0
 10
89.23957332818506
 20
48.388499855651972
 30
0.0
 11
87.887438790298276
 21
47.607844616222408
 31
0.0
  0
ARC
  5
1288
  8
0
 10
87.218847386021196
 20
51.341436921105078
 30
0.0
 40
3.5781518477924039
 50
235.61575253196159
 51
295.61575253217387
  0
LINE
  5
1289
  8
0
 10
89.239573328185031
 20
51.827189376792781
 30
0.0
 11
89.23957332818506
 21
48.388499855651972
 31
0.0
  0
LINE
  5
128A
  8
0
 10
85.198121443855911
 20
51.827189376793299
 30
0.0
 11
85.198121443857644
 21
48.388499855653613
 31
0.0
  0
LINE
  5
128B
  8
0
 10
77.115217675204619
 20
51.827189376791587
 30
0.0
 11
77.115217675202857
 21
48.388499855653613
 31
0.0
  0
LINE
  5
128C
  8
0
 10
73.073765790875484
 20
51.827189376792752
 30
0.0
 11
73.073765790875484
 21
48.388499855651972
 31
0.0
  0
ARC
  5
128D
  8
0
 10
81.156669559531252
 20
61.138070290966432
 30
0.0
 40
13.374785217653811
 50
252.4120462259954
 51
287.58795377400293
  0
ARC
  5
128E
  8
0
 10
75.094491733039291
 20
51.341436921105078
 30
0.0
 40
3.5781518477924039
 50
244.3842474678261
 51
304.38424746803821
  0
LINE
  5
128F
  8
0
 10
73.073765790875484
 20
48.388499855651972
 30
0.0
 11
74.425900328762268
 21
47.607844616222408
 31
0.0
  0
LINE
  5
1290
  8
0
 10
73.073765790875484
 20
51.827189376792752
 30
0.0
 11
74.425900328762268
 21
52.607844616222287
 31
0.0
  0
ARC
  5
1291
  8
0
 10
81.156669559531252
 20
39.077618941478271
 30
0.0
 40
13.374785217653811
 50
72.412046225997088
 51
107.5879537740046
  0
ARC
  5
1292
  8
0
 10
75.094491733039291
 20
48.874252311339617
 30
0.0
 40
3.5781518477924039
 50
55.615752531961753
 51
115.6157525321739
  0
TEXT
  5
166E
  8
0
 62
     3
 10
0.0
 20
0.0
 30
0.0
 40
10.0
  1
LSAR32S10B-SUS
  7
STANDARD1
  0
ENDSEC
  0
EOF
