  0
SECTION
  2
HEADER
  9
$ACADVER
  1
AC1009
  9
$INSBASE
 10
0.0
 20
0.0
 30
0.0
  9
$EXTMIN
 10
0.0
 20
-2.960436562073669
 30
0.0
  9
$EXTMAX
 10
119.5839017735334
 20
152.54114127307861
 30
0.0
  9
$LIMMIN
 10
0.0
 20
0.0
  9
$LIMMAX
 10
375.0
 20
270.0
  9
$ORTHOMODE
 70
     1
  9
$REGENMODE
 70
     1
  9
$FILLMODE
 70
     1
  9
$QTEXTMODE
 70
     0
  9
$MIRRTEXT
 70
     0
  9
$DRAGMODE
 70
     2
  9
$LTSCALE
 40
6.0
  9
$OSMODE
 70
    37
  9
$ATTMODE
 70
     1
  9
$TEXTSIZE
 40
0.2
  9
$TRACEWID
 40
0.05
  9
$TEXTSTYLE
  7
STANDARD
  9
$CLAYER
  8
0
  9
$CELTYPE
  6
BYLAYER
  9
$CECOLOR
 62
   256
  9
$DIMSCALE
 40
1.0
  9
$DIMASZ
 40
3.0
  9
$DIMEXO
 40
1.0
  9
$DIMDLI
 40
6.0
  9
$DIMRND
 40
0.0
  9
$DIMDLE
 40
0.0
  9
$DIMEXE
 40
1.0
  9
$DIMTP
 40
495.0
  9
$DIMTM
 40
0.0
  9
$DIMTXT
 40
3.0
  9
$DIMCEN
 40
0.0
  9
$DIMTSZ
 40
0.0
  9
$DIMTOL
 70
     0
  9
$DIMLIM
 70
     0
  9
$DIMTIH
 70
     0
  9
$DIMTOH
 70
     0
  9
$DIMSE1
 70
     0
  9
$DIMSE2
 70
     0
  9
$DIMTAD
 70
     1
  9
$DIMZIN
 70
     0
  9
$DIMBLK
  1

  9
$DIMASO
 70
     0
  9
$DIMSHO
 70
     0
  9
$DIMPOST
  1

  9
$DIMAPOST
  1

  9
$DIMALT
 70
     0
  9
$DIMALTD
 70
     2
  9
$DIMALTF
 40
25.399999999999999
  9
$DIMLFAC
 40
1.0
  9
$DIMTOFL
 70
     1
  9
$DIMTVP
 40
0.0
  9
$DIMTIX
 70
     1
  9
$DIMSOXD
 70
     0
  9
$DIMSAH
 70
     0
  9
$DIMBLK1
  1

  9
$DIMBLK2
  1

  9
$DIMSTYLE
  2
STANDARD
  9
$DIMCLRD
 70
     0
  9
$DIMCLRE
 70
     0
  9
$DIMCLRT
 70
     4
  9
$DIMTFAC
 40
1.0
  9
$DIMGAP
 40
1.0
  9
$LUNITS
 70
     2
  9
$LUPREC
 70
     4
  9
$SKETCHINC
 40
0.1
  9
$FILLETRAD
 40
2.0
  9
$AUNITS
 70
     0
  9
$AUPREC
 70
     0
  9
$MENU
  1
C:\R13\WIN\SUPPORT\ACAD-I
  9
$ELEVATION
 40
0.0
  9
$PELEVATION
 40
0.0
  9
$THICKNESS
 40
0.0
  9
$LIMCHECK
 70
     0
  9
$BLIPMODE
 70
     0
  9
$CHAMFERA
 40
0.0
  9
$CHAMFERB
 40
0.0
  9
$SKPOLY
 70
     0
  9
$TDCREATE
 40
2451961.7069104519
  9
$TDUPDATE
 40
2456598.7180864578
  9
$TDINDWG
 40
0.0401385185
  9
$TDUSRTIMER
 40
2456598.016296227
  9
$USRTIMER
 70
     1
  9
$ANGBASE
 50
0.0
  9
$ANGDIR
 70
     0
  9
$PDMODE
 70
     0
  9
$PDSIZE
 40
0.0
  9
$PLINEWID
 40
0.0
  9
$COORDS
 70
     1
  9
$SPLFRAME
 70
     0
  9
$SPLINETYPE
 70
     6
  9
$SPLINESEGS
 70
     8
  9
$ATTDIA
 70
     0
  9
$ATTREQ
 70
     1
  9
$HANDLING
 70
     1
  9
$HANDSEED
  5
196B
  9
$SURFTAB1
 70
     6
  9
$SURFTAB2
 70
     6
  9
$SURFTYPE
 70
     6
  9
$SURFU
 70
     6
  9
$SURFV
 70
     6
  9
$UCSNAME
  2

  9
$UCSORG
 10
0.0
 20
0.0
 30
0.0
  9
$UCSXDIR
 10
1.0
 20
0.0
 30
0.0
  9
$UCSYDIR
 10
0.0
 20
1.0
 30
0.0
  9
$PUCSNAME
  2

  9
$PUCSORG
 10
0.0
 20
0.0
 30
0.0
  9
$PUCSXDIR
 10
1.0
 20
0.0
 30
0.0
  9
$PUCSYDIR
 10
0.0
 20
1.0
 30
0.0
  9
$USERI1
 70
     4
  9
$USERI2
 70
     1
  9
$USERI3
 70
     0
  9
$USERI4
 70
     0
  9
$USERI5
 70
     0
  9
$USERR1
 40
1.0
  9
$USERR2
 40
3.0
  9
$USERR3
 40
3.0
  9
$USERR4
 40
3.0
  9
$USERR5
 40
10.0
  9
$WORLDVIEW
 70
     1
  9
$SHADEDGE
 70
     3
  9
$SHADEDIF
 70
    70
  9
$TILEMODE
 70
     1
  9
$MAXACTVP
 70
    16
  9
$PLIMCHECK
 70
     0
  9
$PEXTMIN
 10
1.0000000000000000E+020
 20
1.0000000000000000E+020
 30
1.0000000000000000E+020
  9
$PEXTMAX
 10
-1.0000000000000000E+020
 20
-1.0000000000000000E+020
 30
-1.0000000000000000E+020
  9
$PLIMMIN
 10
0.0
 20
0.0
  9
$PLIMMAX
 10
12.0
 20
9.0
  9
$UNITMODE
 70
     0
  9
$VISRETAIN
 70
     0
  9
$PLINEGEN
 70
     0
  9
$PSLTSCALE
 70
     0
  0
ENDSEC
  0
SECTION
  2
TABLES
  0
TABLE
  2
VPORT
 70
     1
  0
VPORT
  2
*ACTIVE
 70
     0
 10
0.0
 20
0.0
 11
1.0
 21
1.0
 12
187.49427839065231
 22
177.52205812711131
 13
0.0
 23
0.0
 14
10.0
 24
10.0
 15
10.0
 25
10.0
 16
0.0
 26
0.0
 36
1.0
 17
0.0
 27
0.0
 37
0.0
 40
364.13085016302909
 41
1.755244755244755
 42
50.0
 43
0.0
 44
0.0
 50
0.0
 51
0.0
 71
    16
 72
   100
 73
     1
 74
     0
 75
     0
 76
     0
 77
     0
 78
     0
  0
ENDTAB
  0
TABLE
  2
LTYPE
 70
     3
  0
LTYPE
  2
CONTINUOUS
 70
     0
  3
Solid Line
 72
    65
 73
     0
 40
0.0
  0
LTYPE
  2
PHANTOM2
 70
     0
  3
___ _ _ ___ _ _ ___ _ _ ___ _ _
 72
    65
 73
     6
 40
1.25
 49
0.625
 49
-0.125
 49
0.125
 49
-0.125
 49
0.125
 49
-0.125
  0
LTYPE
  2
CENTER
 70
     0
  3
____ _ ____ _ ____ _ ____ _ ____ _ ____ _ ____
 72
    65
 73
     4
 40
2.0
 49
1.25
 49
-0.25
 49
0.25
 49
-0.25
  0
ENDTAB
  0
TABLE
  2
LAYER
 70
     3
  0
LAYER
  2
0
 70
     0
 62
     7
  6
CONTINUOUS
  0
LAYER
  2
1
 70
     0
 62
     1
  6
CENTER
  0
LAYER
  2
3
 70
     0
 62
     3
  6
CONTINUOUS
  0
ENDTAB
  0
TABLE
  2
STYLE
 70
     3
  0
STYLE
  2
STANDARD
 70
     0
 40
0.0
 41
1.0
 50
0.0
 71
     0
 42
0.2
  3
SIMPLEX
  4
BIGFONT
  0
STYLE
  2
ANNOTATIVE
 70
     0
 40
0.0
 41
1.0
 50
0.0
 71
     0
 42
0.2
  3
txt
  4

  0
STYLE
  2
STANDARD1
 70
     0
 40
0.0
 41
1.0
 50
0.0
 71
     0
 42
3.0
  3
txt
  4

  0
ENDTAB
  0
TABLE
  2
VIEW
 70
     0
  0
ENDTAB
  0
TABLE
  2
UCS
 70
     0
  0
ENDTAB
  0
TABLE
  2
APPID
 70
    29
  0
APPID
  2
ACAD
 70
     0
  0
APPID
  2
ACADANNOTATIVE
 70
     0
  0
APPID
  2
GENIUS_GENOREF_13
 70
     0
  0
APPID
  2
GENIUS_GENOENT_13
 70
     0
  0
APPID
  2
GENIUS_GENBH_13
 70
     0
  0
APPID
  2
GENIUS_GENOBJ_13
 70
     0
  0
APPID
  2
GENIUS_GENODEF_13
 70
     0
  0
APPID
  2
GENIUS_GENOLIS_13
 70
     0
  0
APPID
  2
GENIUS_GENOBJ-NBEHI-BHF_13
 70
     0
  0
APPID
  2
GENIUS_GENOBJ-NBEHI-BHB_13
 70
     0
  0
APPID
  2
GENIUS_GENOBJ-F-PART_13
 70
     0
  0
APPID
  2
GENIUS_GEFSTDP_13
 70
     0
  0
APPID
  2
GENIUS_GENOBJ-N-RSSYM_13
 70
     0
  0
APPID
  2
GENIUS_GENSYMENT_13
 70
     0
  0
APPID
  2
GENIUS_GENOBJ-N-TIT_13
 70
     0
  0
APPID
  2
GENIUS_GENTITLE_13
 70
     0
  0
APPID
  2
GENIUS_GENZVEED_13
 70
     0
  0
APPID
  2
GENIUS_GENOBJ-N-LEADER_13
 70
     0
  0
APPID
  2
GENIUS_GENOBJ-N-FIL_13
 70
     0
  0
APPID
  2
GENIUS_GENOBJ-N-SEC_13
 70
     0
  0
APPID
  2
GENIUS_GENOBJ-N-CRS_13
 70
     0
  0
APPID
  2
GENIUS_GENOBJ-N-ZOO_13
 70
     0
  0
APPID
  2
GENIUS_GENZOO_13
 70
     0
  0
APPID
  2
GENIUS_GENOBJ-F-TOL_13
 70
     0
  0
APPID
  2
GENIUS_GENFIL_13
 70
     0
  0
APPID
  2
GENIUS_GENOBJ-N-CHA_13
 70
     0
  0
APPID
  2
ACAD_MLEADERVER
 70
     0
  0
APPID
  2
ACAD_EXEMPT_FROM_CAD_STANDARDS
 70
     0
  0
APPID
  2
ACAD_NAV_VCDISPLAY
 70
     0
  0
ENDTAB
  0
TABLE
  2
DIMSTYLE
 70
     2
  0
DIMSTYLE
  2
STANDARD
 70
     0
  3

  4

  5

  6

  7

 40
1.0
 41
0.18
 42
0.0625
 43
0.38
 44
0.18
 45
0.0
 46
0.0
 47
0.0
 48
0.0
140
0.18
141
0.09
142
0.0
143
25.399999999999999
144
1.0
145
0.0
146
1.0
147
0.09
 71
     0
 72
     0
 73
     1
 74
     1
 75
     0
 76
     0
 77
     0
 78
     0
170
     0
171
     2
172
     0
173
     0
174
     0
175
     0
176
     0
177
     0
178
     0
  0
DIMSTYLE
  2
ANNOTATIVE
 70
     0
  3

  4

  5

  6

  7

 40
1.0
 41
0.18
 42
0.0625
 43
0.38
 44
0.18
 45
0.0
 46
0.0
 47
0.0
 48
0.0
140
0.18
141
0.09
142
0.0
143
25.399999999999999
144
1.0
145
0.0
146
1.0
147
0.09
 71
     0
 72
     0
 73
     1
 74
     1
 75
     0
 76
     0
 77
     0
 78
     0
170
     0
171
     2
172
     0
173
     0
174
     0
175
     0
176
     0
177
     0
178
     0
  0
ENDTAB
  0
ENDSEC
  0
SECTION
  2
BLOCKS
  0
BLOCK
  8
0
  2
$MODEL_SPACE
 70
     0
 10
0.0
 20
0.0
 30
0.0
  3
$MODEL_SPACE
  1

  0
ENDBLK
  5
1832
  8
0
  0
BLOCK
 67
     1
  8
0
  2
$PAPER_SPACE
 70
     0
 10
0.0
 20
0.0
 30
0.0
  3
$PAPER_SPACE
  1

  0
ENDBLK
  5
182E
 67
     1
  8
0
  0
ENDSEC
  0
SECTION
  2
ENTITIES
  0
LINE
  5
1256
  8
0
 10
14.349300776514291
 20
133.54114127307869
 30
0.0
 11
19.834128333815809
 21
124.04114127307869
 31
0.0
  0
LINE
  5
1257
  8
0
 10
19.834128333815919
 20
143.04114127307881
 30
0.0
 11
14.349300776514291
 21
133.54114127307869
 31
0.0
  0
LINE
  5
1258
  8
0
 10
30.803783448418731
 20
143.04114127307881
 30
0.0
 11
19.834128333815919
 21
143.04114127307881
 31
0.0
  0
LINE
  5
1259
  8
0
 10
36.288611005720007
 20
133.54114127307869
 30
0.0
 11
30.803783448418731
 21
143.04114127307881
 31
0.0
  0
LINE
  5
125A
  8
0
 10
30.8037834484185
 20
124.04114127307869
 30
0.0
 11
36.288611005720007
 21
133.54114127307869
 31
0.0
  0
CIRCLE
  5
125B
  8
3
 10
25.31895589111722
 20
133.54114127307869
 30
0.0
 40
5.052999999999999
  0
CIRCLE
  5
125C
  8
0
 10
25.31895589111722
 20
133.54114127307869
 30
0.0
 40
6.0
  0
CIRCLE
  5
125D
  8
0
 10
25.31895589111722
 20
133.54114127307869
 30
0.0
 40
9.0
  0
LINE
  5
125E
  8
0
 10
19.834128333815809
 20
124.04114127307869
 30
0.0
 11
30.8037834484185
 21
124.04114127307869
 31
0.0
  0
LINE
  5
125F
  8
1
 10
44.318955891117149
 20
133.54114127307869
 30
0.0
 11
6.3189558911172679
 21
133.54114127307869
 31
0.0
  0
LINE
  5
1260
  8
1
 10
25.31895589111722
 20
152.54114127307861
 30
0.0
 11
25.31895589111722
 21
114.54114127307891
 31
0.0
  0
LINE
  5
1261
  8
0
 10
19.318955891117209
 20
80.25481490106381
 30
0.0
 11
19.318955891117231
 21
100.2548149010638
 31
0.0
  0
LINE
  5
1262
  8
3
 10
20.265955891117191
 20
80.25481490106381
 30
0.0
 11
20.265955891117251
 21
101.2018149010638
 31
0.0
  0
LINE
  5
1263
  8
3
 10
30.37195589111727
 20
80.25481490106381
 30
0.0
 11
30.371955891117299
 21
101.2018149010637
 31
0.0
  0
LINE
  5
1264
  8
0
 10
31.318955891117209
 20
80.25481490106381
 30
0.0
 11
31.318955891117241
 21
100.2548149010638
 31
0.0
  0
LINE
  5
1265
  8
0
 10
30.803783448414521
 20
79.11763399043798
 30
0.0
 11
30.80378344841861
 21
71.391995811689185
 31
0.0
  0
LINE
  5
1266
  8
0
 10
36.288611005720362
 20
79.11763399043798
 30
0.0
 11
36.288611005720362
 21
71.391995811689412
 31
0.0
  0
LINE
  5
1267
  8
0
 10
19.834128333820129
 20
79.11763399043798
 30
0.0
 11
19.834128333816039
 21
71.391995811689185
 31
0.0
  0
LINE
  5
1268
  8
0
 10
14.349300776514291
 20
79.11763399043798
 30
0.0
 11
14.349300776514291
 21
71.391995811689412
 31
0.0
  0
LINE
  5
1269
  8
0
 10
14.349300776514291
 20
71.39199581168964
 30
0.0
 11
16.318955891115959
 21
70.25481490106381
 31
0.0
  0
ARC
  5
126A
  8
0
 10
17.091714555164941
 20
75.399553257667094
 30
0.0
 40
4.8560632220084567
 50
244.3842474680873
 51
304.3842474680165
  0
ARC
  5
126B
  8
0
 10
25.31895589111733
 20
88.694984259644116
 30
0.0
 40
18.15149422398537
 50
252.41204622603641
 51
287.5879537739637
  0
ARC
  5
126C
  8
0
 10
33.546197227069712
 20
75.399553257667094
 30
0.0
 40
4.8560632220084567
 50
235.6157525319833
 51
295.61575253191268
  0
LINE
  5
126D
  8
0
 10
36.288611005720362
 20
71.39199581168964
 30
0.0
 11
34.318955891118691
 21
70.25481490106381
 31
0.0
  0
LINE
  5
126E
  8
0
 10
16.318955891115959
 20
70.25481490106381
 30
0.0
 11
34.318955891118691
 21
70.25481490106381
 31
0.0
  0
LINE
  5
126F
  8
0
 10
16.318955891115959
 20
80.25481490106381
 30
0.0
 11
34.318955891118691
 21
80.25481490106381
 31
0.0
  0
LINE
  5
1270
  8
0
 10
36.288611005720362
 20
79.11763399043798
 30
0.0
 11
34.318955891118691
 21
80.25481490106381
 31
0.0
  0
ARC
  5
1271
  8
0
 10
33.546197227069712
 20
75.110076544460526
 30
0.0
 40
4.8560632220084567
 50
64.384247468087224
 51
124.3842474680164
  0
ARC
  5
1272
  8
0
 10
25.31895589111733
 20
61.81464554248349
 30
0.0
 40
18.15149422398537
 50
72.412046226036352
 51
107.5879537739636
  0
ARC
  5
1273
  8
0
 10
17.091714555164941
 20
75.110076544460526
 30
0.0
 40
4.8560632220084567
 50
55.615752531983453
 51
115.6157525319127
  0
LINE
  5
1274
  8
0
 10
14.349300776514291
 20
79.11763399043798
 30
0.0
 11
16.318955891115959
 21
80.25481490106381
 31
0.0
  0
LINE
  5
1275
  8
0
 10
21.318955891117241
 20
102.2548149010638
 30
0.0
 11
29.318955891117241
 21
102.2548149010638
 31
0.0
  0
LINE
  5
1276
  8
0
 10
31.318955891117191
 20
59.25481490106381
 30
0.0
 11
31.318955891117191
 21
70.25481490106381
 31
0.0
  0
LINE
  5
1277
  8
3
 10
30.371955891117238
 20
61.254814901063803
 30
0.0
 11
30.371955891117238
 21
70.25481490106381
 31
0.0
  0
LINE
  5
1278
  8
3
 10
20.265955891117191
 20
61.254814901063803
 30
0.0
 11
20.265955891117191
 21
70.25481490106381
 31
0.0
  0
LINE
  5
1279
  8
0
 10
19.318955891117181
 20
59.25481490106381
 30
0.0
 11
19.318955891117209
 21
70.25481490106381
 31
0.0
  0
LINE
  5
127A
  8
0
 10
21.318955891117241
 20
102.2548149010638
 30
0.0
 11
19.318955891117231
 21
100.2548149010638
 31
0.0
  0
LINE
  5
127B
  8
0
 10
29.318955891117241
 20
102.2548149010638
 30
0.0
 11
31.318955891117241
 21
100.2548149010638
 31
0.0
  0
LINE
  5
127C
  8
0
 10
19.318955891117231
 20
100.2548149010638
 30
0.0
 11
31.318955891117309
 21
100.2548149010638
 31
0.0
  0
LINE
  5
127D
  8
0
 10
31.318955891117191
 20
61.254814901063803
 30
0.0
 11
19.318955891117181
 21
61.254814901063803
 31
0.0
  0
LINE
  5
127E
  8
3
 10
20.265955891117191
 20
61.254814901063803
 30
0.0
 11
19.318955891117181
 21
59.614562786296112
 31
0.0
  0
LINE
  5
127F
  8
3
 10
30.371955891117182
 20
61.254814901063803
 30
0.0
 11
31.318955891117191
 21
59.614562786296112
 31
0.0
  0
LINE
  5
1292
  8
0
 10
84.439206060297735
 20
80.25481490106381
 30
0.0
 11
84.439206060297764
 21
100.2548149010637
 31
0.0
  0
LINE
  5
1293
  8
3
 10
83.492206060297804
 20
80.25481490106381
 30
0.0
 11
83.492206060297804
 21
101.2018149010635
 31
0.0
  0
LINE
  5
1294
  8
0
 10
72.439206060297735
 20
80.254814901063924
 30
0.0
 11
72.439206060297792
 21
100.2548149010638
 31
0.0
  0
LINE
  5
1295
  8
3
 10
73.386206060297738
 20
80.254814901063696
 30
0.0
 11
73.386206060297781
 21
101.2018149010638
 31
0.0
  0
LINE
  5
1296
  8
3
 10
73.386206060297738
 20
61.254814901063682
 30
0.0
 11
72.439206060297735
 21
59.614562786296013
 31
0.0
  0
LINE
  5
1297
  8
0
 10
74.439206060297764
 20
102.2548149010638
 30
0.0
 11
72.439206060297792
 21
100.2548149010638
 31
0.0
  0
LINE
  5
1298
  8
3
 10
73.386206060297738
 20
61.254814901063682
 30
0.0
 11
73.386206060297738
 21
70.25481490106381
 31
0.0
  0
LINE
  5
1299
  8
0
 10
72.439206060297735
 20
59.254814901063703
 30
0.0
 11
72.439206060297735
 21
70.254814901063696
 31
0.0
  0
LINE
  5
129A
  8
3
 10
83.492206060297718
 20
61.254814901063682
 30
0.0
 11
84.439206060297735
 21
59.614562786296013
 31
0.0
  0
LINE
  5
129B
  8
0
 10
84.439206060297735
 20
61.254814901063682
 30
0.0
 11
72.439206060297735
 21
61.254814901063682
 31
0.0
  0
LINE
  5
129C
  8
0
 10
72.439206060297792
 20
100.2548149010637
 30
0.0
 11
84.439206060297835
 21
100.2548149010637
 31
0.0
  0
LINE
  5
129D
  8
0
 10
82.439206060297806
 20
102.2548149010637
 30
0.0
 11
84.439206060297764
 21
100.2548149010637
 31
0.0
  0
LINE
  5
129E
  8
3
 10
83.492206060297804
 20
61.254814901063682
 30
0.0
 11
83.492206060297804
 21
70.25481490106381
 31
0.0
  0
LINE
  5
129F
  8
0
 10
84.439206060297735
 20
59.254814901063703
 30
0.0
 11
84.439206060297735
 21
70.25481490106381
 31
0.0
  0
LINE
  5
12A0
  8
0
 10
74.439206060297764
 20
102.2548149010638
 30
0.0
 11
82.439206060297806
 21
102.2548149010637
 31
0.0
  0
LINE
  5
12A2
  8
0
 10
87.439206060297735
 20
70.25481490106381
 30
0.0
 11
69.439206060297721
 21
70.25481490106381
 31
0.0
  0
LINE
  5
12A3
  8
0
 10
69.439206060297721
 20
80.25481490106381
 30
0.0
 11
87.439206060297735
 21
80.25481490106381
 31
0.0
  0
LINE
  5
12A4
  8
0
 10
68.939206060297721
 20
79.966139766468928
 30
0.0
 11
69.439206060297721
 21
80.25481490106381
 31
0.0
  0
ARC
  5
12A5
  8
0
 10
73.689206060297735
 20
66.246455876475807
 30
0.0
 40
13.719683889993171
 50
69.743841999613011
 51
110.256158000387
  0
LINE
  5
12A6
  8
0
 10
69.439206060297721
 20
70.25481490106381
 30
0.0
 11
68.939206060297721
 21
70.615286805383903
 31
0.0
  0
LINE
  5
12A7
  8
0
 10
68.939206060297721
 20
70.615286805383903
 30
0.0
 11
68.939206060297721
 21
79.966139766468928
 31
0.0
  0
ARC
  5
12A8
  8
0
 10
73.689206060297735
 20
84.263173925651813
 30
0.0
 40
13.719683889993171
 50
249.7438419996115
 51
290.25615800038707
  0
ARC
  5
12A9
  8
0
 10
83.189206060297735
 20
84.263173925651813
 30
0.0
 40
13.719683889993171
 50
249.7438419996115
 51
290.25615800038707
  0
LINE
  5
12AA
  8
0
 10
87.939206060297735
 20
70.615286805383903
 30
0.0
 11
87.939206060297735
 21
79.966139766468928
 31
0.0
  0
LINE
  5
12AB
  8
0
 10
87.439206060297735
 20
70.25481490106381
 30
0.0
 11
87.939206060297735
 21
70.615286805383903
 31
0.0
  0
ARC
  5
12AC
  8
0
 10
83.189206060297735
 20
66.246455876475807
 30
0.0
 40
13.719683889993171
 50
69.743841999613011
 51
110.256158000387
  0
LINE
  5
12AD
  8
0
 10
87.939206060297735
 20
79.966139766468928
 30
0.0
 11
87.439206060297735
 21
80.25481490106381
 31
0.0
  0
LINE
  5
12C3
  8
1
 10
78.439206060297664
 20
27.023115388901829
 30
0.0
 11
78.439206060297792
 21
105.0231153889018
 31
0.0
  0
LINE
  5
12C4
  8
1
 10
25.318955891117071
 20
27.25481490106381
 30
0.0
 11
25.318955891117181
 21
105.2548149010638
 31
0.0
  0
CIRCLE
  5
12C5
  8
0
 10
25.31895589111722
 20
133.54114127307869
 30
0.0
 40
10.999999999999901
  0
CIRCLE
  5
12C7
  8
0
 10
25.31895589111722
 20
133.54114127307869
 30
0.0
 40
15.99999999999994
  0
LINE
  5
14CD
  8
0
 10
37.141128736798997
 20
44.254814901063767
 30
0.0
 11
36.318955891117099
 21
49.254814901063767
 31
0.0
  0
LINE
  5
14CE
  8
0
 10
41.318955891117092
 20
39.254814901063767
 30
0.0
 11
37.141128736798997
 21
44.254814901063767
 31
0.0
  0
LINE
  5
14CF
  8
0
 10
40.818955891117092
 20
34.254814901063781
 30
0.0
 11
41.318955891117092
 21
34.754814901063767
 31
0.0
  0
LINE
  5
14D0
  8
0
 10
9.3189558911171009
 20
34.754814901063767
 30
0.0
 11
9.8189558911171009
 21
34.254814901063781
 31
0.0
  0
LINE
  5
14D1
  8
0
 10
40.818955891117092
 20
31.25481490106376
 30
0.0
 11
40.818955891117092
 21
34.254814901063781
 31
0.0
  0
LINE
  5
14D2
  8
0
 10
9.8189558911171009
 20
34.254814901063781
 30
0.0
 11
9.8189558911171009
 21
31.25481490106376
 31
0.0
  0
LINE
  5
14D3
  8
0
 10
36.318955891117099
 20
49.254814901063767
 30
0.0
 11
14.318955891117101
 21
49.25481490106376
 31
0.0
  0
LINE
  5
14D4
  8
0
 10
41.318955891117092
 20
39.254814901063767
 30
0.0
 11
9.3189558911171009
 21
39.254814901063767
 31
0.0
  0
LINE
  5
14D5
  8
0
 10
40.818955891117092
 20
34.254814901063781
 30
0.0
 11
9.8189558911171009
 21
34.254814901063781
 31
0.0
  0
LINE
  5
14D6
  8
0
 10
40.818955891117092
 20
31.25481490106376
 30
0.0
 11
9.8189558911171009
 21
31.25481490106376
 31
0.0
  0
LINE
  5
14D7
  8
0
 10
41.318955891117092
 20
34.754814901063767
 30
0.0
 11
41.318955891117092
 21
39.254814901063853
 31
0.0
  0
LINE
  5
14D8
  8
0
 10
9.3189558911171009
 20
34.754814901063767
 30
0.0
 11
9.3189558911171009
 21
39.254814901063853
 31
0.0
  0
LINE
  5
14D9
  8
0
 10
13.49678304543519
 20
44.254814901063767
 30
0.0
 11
37.141128736798997
 21
44.254814901063767
 31
0.0
  0
LINE
  5
14DA
  8
0
 10
13.49678304543519
 20
44.254814901063767
 30
0.0
 11
14.318955891117101
 21
49.254814901063767
 31
0.0
  0
LINE
  5
14DB
  8
0
 10
9.3189558911171009
 20
39.254814901063767
 30
0.0
 11
13.49678304543519
 21
44.254814901063767
 31
0.0
  0
ARC
  5
14DC
  8
0
 10
25.31895589111727
 20
45.924687882141569
 30
0.0
 40
7.0
 50
28.407049271738789
 51
38.213210701736607
  0
ARC
  5
14DD
  8
0
 10
25.31895589111727
 20
45.924687882141569
 30
0.0
 40
7.0
 50
141.78678929826339
 51
151.59295072826109
  0
LINE
  5
14DE
  8
0
 10
30.81895589111727
 20
50.254814901063781
 30
0.0
 11
30.81895589111727
 21
54.254814901063781
 31
0.0
  0
LINE
  5
14DF
  8
0
 10
19.81895589111727
 20
50.254814901063781
 30
0.0
 11
19.81895589111727
 21
54.254814901063781
 31
0.0
  0
LINE
  5
14E0
  8
0
 10
30.81895589111727
 20
50.254814901063781
 30
0.0
 11
19.81895589111727
 21
50.254814901063781
 31
0.0
  0
LINE
  5
14E1
  8
0
 10
25.318955891117159
 20
58.474159661634317
 30
0.0
 11
25.318955891117131
 21
55.03547014049321
 31
0.0
  0
LINE
  5
14E2
  8
0
 10
18.318955891117149
 20
59.099374443973517
 30
0.0
 11
18.318955891117149
 21
54.410255358153982
 31
0.0
  0
LINE
  5
14E3
  8
0
 10
32.318955891117163
 20
59.099374443973517
 30
0.0
 11
32.318955891117163
 21
54.410255358153982
 31
0.0
  0
LINE
  5
14E4
  8
0
 10
32.049725121885132
 20
59.254814901063781
 30
0.0
 11
18.588186660349152
 21
59.254814901063781
 31
0.0
  0
ARC
  5
14E5
  8
0
 10
21.81895589111727
 20
48.990133682936118
 30
0.0
 40
10.10924076103746
 50
69.743841999583211
 51
110.2561580004167
  0
LINE
  5
14E6
  8
0
 10
18.318955891117149
 20
59.099374443973517
 30
0.0
 11
18.588186660349152
 21
59.254814901063781
 31
0.0
  0
LINE
  5
14E7
  8
0
 10
32.318955891117163
 20
59.099374443973517
 30
0.0
 11
32.049725121885132
 21
59.254814901063781
 31
0.0
  0
ARC
  5
14E8
  8
0
 10
28.818955891117039
 20
48.990133682936118
 30
0.0
 40
10.10924076103746
 50
69.743841999583225
 51
110.2561580004167
  0
LINE
  5
14E9
  8
0
 10
32.049725121885132
 20
54.254814901063781
 30
0.0
 11
18.588186660349152
 21
54.254814901063781
 31
0.0
  0
ARC
  5
14EA
  8
0
 10
21.81895589111727
 20
64.519496119191416
 30
0.0
 40
10.10924076103746
 50
249.7438419995832
 51
290.25615800041669
  0
LINE
  5
14EB
  8
0
 10
18.318955891117149
 20
54.410255358153982
 30
0.0
 11
18.588186660349152
 21
54.254814901063781
 31
0.0
  0
LINE
  5
14EC
  8
0
 10
32.318955891117163
 20
54.410255358153982
 30
0.0
 11
32.049725121885132
 21
54.254814901063781
 31
0.0
  0
ARC
  5
14ED
  8
0
 10
28.818955891117039
 20
64.519496119191416
 30
0.0
 40
10.10924076103746
 50
249.7438419995832
 51
290.2561580004168
  0
LINE
  5
14EE
  8
0
 10
83.939206060297892
 20
50.254814901063781
 30
0.0
 11
72.939206060297892
 21
50.254814901063781
 31
0.0
  0
LINE
  5
14EF
  8
0
 10
72.939206060297892
 20
50.254814901063781
 30
0.0
 11
72.939206060297892
 21
54.254814901063781
 31
0.0
  0
LINE
  5
14F0
  8
0
 10
83.939206060297892
 20
50.254814901063781
 30
0.0
 11
83.939206060297892
 21
54.254814901063781
 31
0.0
  0
ARC
  5
14F1
  8
0
 10
78.439206060297892
 20
45.924687882141569
 30
0.0
 40
7.0
 50
141.7867892982633
 51
151.5929507282612
  0
ARC
  5
14F2
  8
0
 10
78.439206060297892
 20
45.924687882141569
 30
0.0
 40
7.0
 50
28.407049271738781
 51
38.213210701736521
  0
LINE
  5
14F3
  8
0
 10
62.439206060297721
 20
39.254814901063767
 30
0.0
 11
66.617033214615816
 21
44.254814901063767
 31
0.0
  0
LINE
  5
14F4
  8
0
 10
66.617033214615816
 20
44.254814901063767
 30
0.0
 11
67.439206060297721
 21
49.254814901063767
 31
0.0
  0
LINE
  5
14F5
  8
0
 10
66.617033214615816
 20
44.254814901063767
 30
0.0
 11
90.261378905979626
 21
44.254814901063767
 31
0.0
  0
LINE
  5
14F6
  8
0
 10
62.439206060297693
 20
34.754814901063767
 30
0.0
 11
62.439206060297693
 21
39.254814901063853
 31
0.0
  0
LINE
  5
14F7
  8
0
 10
94.439206060297678
 20
34.754814901063767
 30
0.0
 11
94.439206060297678
 21
39.254814901063853
 31
0.0
  0
LINE
  5
14F8
  8
0
 10
93.939206060297678
 20
31.25481490106376
 30
0.0
 11
62.939206060297693
 21
31.25481490106376
 31
0.0
  0
LINE
  5
14F9
  8
0
 10
93.939206060297678
 20
34.254814901063781
 30
0.0
 11
62.939206060297693
 21
34.254814901063781
 31
0.0
  0
LINE
  5
14FA
  8
0
 10
94.439206060297678
 20
39.254814901063767
 30
0.0
 11
62.439206060297721
 21
39.254814901063767
 31
0.0
  0
LINE
  5
14FB
  8
0
 10
89.439206060297735
 20
49.254814901063767
 30
0.0
 11
67.439206060297721
 21
49.25481490106376
 31
0.0
  0
LINE
  5
14FC
  8
0
 10
62.939206060297693
 20
34.254814901063781
 30
0.0
 11
62.939206060297693
 21
31.25481490106376
 31
0.0
  0
LINE
  5
14FD
  8
0
 10
93.939206060297678
 20
31.25481490106376
 30
0.0
 11
93.939206060297678
 21
34.254814901063781
 31
0.0
  0
LINE
  5
14FE
  8
0
 10
62.439206060297693
 20
34.754814901063767
 30
0.0
 11
62.939206060297693
 21
34.254814901063781
 31
0.0
  0
LINE
  5
14FF
  8
0
 10
93.939206060297678
 20
34.254814901063781
 30
0.0
 11
94.439206060297678
 21
34.754814901063767
 31
0.0
  0
LINE
  5
1500
  8
0
 10
94.439206060297678
 20
39.254814901063767
 30
0.0
 11
90.261378905979626
 21
44.254814901063767
 31
0.0
  0
LINE
  5
1501
  8
0
 10
90.261378905979626
 20
44.254814901063767
 30
0.0
 11
89.439206060297735
 21
49.254814901063767
 31
0.0
  0
LINE
  5
1502
  8
0
 10
85.169975291065626
 20
54.254814901063902
 30
0.0
 11
71.708436829529859
 21
54.254814901063902
 31
0.0
  0
LINE
  5
1503
  8
0
 10
71.708436829528409
 20
59.254814901063781
 30
0.0
 11
85.169975291065384
 21
59.254814901063781
 31
0.0
  0
ARC
  5
1504
  8
0
 10
84.501383886788574
 20
55.521222596181111
 30
0.0
 40
3.5781518477924039
 50
64.384247467826086
 51
124.3842474680382
  0
LINE
  5
1505
  8
0
 10
86.522109828952367
 20
58.474159661634239
 30
0.0
 11
85.169975291065626
 21
59.254814901063781
 31
0.0
  0
LINE
  5
1506
  8
0
 10
86.522109828952367
 20
55.035470140493452
 30
0.0
 11
85.169975291065626
 21
54.254814901063902
 31
0.0
  0
ARC
  5
1507
  8
0
 10
84.501383886788574
 20
57.988407205946572
 30
0.0
 40
3.5781518477924039
 50
235.61575253196179
 51
295.61575253217387
  0
LINE
  5
1508
  8
0
 10
86.522109828952367
 20
58.474159661634282
 30
0.0
 11
86.522109828952367
 21
55.035470140493452
 31
0.0
  0
LINE
  5
1509
  8
0
 10
82.480657944623232
 20
58.474159661634779
 30
0.0
 11
82.480657944625008
 21
55.035470140495107
 31
0.0
  0
LINE
  5
150A
  8
0
 10
74.397754175971983
 20
58.474159661633067
 30
0.0
 11
74.397754175970221
 21
55.035470140495107
 31
0.0
  0
LINE
  5
150B
  8
0
 10
70.356302291642834
 20
58.474159661634239
 30
0.0
 11
70.356302291642834
 21
55.035470140493452
 31
0.0
  0
ARC
  5
150C
  8
0
 10
78.439206060298602
 20
67.785040575807926
 30
0.0
 40
13.374785217653811
 50
252.4120462259954
 51
287.58795377400281
  0
ARC
  5
150D
  8
0
 10
72.377028233806641
 20
57.988407205946572
 30
0.0
 40
3.5781518477924039
 50
244.3842474678261
 51
304.38424746803821
  0
LINE
  5
150E
  8
0
 10
70.356302291642834
 20
55.035470140493452
 30
0.0
 11
71.708436829529631
 21
54.254814901063902
 31
0.0
  0
LINE
  5
150F
  8
0
 10
70.356302291642834
 20
58.474159661634239
 30
0.0
 11
71.708436829529631
 21
59.254814901063781
 31
0.0
  0
ARC
  5
1510
  8
0
 10
78.439206060298602
 20
45.72458922631975
 30
0.0
 40
13.374785217653811
 50
72.412046225997088
 51
107.5879537740046
  0
ARC
  5
1511
  8
0
 10
72.377028233806641
 20
55.521222596181111
 30
0.0
 40
3.5781518477924039
 50
55.615752531961753
 51
115.6157525321739
  0
CIRCLE
  5
1568
  8
0
 10
25.31895589111722
 20
133.54114127307869
 30
0.0
 40
11.82217284568179
  0
LINE
  5
175B
  8
0
 10
78.43920606029566
 20
79.117633990438719
 30
0.0
 11
78.439206060297735
 21
71.391995811689654
 31
0.0
  0
TEXT
  5
18B2
  8
0
 62
     3
 10
0.0
 20
0.0
 30
0.0
 40
10.0
  1
LSAR32S12A-SUS
  7
STANDARD1
  0
ENDSEC
  0
EOF
