  0
SECTION
  2
HEADER
  9
$ACADVER
  1
AC1009
  9
$INSBASE
 10
0.0
 20
0.0
 30
0.0
  9
$EXTMIN
 10
0.0
 20
-2.960436562073669
 30
0.0
  9
$EXTMAX
 10
120.35470668485669
 20
208.88094285282091
 30
0.0
  9
$LIMMIN
 10
0.0
 20
0.0
  9
$LIMMAX
 10
375.0
 20
270.0
  9
$ORTHOMODE
 70
     1
  9
$REGENMODE
 70
     1
  9
$FILLMODE
 70
     1
  9
$QTEXTMODE
 70
     0
  9
$MIRRTEXT
 70
     0
  9
$DRAGMODE
 70
     2
  9
$LTSCALE
 40
6.0
  9
$OSMODE
 70
    37
  9
$ATTMODE
 70
     1
  9
$TEXTSIZE
 40
0.2
  9
$TRACEWID
 40
0.05
  9
$TEXTSTYLE
  7
STANDARD
  9
$CLAYER
  8
0
  9
$CELTYPE
  6
BYLAYER
  9
$CECOLOR
 62
   256
  9
$DIMSCALE
 40
1.0
  9
$DIMASZ
 40
3.0
  9
$DIMEXO
 40
1.0
  9
$DIMDLI
 40
6.0
  9
$DIMRND
 40
0.0
  9
$DIMDLE
 40
0.0
  9
$DIMEXE
 40
1.0
  9
$DIMTP
 40
495.0
  9
$DIMTM
 40
0.0
  9
$DIMTXT
 40
3.0
  9
$DIMCEN
 40
0.0
  9
$DIMTSZ
 40
0.0
  9
$DIMTOL
 70
     0
  9
$DIMLIM
 70
     0
  9
$DIMTIH
 70
     0
  9
$DIMTOH
 70
     0
  9
$DIMSE1
 70
     0
  9
$DIMSE2
 70
     0
  9
$DIMTAD
 70
     1
  9
$DIMZIN
 70
     0
  9
$DIMBLK
  1

  9
$DIMASO
 70
     0
  9
$DIMSHO
 70
     0
  9
$DIMPOST
  1

  9
$DIMAPOST
  1

  9
$DIMALT
 70
     0
  9
$DIMALTD
 70
     2
  9
$DIMALTF
 40
25.399999999999999
  9
$DIMLFAC
 40
1.0
  9
$DIMTOFL
 70
     1
  9
$DIMTVP
 40
0.0
  9
$DIMTIX
 70
     1
  9
$DIMSOXD
 70
     0
  9
$DIMSAH
 70
     0
  9
$DIMBLK1
  1

  9
$DIMBLK2
  1

  9
$DIMSTYLE
  2
STANDARD
  9
$DIMCLRD
 70
     0
  9
$DIMCLRE
 70
     0
  9
$DIMCLRT
 70
     4
  9
$DIMTFAC
 40
1.0
  9
$DIMGAP
 40
1.0
  9
$LUNITS
 70
     2
  9
$LUPREC
 70
     4
  9
$SKETCHINC
 40
0.1
  9
$FILLETRAD
 40
2.0
  9
$AUNITS
 70
     0
  9
$AUPREC
 70
     0
  9
$MENU
  1
C:\R13\WIN\SUPPORT\ACAD-I
  9
$ELEVATION
 40
0.0
  9
$PELEVATION
 40
0.0
  9
$THICKNESS
 40
0.0
  9
$LIMCHECK
 70
     0
  9
$BLIPMODE
 70
     0
  9
$CHAMFERA
 40
0.0
  9
$CHAMFERB
 40
0.0
  9
$SKPOLY
 70
     0
  9
$TDCREATE
 40
2451961.7081041778
  9
$TDUPDATE
 40
2456598.718166979
  9
$TDINDWG
 40
0.0554997106
  9
$TDUSRTIMER
 40
2456598.0177661111
  9
$USRTIMER
 70
     1
  9
$ANGBASE
 50
0.0
  9
$ANGDIR
 70
     0
  9
$PDMODE
 70
     0
  9
$PDSIZE
 40
0.0
  9
$PLINEWID
 40
0.0
  9
$COORDS
 70
     1
  9
$SPLFRAME
 70
     0
  9
$SPLINETYPE
 70
     6
  9
$SPLINESEGS
 70
     8
  9
$ATTDIA
 70
     0
  9
$ATTREQ
 70
     1
  9
$HANDLING
 70
     1
  9
$HANDSEED
  5
1C16
  9
$SURFTAB1
 70
     6
  9
$SURFTAB2
 70
     6
  9
$SURFTYPE
 70
     6
  9
$SURFU
 70
     6
  9
$SURFV
 70
     6
  9
$UCSNAME
  2

  9
$UCSORG
 10
0.0
 20
0.0
 30
0.0
  9
$UCSXDIR
 10
1.0
 20
0.0
 30
0.0
  9
$UCSYDIR
 10
0.0
 20
1.0
 30
0.0
  9
$PUCSNAME
  2

  9
$PUCSORG
 10
0.0
 20
0.0
 30
0.0
  9
$PUCSXDIR
 10
1.0
 20
0.0
 30
0.0
  9
$PUCSYDIR
 10
0.0
 20
1.0
 30
0.0
  9
$USERI1
 70
     4
  9
$USERI2
 70
     1
  9
$USERI3
 70
     0
  9
$USERI4
 70
     0
  9
$USERI5
 70
     0
  9
$USERR1
 40
1.0
  9
$USERR2
 40
3.0
  9
$USERR3
 40
3.0
  9
$USERR4
 40
3.0
  9
$USERR5
 40
10.0
  9
$WORLDVIEW
 70
     1
  9
$SHADEDGE
 70
     3
  9
$SHADEDIF
 70
    70
  9
$TILEMODE
 70
     1
  9
$MAXACTVP
 70
    16
  9
$PLIMCHECK
 70
     0
  9
$PEXTMIN
 10
1.0000000000000000E+020
 20
1.0000000000000000E+020
 30
1.0000000000000000E+020
  9
$PEXTMAX
 10
-1.0000000000000000E+020
 20
-1.0000000000000000E+020
 30
-1.0000000000000000E+020
  9
$PLIMMIN
 10
0.0
 20
0.0
  9
$PLIMMAX
 10
12.0
 20
9.0
  9
$UNITMODE
 70
     0
  9
$VISRETAIN
 70
     0
  9
$PLINEGEN
 70
     0
  9
$PSLTSCALE
 70
     0
  0
ENDSEC
  0
SECTION
  2
TABLES
  0
TABLE
  2
VPORT
 70
     1
  0
VPORT
  2
*ACTIVE
 70
     0
 10
0.0
 20
0.0
 11
1.0
 21
1.0
 12
187.49427839065231
 22
177.52205812711131
 13
0.0
 23
0.0
 14
10.0
 24
10.0
 15
10.0
 25
10.0
 16
0.0
 26
0.0
 36
1.0
 17
0.0
 27
0.0
 37
0.0
 40
364.13085016302909
 41
1.755244755244755
 42
50.0
 43
0.0
 44
0.0
 50
0.0
 51
0.0
 71
    16
 72
   100
 73
     1
 74
     0
 75
     0
 76
     0
 77
     0
 78
     0
  0
ENDTAB
  0
TABLE
  2
LTYPE
 70
     3
  0
LTYPE
  2
CONTINUOUS
 70
     0
  3
Solid Line
 72
    65
 73
     0
 40
0.0
  0
LTYPE
  2
PHANTOM2
 70
     0
  3
___ _ _ ___ _ _ ___ _ _ ___ _ _
 72
    65
 73
     6
 40
1.25
 49
0.625
 49
-0.125
 49
0.125
 49
-0.125
 49
0.125
 49
-0.125
  0
LTYPE
  2
CENTER
 70
     0
  3
____ _ ____ _ ____ _ ____ _ ____ _ ____ _ ____
 72
    65
 73
     4
 40
2.0
 49
1.25
 49
-0.25
 49
0.25
 49
-0.25
  0
ENDTAB
  0
TABLE
  2
LAYER
 70
     3
  0
LAYER
  2
0
 70
     0
 62
     7
  6
CONTINUOUS
  0
LAYER
  2
1
 70
     0
 62
     1
  6
CENTER
  0
LAYER
  2
3
 70
     0
 62
     3
  6
CONTINUOUS
  0
ENDTAB
  0
TABLE
  2
STYLE
 70
     3
  0
STYLE
  2
STANDARD
 70
     0
 40
0.0
 41
1.0
 50
0.0
 71
     0
 42
0.2
  3
SIMPLEX
  4
BIGFONT
  0
STYLE
  2
ANNOTATIVE
 70
     0
 40
0.0
 41
1.0
 50
0.0
 71
     0
 42
0.2
  3
txt
  4

  0
STYLE
  2
STANDARD1
 70
     0
 40
0.0
 41
1.0
 50
0.0
 71
     0
 42
3.0
  3
txt
  4

  0
ENDTAB
  0
TABLE
  2
VIEW
 70
     0
  0
ENDTAB
  0
TABLE
  2
UCS
 70
     0
  0
ENDTAB
  0
TABLE
  2
APPID
 70
    29
  0
APPID
  2
ACAD
 70
     0
  0
APPID
  2
ACADANNOTATIVE
 70
     0
  0
APPID
  2
GENIUS_GENOREF_13
 70
     0
  0
APPID
  2
GENIUS_GENOENT_13
 70
     0
  0
APPID
  2
GENIUS_GENBH_13
 70
     0
  0
APPID
  2
GENIUS_GENOBJ_13
 70
     0
  0
APPID
  2
GENIUS_GENODEF_13
 70
     0
  0
APPID
  2
GENIUS_GENOLIS_13
 70
     0
  0
APPID
  2
GENIUS_GENOBJ-NBEHI-BHF_13
 70
     0
  0
APPID
  2
GENIUS_GENOBJ-NBEHI-BHB_13
 70
     0
  0
APPID
  2
GENIUS_GENOBJ-F-PART_13
 70
     0
  0
APPID
  2
GENIUS_GEFSTDP_13
 70
     0
  0
APPID
  2
GENIUS_GENOBJ-N-RSSYM_13
 70
     0
  0
APPID
  2
GENIUS_GENSYMENT_13
 70
     0
  0
APPID
  2
GENIUS_GENOBJ-N-TIT_13
 70
     0
  0
APPID
  2
GENIUS_GENTITLE_13
 70
     0
  0
APPID
  2
GENIUS_GENZVEED_13
 70
     0
  0
APPID
  2
GENIUS_GENOBJ-N-LEADER_13
 70
     0
  0
APPID
  2
GENIUS_GENOBJ-N-FIL_13
 70
     0
  0
APPID
  2
GENIUS_GENOBJ-N-SEC_13
 70
     0
  0
APPID
  2
GENIUS_GENOBJ-N-CRS_13
 70
     0
  0
APPID
  2
GENIUS_GENOBJ-N-ZOO_13
 70
     0
  0
APPID
  2
GENIUS_GENZOO_13
 70
     0
  0
APPID
  2
GENIUS_GENOBJ-F-TOL_13
 70
     0
  0
APPID
  2
GENIUS_GENFIL_13
 70
     0
  0
APPID
  2
GENIUS_GENOBJ-N-CHA_13
 70
     0
  0
APPID
  2
ACAD_MLEADERVER
 70
     0
  0
APPID
  2
ACAD_EXEMPT_FROM_CAD_STANDARDS
 70
     0
  0
APPID
  2
ACAD_NAV_VCDISPLAY
 70
     0
  0
ENDTAB
  0
TABLE
  2
DIMSTYLE
 70
     2
  0
DIMSTYLE
  2
STANDARD
 70
     0
  3

  4

  5

  6

  7

 40
1.0
 41
0.18
 42
0.0625
 43
0.38
 44
0.18
 45
0.0
 46
0.0
 47
0.0
 48
0.0
140
0.18
141
0.09
142
0.0
143
25.399999999999999
144
1.0
145
0.0
146
1.0
147
0.09
 71
     0
 72
     0
 73
     1
 74
     1
 75
     0
 76
     0
 77
     0
 78
     0
170
     0
171
     2
172
     0
173
     0
174
     0
175
     0
176
     0
177
     0
178
     0
  0
DIMSTYLE
  2
ANNOTATIVE
 70
     0
  3

  4

  5

  6

  7

 40
1.0
 41
0.18
 42
0.0625
 43
0.38
 44
0.18
 45
0.0
 46
0.0
 47
0.0
 48
0.0
140
0.18
141
0.09
142
0.0
143
25.399999999999999
144
1.0
145
0.0
146
1.0
147
0.09
 71
     0
 72
     0
 73
     1
 74
     1
 75
     0
 76
     0
 77
     0
 78
     0
170
     0
171
     2
172
     0
173
     0
174
     0
175
     0
176
     0
177
     0
178
     0
  0
ENDTAB
  0
ENDSEC
  0
SECTION
  2
BLOCKS
  0
BLOCK
  8
0
  2
$MODEL_SPACE
 70
     0
 10
0.0
 20
0.0
 30
0.0
  3
$MODEL_SPACE
  1

  0
ENDBLK
  5
1ADD
  8
0
  0
BLOCK
 67
     1
  8
0
  2
$PAPER_SPACE
 70
     0
 10
0.0
 20
0.0
 30
0.0
  3
$PAPER_SPACE
  1

  0
ENDBLK
  5
1AD9
 67
     1
  8
0
  0
ENDSEC
  0
SECTION
  2
ENTITIES
  0
LINE
  5
14FC
  8
0
 10
15.72613687587852
 20
189.88094285282099
 30
0.0
 11
21.210964433180042
 21
180.38094285282099
 31
0.0
  0
LINE
  5
14FD
  8
0
 10
21.210964433180148
 20
199.38094285282099
 30
0.0
 11
15.72613687587852
 21
189.88094285282099
 31
0.0
  0
LINE
  5
14FE
  8
0
 10
32.18061954778296
 20
199.38094285282099
 30
0.0
 11
21.210964433180148
 21
199.38094285282099
 31
0.0
  0
LINE
  5
14FF
  8
0
 10
37.66544710508424
 20
189.88094285282099
 30
0.0
 11
32.18061954778296
 21
199.38094285282099
 31
0.0
  0
LINE
  5
1500
  8
0
 10
32.180619547782733
 20
180.38094285282099
 30
0.0
 11
37.66544710508424
 21
189.88094285282099
 31
0.0
  0
CIRCLE
  5
1501
  8
3
 10
26.695791990481439
 20
189.88094285282099
 30
0.0
 40
5.052999999999999
  0
CIRCLE
  5
1502
  8
0
 10
26.695791990481439
 20
189.88094285282099
 30
0.0
 40
6.0
  0
CIRCLE
  5
1503
  8
0
 10
26.695791990481439
 20
189.88094285282099
 30
0.0
 40
9.0
  0
LINE
  5
1504
  8
0
 10
21.210964433180042
 20
180.38094285282099
 30
0.0
 11
32.180619547782733
 21
180.38094285282099
 31
0.0
  0
LINE
  5
1505
  8
1
 10
45.695791990481432
 20
189.88094285282099
 30
0.0
 11
7.6957919904815499
 21
189.88094285282099
 31
0.0
  0
LINE
  5
1506
  8
1
 10
26.695791990481439
 20
208.88094285282091
 30
0.0
 11
26.695791990481439
 21
170.88094285282111
 31
0.0
  0
LINE
  5
1507
  8
0
 10
20.695791990481439
 20
80.594616480806124
 30
0.0
 11
20.695791990481439
 21
155.59461648080611
 31
0.0
  0
LINE
  5
1508
  8
3
 10
21.642791990481442
 20
80.594616480806124
 30
0.0
 11
21.642791990481559
 21
156.54161648080611
 31
0.0
  0
LINE
  5
1509
  8
3
 10
31.74879199048155
 20
80.594616480806124
 30
0.0
 11
31.74879199048155
 21
156.541616480806
 31
0.0
  0
LINE
  5
150A
  8
0
 10
32.695791990481453
 20
80.594616480806124
 30
0.0
 11
32.695791990481453
 21
155.59461648080611
 31
0.0
  0
LINE
  5
150B
  8
0
 10
32.180619547778747
 20
79.457435570180252
 30
0.0
 11
32.18061954778284
 21
71.731797391431456
 31
0.0
  0
LINE
  5
150C
  8
0
 10
37.665447105084567
 20
79.457435570180252
 30
0.0
 11
37.665447105084567
 21
71.731797391431684
 31
0.0
  0
LINE
  5
150D
  8
0
 10
21.210964433184358
 20
79.457435570180252
 30
0.0
 11
21.210964433180269
 21
71.731797391431456
 31
0.0
  0
LINE
  5
150E
  8
0
 10
15.72613687587852
 20
79.457435570180252
 30
0.0
 11
15.72613687587852
 21
71.731797391431684
 31
0.0
  0
LINE
  5
150F
  8
0
 10
15.72613687587852
 20
71.731797391431925
 30
0.0
 11
17.695791990480188
 21
70.59461648080611
 31
0.0
  0
ARC
  5
1510
  8
0
 10
18.468550654529171
 20
75.73935483740938
 30
0.0
 40
4.8560632220084567
 50
244.3842474680873
 51
304.3842474680165
  0
ARC
  5
1511
  8
0
 10
26.695791990481549
 20
89.034785839386416
 30
0.0
 40
18.15149422398537
 50
252.41204622603641
 51
287.5879537739637
  0
ARC
  5
1512
  8
0
 10
34.923033326433938
 20
75.73935483740938
 30
0.0
 40
4.8560632220084567
 50
235.6157525319833
 51
295.61575253191268
  0
LINE
  5
1513
  8
0
 10
37.665447105084567
 20
71.731797391431925
 30
0.0
 11
35.695791990482931
 21
70.59461648080611
 31
0.0
  0
LINE
  5
1514
  8
0
 10
17.695791990480188
 20
70.59461648080611
 30
0.0
 11
35.695791990482931
 21
70.59461648080611
 31
0.0
  0
LINE
  5
1515
  8
0
 10
17.695791990480188
 20
80.594616480806124
 30
0.0
 11
35.695791990482931
 21
80.594616480806124
 31
0.0
  0
LINE
  5
1516
  8
0
 10
37.665447105084567
 20
79.457435570180252
 30
0.0
 11
35.695791990482931
 21
80.594616480806124
 31
0.0
  0
ARC
  5
1517
  8
0
 10
34.923033326433938
 20
75.449878124202812
 30
0.0
 40
4.8560632220084567
 50
64.384247468087224
 51
124.3842474680164
  0
ARC
  5
1518
  8
0
 10
26.695791990481549
 20
62.15444712222579
 30
0.0
 40
18.15149422398537
 50
72.412046226036338
 51
107.58795377396351
  0
ARC
  5
1519
  8
0
 10
18.468550654529171
 20
75.449878124202812
 30
0.0
 40
4.8560632220084567
 50
55.615752531983411
 51
115.6157525319127
  0
LINE
  5
151A
  8
0
 10
15.72613687587852
 20
79.457435570180252
 30
0.0
 11
17.695791990480188
 21
80.594616480806124
 31
0.0
  0
LINE
  5
151B
  8
0
 10
22.695791990481439
 20
157.59461648080611
 30
0.0
 11
30.695791990481439
 21
157.59461648080611
 31
0.0
  0
LINE
  5
151C
  8
0
 10
32.695791990481453
 20
59.594616480806089
 30
0.0
 11
32.695791990481453
 21
70.59461648080611
 31
0.0
  0
LINE
  5
151D
  8
3
 10
31.74879199048155
 20
61.594616480806089
 30
0.0
 11
31.74879199048155
 21
70.59461648080611
 31
0.0
  0
LINE
  5
151E
  8
3
 10
21.642791990481442
 20
61.594616480806089
 30
0.0
 11
21.642791990481442
 21
70.59461648080611
 31
0.0
  0
LINE
  5
151F
  8
0
 10
20.695791990481439
 20
59.594616480806089
 30
0.0
 11
20.695791990481439
 21
70.59461648080611
 31
0.0
  0
LINE
  5
1520
  8
0
 10
22.695791990481439
 20
157.59461648080611
 30
0.0
 11
20.695791990481439
 21
155.59461648080611
 31
0.0
  0
LINE
  5
1521
  8
0
 10
30.695791990481439
 20
157.59461648080611
 30
0.0
 11
32.695791990481453
 21
155.59461648080611
 31
0.0
  0
LINE
  5
1522
  8
0
 10
20.695791990481439
 20
155.59461648080611
 30
0.0
 11
32.695791990481553
 21
155.59461648080611
 31
0.0
  0
LINE
  5
1523
  8
0
 10
32.695791990481453
 20
61.594616480806089
 30
0.0
 11
20.695791990481439
 21
61.594616480806089
 31
0.0
  0
LINE
  5
1524
  8
3
 10
21.642791990481442
 20
61.594616480806089
 30
0.0
 11
20.695791990481439
 21
59.954364366038398
 31
0.0
  0
LINE
  5
1525
  8
3
 10
31.74879199048144
 20
61.594616480806089
 30
0.0
 11
32.695791990481453
 21
59.954364366038398
 31
0.0
  0
LINE
  5
1538
  8
0
 10
85.816042159661933
 20
80.594616480806124
 30
0.0
 11
85.816042159662075
 21
155.594616480806
 31
0.0
  0
LINE
  5
1539
  8
3
 10
84.869042159662044
 20
80.594616480806124
 30
0.0
 11
84.869042159662044
 21
156.54161648080591
 31
0.0
  0
LINE
  5
153A
  8
0
 10
73.816042159662061
 20
80.594616480806195
 30
0.0
 11
73.816042159662061
 21
155.59461648080611
 31
0.0
  0
LINE
  5
153B
  8
3
 10
74.763042159662064
 20
80.594616480805968
 30
0.0
 11
74.763042159662064
 21
156.54161648080611
 31
0.0
  0
LINE
  5
153C
  8
3
 10
74.763042159662064
 20
61.594616480805982
 30
0.0
 11
73.816042159661947
 21
59.954364366038291
 31
0.0
  0
LINE
  5
153D
  8
0
 10
75.816042159662061
 20
157.59461648080611
 30
0.0
 11
73.816042159662061
 21
155.59461648080611
 31
0.0
  0
LINE
  5
153E
  8
3
 10
74.763042159662064
 20
61.594616480805982
 30
0.0
 11
74.763042159662064
 21
70.59461648080611
 31
0.0
  0
LINE
  5
153F
  8
0
 10
73.816042159661947
 20
59.594616480805982
 30
0.0
 11
73.816042159661947
 21
70.594616480805982
 31
0.0
  0
LINE
  5
1540
  8
3
 10
84.869042159662044
 20
61.594616480805982
 30
0.0
 11
85.816042159661933
 21
59.954364366038291
 31
0.0
  0
LINE
  5
1541
  8
0
 10
85.816042159661933
 20
61.594616480805982
 30
0.0
 11
73.816042159661947
 21
61.594616480805982
 31
0.0
  0
LINE
  5
1542
  8
0
 10
73.816042159662061
 20
155.594616480806
 30
0.0
 11
85.816042159662189
 21
155.594616480806
 31
0.0
  0
LINE
  5
1543
  8
0
 10
83.816042159662061
 20
157.594616480806
 30
0.0
 11
85.816042159662075
 21
155.594616480806
 31
0.0
  0
LINE
  5
1544
  8
3
 10
84.869042159662044
 20
61.594616480805982
 30
0.0
 11
84.869042159662044
 21
70.59461648080611
 31
0.0
  0
LINE
  5
1545
  8
0
 10
85.816042159661933
 20
59.594616480805982
 30
0.0
 11
85.816042159661933
 21
70.59461648080611
 31
0.0
  0
LINE
  5
1546
  8
0
 10
75.816042159662061
 20
157.59461648080611
 30
0.0
 11
83.816042159662061
 21
157.594616480806
 31
0.0
  0
LINE
  5
1548
  8
0
 10
88.816042159661947
 20
70.59461648080611
 30
0.0
 11
70.816042159661933
 21
70.59461648080611
 31
0.0
  0
LINE
  5
1549
  8
0
 10
70.816042159661933
 20
80.594616480806124
 30
0.0
 11
88.816042159661947
 21
80.594616480806124
 31
0.0
  0
LINE
  5
154A
  8
0
 10
70.316042159661933
 20
80.305941346211213
 30
0.0
 11
70.816042159661933
 21
80.594616480806124
 31
0.0
  0
ARC
  5
154B
  8
0
 10
75.066042159661947
 20
66.586257456218092
 30
0.0
 40
13.719683889993171
 50
69.743841999613011
 51
110.256158000387
  0
LINE
  5
154C
  8
0
 10
70.816042159661933
 20
70.59461648080611
 30
0.0
 11
70.316042159661933
 21
70.955088385126174
 31
0.0
  0
LINE
  5
154D
  8
0
 10
70.316042159661933
 20
70.955088385126174
 30
0.0
 11
70.316042159661933
 21
80.305941346211213
 31
0.0
  0
ARC
  5
154E
  8
0
 10
75.066042159661947
 20
84.602975505394099
 30
0.0
 40
13.719683889993171
 50
249.7438419996115
 51
290.25615800038702
  0
ARC
  5
154F
  8
0
 10
84.566042159661933
 20
84.602975505394099
 30
0.0
 40
13.719683889993171
 50
249.7438419996115
 51
290.25615800038702
  0
LINE
  5
1550
  8
0
 10
89.316042159661933
 20
70.955088385126174
 30
0.0
 11
89.316042159661933
 21
80.305941346211213
 31
0.0
  0
LINE
  5
1551
  8
0
 10
88.816042159661947
 20
70.59461648080611
 30
0.0
 11
89.316042159661933
 21
70.955088385126174
 31
0.0
  0
ARC
  5
1552
  8
0
 10
84.566042159661933
 20
66.586257456218092
 30
0.0
 40
13.719683889993171
 50
69.743841999613011
 51
110.256158000387
  0
LINE
  5
1553
  8
0
 10
89.316042159661933
 20
80.305941346211213
 30
0.0
 11
88.816042159661947
 21
80.594616480806124
 31
0.0
  0
LINE
  5
1569
  8
1
 10
79.816042159661947
 20
27.362916968644111
 30
0.0
 11
79.816042159662061
 21
160.36291696864399
 31
0.0
  0
LINE
  5
156A
  8
1
 10
26.695791990481329
 20
27.594616480806099
 30
0.0
 11
26.695791990481439
 21
160.59461648080611
 31
0.0
  0
CIRCLE
  5
156B
  8
0
 10
26.695791990481439
 20
189.88094285282099
 30
0.0
 40
10.999999999999901
  0
CIRCLE
  5
156D
  8
0
 10
26.695791990481439
 20
189.88094285282099
 30
0.0
 40
15.99999999999994
  0
LINE
  5
177A
  8
0
 10
38.517964836163088
 20
44.594616480806053
 30
0.0
 11
37.69579199048119
 21
49.594616480806053
 31
0.0
  0
LINE
  5
177B
  8
0
 10
42.695791990481183
 20
39.594616480806053
 30
0.0
 11
38.517964836163088
 21
44.594616480806053
 31
0.0
  0
LINE
  5
177C
  8
0
 10
42.195791990481183
 20
34.594616480806053
 30
0.0
 11
42.695791990481183
 21
35.094616480806053
 31
0.0
  0
LINE
  5
177D
  8
0
 10
10.69579199048118
 20
35.094616480806053
 30
0.0
 11
11.19579199048118
 21
34.594616480806053
 31
0.0
  0
LINE
  5
177E
  8
0
 10
42.195791990481183
 20
31.594616480806049
 30
0.0
 11
42.195791990481183
 21
34.594616480806053
 31
0.0
  0
LINE
  5
177F
  8
0
 10
11.19579199048118
 20
34.594616480806053
 30
0.0
 11
11.19579199048118
 21
31.594616480806049
 31
0.0
  0
LINE
  5
1780
  8
0
 10
37.69579199048119
 20
49.594616480806053
 30
0.0
 11
15.69579199048118
 21
49.594616480806053
 31
0.0
  0
LINE
  5
1781
  8
0
 10
42.695791990481183
 20
39.594616480806053
 30
0.0
 11
10.69579199048118
 21
39.594616480806053
 31
0.0
  0
LINE
  5
1782
  8
0
 10
42.195791990481183
 20
34.594616480806053
 30
0.0
 11
11.19579199048118
 21
34.594616480806053
 31
0.0
  0
LINE
  5
1783
  8
0
 10
42.195791990481183
 20
31.594616480806049
 30
0.0
 11
11.19579199048118
 21
31.594616480806049
 31
0.0
  0
LINE
  5
1784
  8
0
 10
42.695791990481183
 20
35.094616480806053
 30
0.0
 11
42.695791990481183
 21
39.594616480806138
 31
0.0
  0
LINE
  5
1785
  8
0
 10
10.69579199048118
 20
35.094616480806053
 30
0.0
 11
10.69579199048118
 21
39.594616480806138
 31
0.0
  0
LINE
  5
1786
  8
0
 10
14.87361914479928
 20
44.594616480806053
 30
0.0
 11
38.517964836163088
 21
44.594616480806053
 31
0.0
  0
LINE
  5
1787
  8
0
 10
14.87361914479928
 20
44.594616480806053
 30
0.0
 11
15.69579199048118
 21
49.594616480806053
 31
0.0
  0
LINE
  5
1788
  8
0
 10
10.69579199048118
 20
39.594616480806053
 30
0.0
 11
14.87361914479928
 21
44.594616480806053
 31
0.0
  0
ARC
  5
1789
  8
0
 10
26.69579199048135
 20
46.264489461883848
 30
0.0
 40
7.0
 50
28.407049271739069
 51
38.213210701736898
  0
ARC
  5
178A
  8
0
 10
26.69579199048135
 20
46.264489461883848
 30
0.0
 40
7.0
 50
141.78678929826339
 51
151.5929507282612
  0
LINE
  5
178B
  8
0
 10
32.195791990481361
 20
50.59461648080606
 30
0.0
 11
32.195791990481361
 21
54.594616480806067
 31
0.0
  0
LINE
  5
178C
  8
0
 10
21.195791990481361
 20
50.59461648080606
 30
0.0
 11
21.195791990481361
 21
54.594616480806067
 31
0.0
  0
LINE
  5
178D
  8
0
 10
32.195791990481361
 20
50.59461648080606
 30
0.0
 11
21.195791990481361
 21
50.59461648080606
 31
0.0
  0
LINE
  5
178E
  8
0
 10
26.69579199048124
 20
58.813961241376617
 30
0.0
 11
26.695791990481212
 21
55.375271720235489
 31
0.0
  0
LINE
  5
178F
  8
0
 10
19.69579199048124
 20
59.439176023715802
 30
0.0
 11
19.69579199048124
 21
54.750056937896282
 31
0.0
  0
LINE
  5
1790
  8
0
 10
33.69579199048124
 20
59.439176023715802
 30
0.0
 11
33.69579199048124
 21
54.750056937896282
 31
0.0
  0
LINE
  5
1791
  8
0
 10
33.42656122124923
 20
59.594616480806067
 30
0.0
 11
19.965022759713229
 21
59.594616480806067
 31
0.0
  0
ARC
  5
1792
  8
0
 10
23.19579199048135
 20
49.329935262678397
 30
0.0
 40
10.10924076103746
 50
69.743841999583211
 51
110.2561580004167
  0
LINE
  5
1793
  8
0
 10
19.69579199048124
 20
59.439176023715802
 30
0.0
 11
19.965022759713229
 21
59.594616480806067
 31
0.0
  0
LINE
  5
1794
  8
0
 10
33.69579199048124
 20
59.439176023715802
 30
0.0
 11
33.42656122124923
 21
59.594616480806067
 31
0.0
  0
ARC
  5
1795
  8
0
 10
30.19579199048113
 20
49.329935262678397
 30
0.0
 40
10.10924076103746
 50
69.743841999583225
 51
110.2561580004167
  0
LINE
  5
1796
  8
0
 10
33.42656122124923
 20
54.594616480806067
 30
0.0
 11
19.965022759713229
 21
54.594616480806067
 31
0.0
  0
ARC
  5
1797
  8
0
 10
23.19579199048135
 20
64.859297698933688
 30
0.0
 40
10.10924076103746
 50
249.74384199958311
 51
290.2561580004168
  0
LINE
  5
1798
  8
0
 10
19.69579199048124
 20
54.750056937896282
 30
0.0
 11
19.965022759713229
 21
54.594616480806067
 31
0.0
  0
LINE
  5
1799
  8
0
 10
33.69579199048124
 20
54.750056937896282
 30
0.0
 11
33.42656122124923
 21
54.594616480806067
 31
0.0
  0
ARC
  5
179A
  8
0
 10
30.19579199048113
 20
64.859297698933688
 30
0.0
 40
10.10924076103746
 50
249.74384199958311
 51
290.25615800041692
  0
LINE
  5
179B
  8
0
 10
85.316042159661976
 20
50.59461648080606
 30
0.0
 11
74.316042159661976
 21
50.59461648080606
 31
0.0
  0
LINE
  5
179C
  8
0
 10
74.316042159661976
 20
50.59461648080606
 30
0.0
 11
74.316042159661976
 21
54.594616480806067
 31
0.0
  0
LINE
  5
179D
  8
0
 10
85.316042159661976
 20
50.59461648080606
 30
0.0
 11
85.316042159661976
 21
54.594616480806067
 31
0.0
  0
ARC
  5
179E
  8
0
 10
79.816042159661976
 20
46.264489461883848
 30
0.0
 40
7.0
 50
141.7867892982633
 51
151.5929507282612
  0
ARC
  5
179F
  8
0
 10
79.816042159661976
 20
46.264489461883848
 30
0.0
 40
7.0
 50
28.407049271739101
 51
38.213210701736898
  0
LINE
  5
17A0
  8
0
 10
63.816042159661812
 20
39.594616480806053
 30
0.0
 11
67.993869313979886
 21
44.594616480806053
 31
0.0
  0
LINE
  5
17A1
  8
0
 10
67.993869313979886
 20
44.594616480806053
 30
0.0
 11
68.816042159661805
 21
49.594616480806053
 31
0.0
  0
LINE
  5
17A2
  8
0
 10
67.993869313979886
 20
44.594616480806053
 30
0.0
 11
91.638215005343682
 21
44.594616480806053
 31
0.0
  0
LINE
  5
17A3
  8
0
 10
63.81604215966177
 20
35.094616480806053
 30
0.0
 11
63.81604215966177
 21
39.594616480806138
 31
0.0
  0
LINE
  5
17A4
  8
0
 10
95.816042159661777
 20
35.094616480806053
 30
0.0
 11
95.816042159661777
 21
39.594616480806138
 31
0.0
  0
LINE
  5
17A5
  8
0
 10
95.316042159661777
 20
31.594616480806049
 30
0.0
 11
64.316042159661777
 21
31.594616480806049
 31
0.0
  0
LINE
  5
17A6
  8
0
 10
95.316042159661777
 20
34.594616480806053
 30
0.0
 11
64.316042159661777
 21
34.594616480806053
 31
0.0
  0
LINE
  5
17A7
  8
0
 10
95.816042159661777
 20
39.594616480806053
 30
0.0
 11
63.816042159661812
 21
39.594616480806053
 31
0.0
  0
LINE
  5
17A8
  8
0
 10
90.816042159661777
 20
49.594616480806053
 30
0.0
 11
68.816042159661805
 21
49.594616480806053
 31
0.0
  0
LINE
  5
17A9
  8
0
 10
64.316042159661777
 20
34.594616480806053
 30
0.0
 11
64.316042159661777
 21
31.594616480806049
 31
0.0
  0
LINE
  5
17AA
  8
0
 10
95.316042159661777
 20
31.594616480806049
 30
0.0
 11
95.316042159661777
 21
34.594616480806053
 31
0.0
  0
LINE
  5
17AB
  8
0
 10
63.81604215966177
 20
35.094616480806053
 30
0.0
 11
64.316042159661777
 21
34.594616480806053
 31
0.0
  0
LINE
  5
17AC
  8
0
 10
95.316042159661777
 20
34.594616480806053
 30
0.0
 11
95.816042159661777
 21
35.094616480806053
 31
0.0
  0
LINE
  5
17AD
  8
0
 10
95.816042159661777
 20
39.594616480806053
 30
0.0
 11
91.638215005343682
 21
44.594616480806053
 31
0.0
  0
LINE
  5
17AE
  8
0
 10
91.638215005343682
 20
44.594616480806053
 30
0.0
 11
90.816042159661777
 21
49.594616480806053
 31
0.0
  0
LINE
  5
17AF
  8
0
 10
86.546811390429696
 20
54.594616480806181
 30
0.0
 11
73.085272928893943
 21
54.594616480806181
 31
0.0
  0
LINE
  5
17B0
  8
0
 10
73.085272928892493
 20
59.594616480806067
 30
0.0
 11
86.546811390429468
 21
59.594616480806067
 31
0.0
  0
ARC
  5
17B1
  8
0
 10
85.878219986152658
 20
55.86102417592339
 30
0.0
 40
3.5781518477924039
 50
64.384247467826086
 51
124.3842474680382
  0
LINE
  5
17B2
  8
0
 10
87.898945928316479
 20
58.813961241376532
 30
0.0
 11
86.546811390429696
 21
59.594616480806067
 31
0.0
  0
LINE
  5
17B3
  8
0
 10
87.898945928316479
 20
55.375271720235752
 30
0.0
 11
86.546811390429696
 21
54.594616480806181
 31
0.0
  0
ARC
  5
17B4
  8
0
 10
85.878219986152658
 20
58.328208785688851
 30
0.0
 40
3.5781518477924039
 50
235.61575253196179
 51
295.61575253217387
  0
LINE
  5
17B5
  8
0
 10
87.898945928316465
 20
58.81396124137656
 30
0.0
 11
87.898945928316479
 21
55.375271720235752
 31
0.0
  0
LINE
  5
17B6
  8
0
 10
83.857494043987344
 20
58.813961241377072
 30
0.0
 11
83.857494043989092
 21
55.3752717202374
 31
0.0
  0
LINE
  5
17B7
  8
0
 10
75.774590275336067
 20
58.813961241375367
 30
0.0
 11
75.774590275334305
 21
55.3752717202374
 31
0.0
  0
LINE
  5
17B8
  8
0
 10
71.733138391006918
 20
58.813961241376532
 30
0.0
 11
71.733138391006918
 21
55.375271720235752
 31
0.0
  0
ARC
  5
17B9
  8
0
 10
79.816042159662686
 20
68.124842155550212
 30
0.0
 40
13.374785217653811
 50
252.4120462259954
 51
287.58795377400293
  0
ARC
  5
17BA
  8
0
 10
73.753864333170725
 20
58.328208785688851
 30
0.0
 40
3.5781518477924039
 50
244.3842474678261
 51
304.38424746803821
  0
LINE
  5
17BB
  8
0
 10
71.733138391006918
 20
55.375271720235752
 30
0.0
 11
73.085272928893701
 21
54.594616480806181
 31
0.0
  0
LINE
  5
17BC
  8
0
 10
71.733138391006918
 20
58.813961241376532
 30
0.0
 11
73.085272928893701
 21
59.594616480806067
 31
0.0
  0
ARC
  5
17BD
  8
0
 10
79.816042159662686
 20
46.064390806062029
 30
0.0
 40
13.374785217653811
 50
72.412046225997088
 51
107.5879537740046
  0
ARC
  5
17BE
  8
0
 10
73.753864333170725
 20
55.86102417592339
 30
0.0
 40
3.5781518477924039
 50
55.615752531961753
 51
115.6157525321739
  0
CIRCLE
  5
1813
  8
0
 10
26.695791990481439
 20
189.88094285282099
 30
0.0
 40
11.822172845681649
  0
LINE
  5
1A06
  8
0
 10
79.816042159663652
 20
71.731797391431314
 30
0.0
 11
79.816042159661947
 21
79.457435570180223
 31
0.0
  0
TEXT
  5
1B5D
  8
0
 62
     3
 10
0.0
 20
0.0
 30
0.0
 40
10.0
  1
LSAR32S12C-SUS
  7
STANDARD1
  0
ENDSEC
  0
EOF
