  0
SECTION
  2
HEADER
  9
$ACADVER
  1
AC1009
  9
$INSBASE
 10
0.0
 20
0.0
 30
0.0
  9
$EXTMIN
 10
0.0
 20
-2.960436562073669
 30
0.0
  9
$EXTMAX
 10
119.5839017735334
 20
219.521674644039
 30
0.0
  9
$LIMMIN
 10
0.0
 20
0.0
  9
$LIMMAX
 10
375.0
 20
270.0
  9
$ORTHOMODE
 70
     1
  9
$REGENMODE
 70
     1
  9
$FILLMODE
 70
     1
  9
$QTEXTMODE
 70
     0
  9
$MIRRTEXT
 70
     0
  9
$DRAGMODE
 70
     2
  9
$LTSCALE
 40
6.0
  9
$OSMODE
 70
    37
  9
$ATTMODE
 70
     1
  9
$TEXTSIZE
 40
0.2
  9
$TRACEWID
 40
0.05
  9
$TEXTSTYLE
  7
STANDARD
  9
$CLAYER
  8
0
  9
$CELTYPE
  6
BYLAYER
  9
$CECOLOR
 62
   256
  9
$DIMSCALE
 40
1.0
  9
$DIMASZ
 40
3.0
  9
$DIMEXO
 40
1.0
  9
$DIMDLI
 40
6.0
  9
$DIMRND
 40
0.0
  9
$DIMDLE
 40
0.0
  9
$DIMEXE
 40
1.0
  9
$DIMTP
 40
495.0
  9
$DIMTM
 40
0.0
  9
$DIMTXT
 40
3.0
  9
$DIMCEN
 40
0.0
  9
$DIMTSZ
 40
0.0
  9
$DIMTOL
 70
     0
  9
$DIMLIM
 70
     0
  9
$DIMTIH
 70
     0
  9
$DIMTOH
 70
     0
  9
$DIMSE1
 70
     0
  9
$DIMSE2
 70
     0
  9
$DIMTAD
 70
     1
  9
$DIMZIN
 70
     0
  9
$DIMBLK
  1

  9
$DIMASO
 70
     0
  9
$DIMSHO
 70
     0
  9
$DIMPOST
  1

  9
$DIMAPOST
  1

  9
$DIMALT
 70
     0
  9
$DIMALTD
 70
     2
  9
$DIMALTF
 40
25.399999999999999
  9
$DIMLFAC
 40
1.0
  9
$DIMTOFL
 70
     1
  9
$DIMTVP
 40
0.0
  9
$DIMTIX
 70
     1
  9
$DIMSOXD
 70
     0
  9
$DIMSAH
 70
     0
  9
$DIMBLK1
  1

  9
$DIMBLK2
  1

  9
$DIMSTYLE
  2
STANDARD
  9
$DIMCLRD
 70
     0
  9
$DIMCLRE
 70
     0
  9
$DIMCLRT
 70
     4
  9
$DIMTFAC
 40
1.0
  9
$DIMGAP
 40
1.0
  9
$LUNITS
 70
     2
  9
$LUPREC
 70
     4
  9
$SKETCHINC
 40
0.1
  9
$FILLETRAD
 40
2.0
  9
$AUNITS
 70
     0
  9
$AUPREC
 70
     0
  9
$MENU
  1
C:\R13\WIN\SUPPORT\ACAD-I
  9
$ELEVATION
 40
0.0
  9
$PELEVATION
 40
0.0
  9
$THICKNESS
 40
0.0
  9
$LIMCHECK
 70
     0
  9
$BLIPMODE
 70
     0
  9
$CHAMFERA
 40
0.0
  9
$CHAMFERB
 40
0.0
  9
$SKPOLY
 70
     0
  9
$TDCREATE
 40
2451961.708987975
  9
$TDUPDATE
 40
2456598.718226389
  9
$TDINDWG
 40
0.0726606134
  9
$TDUSRTIMER
 40
2456598.01688059
  9
$USRTIMER
 70
     1
  9
$ANGBASE
 50
0.0
  9
$ANGDIR
 70
     0
  9
$PDMODE
 70
     0
  9
$PDSIZE
 40
0.0
  9
$PLINEWID
 40
0.0
  9
$COORDS
 70
     1
  9
$SPLFRAME
 70
     0
  9
$SPLINETYPE
 70
     6
  9
$SPLINESEGS
 70
     8
  9
$ATTDIA
 70
     0
  9
$ATTREQ
 70
     1
  9
$HANDLING
 70
     1
  9
$HANDSEED
  5
1F9E
  9
$SURFTAB1
 70
     6
  9
$SURFTAB2
 70
     6
  9
$SURFTYPE
 70
     6
  9
$SURFU
 70
     6
  9
$SURFV
 70
     6
  9
$UCSNAME
  2

  9
$UCSORG
 10
0.0
 20
0.0
 30
0.0
  9
$UCSXDIR
 10
1.0
 20
0.0
 30
0.0
  9
$UCSYDIR
 10
0.0
 20
1.0
 30
0.0
  9
$PUCSNAME
  2

  9
$PUCSORG
 10
0.0
 20
0.0
 30
0.0
  9
$PUCSXDIR
 10
1.0
 20
0.0
 30
0.0
  9
$PUCSYDIR
 10
0.0
 20
1.0
 30
0.0
  9
$USERI1
 70
     4
  9
$USERI2
 70
     1
  9
$USERI3
 70
     0
  9
$USERI4
 70
     0
  9
$USERI5
 70
     0
  9
$USERR1
 40
1.0
  9
$USERR2
 40
3.0
  9
$USERR3
 40
3.0
  9
$USERR4
 40
3.0
  9
$USERR5
 40
10.0
  9
$WORLDVIEW
 70
     1
  9
$SHADEDGE
 70
     3
  9
$SHADEDIF
 70
    70
  9
$TILEMODE
 70
     1
  9
$MAXACTVP
 70
    16
  9
$PLIMCHECK
 70
     0
  9
$PEXTMIN
 10
1.0000000000000000E+020
 20
1.0000000000000000E+020
 30
1.0000000000000000E+020
  9
$PEXTMAX
 10
-1.0000000000000000E+020
 20
-1.0000000000000000E+020
 30
-1.0000000000000000E+020
  9
$PLIMMIN
 10
0.0
 20
0.0
  9
$PLIMMAX
 10
12.0
 20
9.0
  9
$UNITMODE
 70
     0
  9
$VISRETAIN
 70
     0
  9
$PLINEGEN
 70
     0
  9
$PSLTSCALE
 70
     0
  0
ENDSEC
  0
SECTION
  2
TABLES
  0
TABLE
  2
VPORT
 70
     1
  0
VPORT
  2
*ACTIVE
 70
     0
 10
0.0
 20
0.0
 11
1.0
 21
1.0
 12
187.49427839065231
 22
177.52205812711131
 13
0.0
 23
0.0
 14
10.0
 24
10.0
 15
10.0
 25
10.0
 16
0.0
 26
0.0
 36
1.0
 17
0.0
 27
0.0
 37
0.0
 40
364.13085016302909
 41
1.755244755244755
 42
50.0
 43
0.0
 44
0.0
 50
0.0
 51
0.0
 71
    16
 72
   100
 73
     1
 74
     0
 75
     0
 76
     0
 77
     0
 78
     0
  0
ENDTAB
  0
TABLE
  2
LTYPE
 70
     3
  0
LTYPE
  2
CONTINUOUS
 70
     0
  3
Solid Line
 72
    65
 73
     0
 40
0.0
  0
LTYPE
  2
PHANTOM2
 70
     0
  3
___ _ _ ___ _ _ ___ _ _ ___ _ _
 72
    65
 73
     6
 40
1.25
 49
0.625
 49
-0.125
 49
0.125
 49
-0.125
 49
0.125
 49
-0.125
  0
LTYPE
  2
CENTER
 70
     0
  3
____ _ ____ _ ____ _ ____ _ ____ _ ____ _ ____
 72
    65
 73
     4
 40
2.0
 49
1.25
 49
-0.25
 49
0.25
 49
-0.25
  0
ENDTAB
  0
TABLE
  2
LAYER
 70
     3
  0
LAYER
  2
0
 70
     0
 62
     7
  6
CONTINUOUS
  0
LAYER
  2
1
 70
     0
 62
     1
  6
CENTER
  0
LAYER
  2
3
 70
     0
 62
     3
  6
CONTINUOUS
  0
ENDTAB
  0
TABLE
  2
STYLE
 70
     3
  0
STYLE
  2
STANDARD
 70
     0
 40
0.0
 41
1.0
 50
0.0
 71
     0
 42
0.2
  3
SIMPLEX
  4
BIGFONT
  0
STYLE
  2
ANNOTATIVE
 70
     0
 40
0.0
 41
1.0
 50
0.0
 71
     0
 42
0.2
  3
txt
  4

  0
STYLE
  2
STANDARD1
 70
     0
 40
0.0
 41
1.0
 50
0.0
 71
     0
 42
3.0
  3
txt
  4

  0
ENDTAB
  0
TABLE
  2
VIEW
 70
     0
  0
ENDTAB
  0
TABLE
  2
UCS
 70
     0
  0
ENDTAB
  0
TABLE
  2
APPID
 70
    29
  0
APPID
  2
ACAD
 70
     0
  0
APPID
  2
ACADANNOTATIVE
 70
     0
  0
APPID
  2
GENIUS_GENOREF_13
 70
     0
  0
APPID
  2
GENIUS_GENOENT_13
 70
     0
  0
APPID
  2
GENIUS_GENBH_13
 70
     0
  0
APPID
  2
GENIUS_GENOBJ_13
 70
     0
  0
APPID
  2
GENIUS_GENODEF_13
 70
     0
  0
APPID
  2
GENIUS_GENOLIS_13
 70
     0
  0
APPID
  2
GENIUS_GENOBJ-NBEHI-BHF_13
 70
     0
  0
APPID
  2
GENIUS_GENOBJ-NBEHI-BHB_13
 70
     0
  0
APPID
  2
GENIUS_GENOBJ-F-PART_13
 70
     0
  0
APPID
  2
GENIUS_GEFSTDP_13
 70
     0
  0
APPID
  2
GENIUS_GENOBJ-N-RSSYM_13
 70
     0
  0
APPID
  2
GENIUS_GENSYMENT_13
 70
     0
  0
APPID
  2
GENIUS_GENOBJ-N-TIT_13
 70
     0
  0
APPID
  2
GENIUS_GENTITLE_13
 70
     0
  0
APPID
  2
GENIUS_GENZVEED_13
 70
     0
  0
APPID
  2
GENIUS_GENOBJ-N-LEADER_13
 70
     0
  0
APPID
  2
GENIUS_GENOBJ-N-FIL_13
 70
     0
  0
APPID
  2
GENIUS_GENOBJ-N-SEC_13
 70
     0
  0
APPID
  2
GENIUS_GENOBJ-N-CRS_13
 70
     0
  0
APPID
  2
GENIUS_GENOBJ-N-ZOO_13
 70
     0
  0
APPID
  2
GENIUS_GENZOO_13
 70
     0
  0
APPID
  2
GENIUS_GENOBJ-F-TOL_13
 70
     0
  0
APPID
  2
GENIUS_GENFIL_13
 70
     0
  0
APPID
  2
GENIUS_GENOBJ-N-CHA_13
 70
     0
  0
APPID
  2
ACAD_MLEADERVER
 70
     0
  0
APPID
  2
ACAD_EXEMPT_FROM_CAD_STANDARDS
 70
     0
  0
APPID
  2
ACAD_NAV_VCDISPLAY
 70
     0
  0
ENDTAB
  0
TABLE
  2
DIMSTYLE
 70
     2
  0
DIMSTYLE
  2
STANDARD
 70
     0
  3

  4

  5

  6

  7

 40
1.0
 41
0.18
 42
0.0625
 43
0.38
 44
0.18
 45
0.0
 46
0.0
 47
0.0
 48
0.0
140
0.18
141
0.09
142
0.0
143
25.399999999999999
144
1.0
145
0.0
146
1.0
147
0.09
 71
     0
 72
     0
 73
     1
 74
     1
 75
     0
 76
     0
 77
     0
 78
     0
170
     0
171
     2
172
     0
173
     0
174
     0
175
     0
176
     0
177
     0
178
     0
  0
DIMSTYLE
  2
ANNOTATIVE
 70
     0
  3

  4

  5

  6

  7

 40
1.0
 41
0.18
 42
0.0625
 43
0.38
 44
0.18
 45
0.0
 46
0.0
 47
0.0
 48
0.0
140
0.18
141
0.09
142
0.0
143
25.399999999999999
144
1.0
145
0.0
146
1.0
147
0.09
 71
     0
 72
     0
 73
     1
 74
     1
 75
     0
 76
     0
 77
     0
 78
     0
170
     0
171
     2
172
     0
173
     0
174
     0
175
     0
176
     0
177
     0
178
     0
  0
ENDTAB
  0
ENDSEC
  0
SECTION
  2
BLOCKS
  0
BLOCK
  8
0
  2
$MODEL_SPACE
 70
     0
 10
0.0
 20
0.0
 30
0.0
  3
$MODEL_SPACE
  1

  0
ENDBLK
  5
1E65
  8
0
  0
BLOCK
 67
     1
  8
0
  2
$PAPER_SPACE
 70
     0
 10
0.0
 20
0.0
 30
0.0
  3
$PAPER_SPACE
  1

  0
ENDBLK
  5
1E61
 67
     1
  8
0
  0
ENDSEC
  0
SECTION
  2
ENTITIES
  0
LINE
  5
1788
  8
1
 10
54.485056924663688
 20
200.52167464403919
 30
0.0
 11
16.485056924663692
 21
200.52167464403919
 31
0.0
  0
LINE
  5
1789
  8
1
 10
35.485056924663702
 20
219.521674644039
 30
0.0
 11
35.485056924663702
 21
181.52167464403919
 31
0.0
  0
CIRCLE
  5
178A
  8
0
 10
35.485056924663702
 20
200.52167464403919
 30
0.0
 40
15.99999999999994
  0
ARC
  5
17BD
  8
0
 10
35.485056924663297
 20
75.110368677907104
 30
0.0
 40
22.928203228139491
 50
72.412046224314139
 51
107.5879537756858
  0
ARC
  5
17BE
  8
0
 10
25.092752079249809
 20
91.904597310325798
 30
0.0
 40
6.1339745957208196
 50
55.615752528788683
 51
115.6157525301479
  0
LINE
  5
17BF
  8
0
 10
21.628650464090288
 20
96.966775136217379
 30
0.0
 11
23.985056924771069
 21
98.327247040611624
 31
0.0
  0
LINE
  5
17C0
  8
0
 10
21.628650464090288
 20
86.68771894500594
 30
0.0
 11
23.985056924771069
 21
85.327247040611724
 31
0.0
  0
ARC
  5
17C1
  8
0
 10
25.092752079249809
 20
91.749896770897536
 30
0.0
 40
6.1339745957208196
 50
244.38424746985211
 51
304.38424747121132
  0
ARC
  5
17C2
  8
0
 10
35.485056924663297
 20
108.5441254033162
 30
0.0
 40
22.928203228139491
 50
252.41204622431411
 51
287.58795377568589
  0
LINE
  5
17C3
  8
0
 10
21.62865046411213
 20
96.966775136217379
 30
0.0
 11
21.62865046411213
 21
86.687718944993321
 31
0.0
  0
LINE
  5
17C4
  8
0
 10
28.556853694387929
 20
96.966775136217379
 30
0.0
 11
28.556853694387929
 21
86.68771894500594
 31
0.0
  0
LINE
  5
17C5
  8
0
 10
42.413260154938598
 20
96.966775136217379
 30
0.0
 11
42.413260154938598
 21
86.68771894500594
 31
0.0
  0
LINE
  5
17C6
  8
0
 10
49.341463385214396
 20
96.966775136217379
 30
0.0
 11
49.341463385214396
 21
86.687718944993321
 31
0.0
  0
ARC
  5
17C7
  8
0
 10
45.877361770076718
 20
91.749896770897536
 30
0.0
 40
6.1339745957208196
 50
235.6157525287887
 51
295.6157525301478
  0
LINE
  5
17C8
  8
0
 10
49.341463385236253
 20
86.68771894500594
 30
0.0
 11
46.985056924555472
 21
85.327247040611724
 31
0.0
  0
LINE
  5
17C9
  8
0
 10
49.341463385236253
 20
96.966775136217379
 30
0.0
 11
46.985056924555472
 21
98.327247040611624
 31
0.0
  0
ARC
  5
17CA
  8
0
 10
45.877361770076718
 20
91.904597310325798
 30
0.0
 40
6.1339745957208196
 50
64.38424746985207
 51
124.3842474712113
  0
LINE
  5
17CB
  8
0
 10
23.985056924663301
 20
98.327247040611624
 30
0.0
 11
46.985056924555472
 21
98.327247040611624
 31
0.0
  0
LINE
  5
17CC
  8
0
 10
46.985056924555472
 20
85.327247040611724
 30
0.0
 11
23.985056924771069
 21
85.327247040611724
 31
0.0
  0
LINE
  5
17D0
  8
0
 10
43.485056924663581
 20
163.5385719060468
 30
0.0
 11
27.485056924663581
 21
163.5385719060468
 31
0.0
  0
LINE
  5
17D1
  8
0
 10
41.485056924663589
 20
165.5385719060468
 30
0.0
 11
43.485056924663581
 21
163.5385719060468
 31
0.0
  0
LINE
  5
17D2
  8
0
 10
27.485056924663581
 20
163.5385719060468
 30
0.0
 11
29.485056924663581
 21
165.5385719060468
 31
0.0
  0
LINE
  5
17D3
  8
0
 10
27.485056924663581
 20
56.688193604068573
 30
0.0
 11
27.485056924663581
 21
85.327247040611724
 31
0.0
  0
LINE
  5
17D4
  8
3
 10
28.56755692466356
 20
59.538571906047089
 30
0.0
 11
28.56755692466356
 21
85.32724704061161
 31
0.0
  0
LINE
  5
17D5
  8
3
 10
42.4025569246636
 20
59.538571906047089
 30
0.0
 11
42.4025569246636
 21
85.32724704061161
 31
0.0
  0
LINE
  5
17D6
  8
0
 10
43.485056924663581
 20
57.402724783884182
 30
0.0
 11
43.485056924663581
 21
85.32724704061161
 31
0.0
  0
LINE
  5
17D7
  8
0
 10
29.485056924663581
 20
165.5385719060468
 30
0.0
 11
41.485056924663589
 21
165.5385719060468
 31
0.0
  0
LINE
  5
17E5
  8
3
 10
42.4025569246636
 20
98.327247040611624
 30
0.0
 11
42.4025569246636
 21
164.62107190604681
 31
0.0
  0
LINE
  5
17E6
  8
0
 10
43.485056924663581
 20
98.327247040611695
 30
0.0
 11
43.485056924663581
 21
163.5385719060468
 31
0.0
  0
LINE
  5
17E7
  8
3
 10
28.56755692466356
 20
98.327247040611695
 30
0.0
 11
28.56755692466356
 21
164.62107190604681
 31
0.0
  0
LINE
  5
17E8
  8
0
 10
27.485056924663581
 20
98.327247040611624
 30
0.0
 11
27.485056924663581
 21
163.5385719060468
 31
0.0
  0
ARC
  5
17EE
  8
0
 10
94.605307093877272
 20
80.708444888719185
 30
0.0
 40
17.330127017333279
 50
69.7438419976407
 51
110.2561580023593
  0
LINE
  5
17EF
  8
0
 10
100.60530709389231
 20
98.03857190605251
 30
0.0
 11
100.1053070938773
 21
98.327247040655919
 31
0.0
  0
LINE
  5
17F0
  8
0
 10
100.60530709389231
 20
85.615922175182575
 30
0.0
 11
100.1053070938773
 21
85.327247040579167
 31
0.0
  0
ARC
  5
17F1
  8
0
 10
94.605307093877272
 20
102.9460491925159
 30
0.0
 40
17.330127017333279
 50
249.74384199764069
 51
290.25615800235931
  0
LINE
  5
17F2
  8
0
 10
100.60530709389231
 20
98.03857190605251
 30
0.0
 11
100.6053070938773
 21
85.615922175173949
 31
0.0
  0
LINE
  5
17F4
  8
0
 10
76.60530709386228
 20
98.03857190605251
 30
0.0
 11
76.605307093877272
 21
85.615922175173949
 31
0.0
  0
ARC
  5
17F5
  8
0
 10
82.605307093877286
 20
102.9460491925159
 30
0.0
 40
17.330127017333279
 50
249.74384199764069
 51
290.25615800235931
  0
LINE
  5
17F6
  8
0
 10
76.60530709386228
 20
85.615922175182575
 30
0.0
 11
77.105307093877272
 21
85.327247040579167
 31
0.0
  0
LINE
  5
17F7
  8
0
 10
76.60530709386228
 20
98.03857190605251
 30
0.0
 11
77.105307093877272
 21
98.327247040655919
 31
0.0
  0
ARC
  5
17F8
  8
0
 10
82.605307093877286
 20
80.708444888719185
 30
0.0
 40
17.330127017333279
 50
69.7438419976407
 51
110.2561580023593
  0
LINE
  5
17F9
  8
0
 10
77.105307093810907
 20
98.327247040617479
 30
0.0
 11
100.1053070938773
 21
98.327247040655919
 31
0.0
  0
LINE
  5
17FA
  8
0
 10
100.1053070938773
 20
85.327247040579167
 30
0.0
 11
77.105307093810907
 21
85.327247040617593
 31
0.0
  0
LINE
  5
180B
  8
0
 10
82.605307093844317
 20
165.5385719060468
 30
0.0
 11
94.605307093844317
 21
165.5385719060468
 31
0.0
  0
LINE
  5
180C
  8
0
 10
96.605307093844317
 20
57.402724783884821
 30
0.0
 11
96.605307093844317
 21
85.327247040584908
 31
0.0
  0
LINE
  5
180D
  8
3
 10
95.522807093844307
 20
59.53857190604721
 30
0.0
 11
95.522807093844307
 21
85.327247040586855
 31
0.0
  0
LINE
  5
180E
  8
0
 10
94.605307093844317
 20
165.5385719060468
 30
0.0
 11
96.605307093844317
 21
163.5385719060468
 31
0.0
  0
LINE
  5
180F
  8
0
 10
96.605307093844317
 20
163.5385719060468
 30
0.0
 11
80.605307093844303
 21
163.5385719060468
 31
0.0
  0
LINE
  5
1812
  8
3
 10
81.687807093844299
 20
59.538571906047217
 30
0.0
 11
81.687807093844299
 21
85.327247040609805
 31
0.0
  0
LINE
  5
1813
  8
0
 10
80.605307093844303
 20
57.40272478388507
 30
0.0
 11
80.605307093844303
 21
85.327247040611724
 31
0.0
  0
LINE
  5
1814
  8
0
 10
80.605307093844303
 20
163.5385719060468
 30
0.0
 11
82.605307093844317
 21
165.5385719060468
 31
0.0
  0
LINE
  5
1816
  8
3
 10
81.687807093844299
 20
98.327247040625039
 30
0.0
 11
81.687807093844299
 21
164.62107190604681
 31
0.0
  0
LINE
  5
1817
  8
0
 10
80.605307093844303
 20
98.32724704062322
 30
0.0
 11
80.605307093844303
 21
163.5385719060468
 31
0.0
  0
LINE
  5
1818
  8
0
 10
96.605307093844317
 20
98.327247040650164
 30
0.0
 11
96.605307093844317
 21
163.5385719060468
 31
0.0
  0
LINE
  5
1819
  8
3
 10
95.522807093844307
 20
98.327247040648231
 30
0.0
 11
95.522807093844307
 21
164.62107190604681
 31
0.0
  0
LINE
  5
181A
  8
0
 10
42.413260154939167
 20
212.52167464403919
 30
0.0
 11
28.55685369438822
 21
212.52167464403919
 31
0.0
  0
LINE
  5
181B
  8
0
 10
28.55685369438822
 20
212.52167464403919
 30
0.0
 11
21.628650464112638
 21
200.52167464403919
 31
0.0
  0
LINE
  5
181C
  8
0
 10
21.628650464112638
 20
200.52167464403919
 30
0.0
 11
28.55685369438822
 21
188.52167464403919
 31
0.0
  0
LINE
  5
181D
  8
0
 10
28.55685369438822
 20
188.52167464403919
 30
0.0
 11
42.413260154939167
 21
188.52167464403919
 31
0.0
  0
LINE
  5
181E
  8
0
 10
42.413260154939167
 20
188.52167464403919
 30
0.0
 11
49.341463385214752
 21
200.52167464403919
 31
0.0
  0
LINE
  5
181F
  8
0
 10
49.341463385214752
 20
200.52167464403919
 30
0.0
 11
42.413260154939167
 21
212.52167464403919
 31
0.0
  0
CIRCLE
  5
1820
  8
0
 10
35.485056924663702
 20
200.52167464403919
 30
0.0
 40
11.5
  0
CIRCLE
  5
1821
  8
0
 10
35.485056924663702
 20
200.52167464403919
 30
0.0
 40
8.0
  0
CIRCLE
  5
1822
  8
3
 10
35.485056924663702
 20
200.52167464403919
 30
0.0
 40
6.9175000000000004
  0
LINE
  5
1823
  8
1
 10
35.485056924663581
 20
26.538571906046851
 30
0.0
 11
35.485056924663581
 21
168.5385719060468
 31
0.0
  0
LINE
  5
1824
  8
1
 10
88.60530709384409
 20
26.538571906046851
 30
0.0
 11
88.60530709384409
 21
168.5385719060468
 31
0.0
  0
LINE
  5
1AA6
  8
3
 10
81.687807093844299
 20
59.53857190604721
 30
0.0
 11
80.605307093844303
 21
57.663626906853892
 31
0.0
  0
LINE
  5
1AA7
  8
3
 10
95.522807093844307
 20
59.53857190604721
 30
0.0
 11
96.605307093844317
 21
57.663626906853892
 31
0.0
  0
LINE
  5
1AA8
  8
0
 10
80.605307093844303
 20
59.53857190604721
 30
0.0
 11
96.605307093844317
 21
59.53857190604721
 31
0.0
  0
LINE
  5
1AA9
  8
0
 10
27.485056924663581
 20
59.538571906047089
 30
0.0
 11
43.485056924663581
 21
59.538571906047089
 31
0.0
  0
LINE
  5
1AAA
  8
3
 10
28.56755692466356
 20
59.538571906047089
 30
0.0
 11
27.485056924663581
 21
57.663626906853793
 31
0.0
  0
LINE
  5
1AAB
  8
3
 10
42.4025569246636
 20
59.538571906047089
 30
0.0
 11
43.485056924663581
 21
57.663626906853793
 31
0.0
  0
LINE
  5
1AAC
  8
0
 10
47.30722977034543
 20
42.538571906046862
 30
0.0
 11
46.485056924663517
 21
47.538571906046862
 31
0.0
  0
LINE
  5
1AAD
  8
0
 10
51.485056924663517
 20
37.538571906046862
 30
0.0
 11
47.30722977034543
 21
42.538571906046862
 31
0.0
  0
LINE
  5
1AAE
  8
0
 10
50.985056924663517
 20
32.538571906046862
 30
0.0
 11
51.485056924663517
 21
33.038571906046862
 31
0.0
  0
LINE
  5
1AAF
  8
0
 10
19.485056924663521
 20
33.038571906046862
 30
0.0
 11
19.985056924663521
 21
32.538571906046862
 31
0.0
  0
LINE
  5
1AB0
  8
0
 10
50.985056924663517
 20
29.538571906046851
 30
0.0
 11
50.985056924663517
 21
32.538571906046862
 31
0.0
  0
LINE
  5
1AB1
  8
0
 10
19.985056924663521
 20
32.538571906046862
 30
0.0
 11
19.985056924663521
 21
29.538571906046851
 31
0.0
  0
LINE
  5
1AB2
  8
0
 10
46.485056924663517
 20
47.538571906046862
 30
0.0
 11
24.485056924663532
 21
47.53857190604684
 31
0.0
  0
LINE
  5
1AB3
  8
0
 10
51.485056924663517
 20
37.538571906046862
 30
0.0
 11
19.485056924663521
 21
37.538571906046862
 31
0.0
  0
LINE
  5
1AB4
  8
0
 10
50.985056924663517
 20
32.538571906046862
 30
0.0
 11
19.985056924663521
 21
32.538571906046862
 31
0.0
  0
LINE
  5
1AB5
  8
0
 10
50.985056924663517
 20
29.538571906046851
 30
0.0
 11
19.985056924663521
 21
29.538571906046851
 31
0.0
  0
LINE
  5
1AB6
  8
0
 10
51.485056924663517
 20
33.038571906046862
 30
0.0
 11
51.485056924663517
 21
37.53857190604694
 31
0.0
  0
LINE
  5
1AB7
  8
0
 10
19.485056924663521
 20
33.038571906046862
 30
0.0
 11
19.485056924663521
 21
37.53857190604694
 31
0.0
  0
LINE
  5
1AB8
  8
0
 10
23.662884078981609
 20
42.538571906046862
 30
0.0
 11
47.30722977034543
 21
42.538571906046862
 31
0.0
  0
LINE
  5
1AB9
  8
0
 10
23.662884078981609
 20
42.538571906046862
 30
0.0
 11
24.485056924663532
 21
47.538571906046862
 31
0.0
  0
LINE
  5
1ABA
  8
0
 10
19.485056924663521
 20
37.538571906046862
 30
0.0
 11
23.662884078981609
 21
42.538571906046862
 31
0.0
  0
ARC
  5
1ABB
  8
0
 10
35.485056924663702
 20
44.208444887124649
 30
0.0
 40
7.0
 50
28.407049271739449
 51
38.213210701737218
  0
ARC
  5
1ABC
  8
0
 10
35.485056924663702
 20
44.208444887124649
 30
0.0
 40
7.0
 50
141.7867892982627
 51
151.59295072826049
  0
LINE
  5
1ABD
  8
0
 10
40.985056924663681
 20
48.538571906046869
 30
0.0
 11
40.985056924663681
 21
52.538571906046869
 31
0.0
  0
LINE
  5
1ABE
  8
0
 10
29.985056924663699
 20
48.538571906046869
 30
0.0
 11
29.985056924663699
 21
52.538571906046869
 31
0.0
  0
LINE
  5
1ABF
  8
0
 10
40.985056924663681
 20
48.538571906046869
 30
0.0
 11
29.985056924663699
 21
48.538571906046869
 31
0.0
  0
LINE
  5
1AC0
  8
0
 10
94.105307093844317
 20
48.538571906046869
 30
0.0
 11
83.105307093844303
 21
48.538571906046869
 31
0.0
  0
LINE
  5
1AC1
  8
0
 10
83.105307093844303
 20
48.538571906046869
 30
0.0
 11
83.105307093844303
 21
52.538571906046869
 31
0.0
  0
LINE
  5
1AC2
  8
0
 10
94.105307093844317
 20
48.538571906046869
 30
0.0
 11
94.105307093844317
 21
52.538571906046869
 31
0.0
  0
ARC
  5
1AC3
  8
0
 10
88.605307093844303
 20
44.208444887124649
 30
0.0
 40
7.0
 50
141.7867892982627
 51
151.59295072826049
  0
ARC
  5
1AC4
  8
0
 10
88.605307093844303
 20
44.208444887124649
 30
0.0
 40
7.0
 50
28.407049271739449
 51
38.213210701737218
  0
LINE
  5
1AC5
  8
0
 10
72.605307093844132
 20
37.538571906046862
 30
0.0
 11
76.783134248162227
 21
42.538571906046862
 31
0.0
  0
LINE
  5
1AC6
  8
0
 10
76.783134248162227
 20
42.538571906046862
 30
0.0
 11
77.605307093844132
 21
47.538571906046862
 31
0.0
  0
LINE
  5
1AC7
  8
0
 10
76.783134248162227
 20
42.538571906046862
 30
0.0
 11
100.42747993952599
 21
42.538571906046862
 31
0.0
  0
LINE
  5
1AC8
  8
0
 10
72.60530709384409
 20
33.038571906046862
 30
0.0
 11
72.60530709384409
 21
37.53857190604694
 31
0.0
  0
LINE
  5
1AC9
  8
0
 10
104.6053070938441
 20
33.038571906046862
 30
0.0
 11
104.6053070938441
 21
37.53857190604694
 31
0.0
  0
LINE
  5
1ACA
  8
0
 10
104.1053070938441
 20
29.538571906046851
 30
0.0
 11
73.105307093844132
 21
29.538571906046851
 31
0.0
  0
LINE
  5
1ACB
  8
0
 10
104.1053070938441
 20
32.538571906046862
 30
0.0
 11
73.105307093844132
 21
32.538571906046862
 31
0.0
  0
LINE
  5
1ACC
  8
0
 10
104.6053070938441
 20
37.538571906046862
 30
0.0
 11
72.605307093844132
 21
37.538571906046862
 31
0.0
  0
LINE
  5
1ACD
  8
0
 10
99.605307093844146
 20
47.538571906046862
 30
0.0
 11
77.605307093844132
 21
47.53857190604684
 31
0.0
  0
LINE
  5
1ACE
  8
0
 10
73.105307093844132
 20
32.538571906046862
 30
0.0
 11
73.105307093844132
 21
29.538571906046851
 31
0.0
  0
LINE
  5
1ACF
  8
0
 10
104.1053070938441
 20
29.538571906046851
 30
0.0
 11
104.1053070938441
 21
32.538571906046862
 31
0.0
  0
LINE
  5
1AD0
  8
0
 10
72.60530709384409
 20
33.038571906046862
 30
0.0
 11
73.105307093844132
 21
32.538571906046862
 31
0.0
  0
LINE
  5
1AD1
  8
0
 10
104.1053070938441
 20
32.538571906046862
 30
0.0
 11
104.6053070938441
 21
33.038571906046862
 31
0.0
  0
LINE
  5
1AD2
  8
0
 10
104.6053070938441
 20
37.538571906046862
 30
0.0
 11
100.42747993952599
 21
42.538571906046862
 31
0.0
  0
LINE
  5
1AD3
  8
0
 10
100.42747993952599
 20
42.538571906046862
 30
0.0
 11
99.605307093844146
 21
47.538571906046862
 31
0.0
  0
LINE
  5
1AD4
  8
0
 10
96.37001297619733
 20
52.538571906047082
 30
0.0
 11
80.840601211490835
 21
52.538571906047082
 31
0.0
  0
LINE
  5
1AD5
  8
0
 10
80.840601211491119
 20
57.53857190604721
 30
0.0
 11
96.370012976197287
 21
57.538571906046982
 31
0.0
  0
ARC
  5
1AD6
  8
0
 10
95.533510324119561
 20
53.31340838640336
 30
0.0
 40
4.0893163974808306
 50
64.384247467890191
 51
124.3842474680048
  0
LINE
  5
1AD7
  8
0
 10
97.842911400878023
 20
56.688193604068609
 30
0.0
 11
96.370012976197046
 21
57.53857190604721
 31
0.0
  0
LINE
  5
1AD8
  8
0
 10
97.842911400878023
 20
53.388950208025463
 30
0.0
 11
96.370012976197046
 21
52.538571906046869
 31
0.0
  0
ARC
  5
1AD9
  8
0
 10
95.533510324119561
 20
56.763735425690712
 30
0.0
 40
4.0893163974808306
 50
235.61575253199521
 51
295.61575253210981
  0
LINE
  5
1ADA
  8
0
 10
97.842911400878023
 20
56.688193604068609
 30
0.0
 11
97.842911400878023
 21
53.388950208025463
 31
0.0
  0
LINE
  5
1ADB
  8
0
 10
93.224109247362065
 20
56.688193604068609
 30
0.0
 11
93.224109247361426
 21
53.388950208025243
 31
0.0
  0
LINE
  5
1ADC
  8
0
 10
83.986504940326114
 20
56.688193604068609
 30
0.0
 11
83.986504940326753
 21
53.388950208025243
 31
0.0
  0
LINE
  5
1ADD
  8
0
 10
79.367702786810142
 20
56.688193604068609
 30
0.0
 11
79.367702786810142
 21
53.388950208025463
 31
0.0
  0
ARC
  5
1ADE
  8
0
 10
88.605307093843592
 20
67.9598878484137
 30
0.0
 40
15.28546882020385
 50
252.4120462260303
 51
287.58795377396962
  0
ARC
  5
1ADF
  8
0
 10
81.677103863568576
 20
56.763735425690712
 30
0.0
 40
4.0893163974808306
 50
244.38424746788999
 51
304.38424746800467
  0
LINE
  5
1AE0
  8
0
 10
79.367702786810142
 20
53.388950208025463
 30
0.0
 11
80.840601211491119
 21
52.538571906046869
 31
0.0
  0
LINE
  5
1AE1
  8
0
 10
79.367702786810142
 20
56.688193604068609
 30
0.0
 11
80.840601211491119
 21
57.53857190604721
 31
0.0
  0
ARC
  5
1AE2
  8
0
 10
88.605307093843592
 20
42.117255963680371
 30
0.0
 40
15.28546882020385
 50
72.41204622603037
 51
107.5879537739696
  0
ARC
  5
1AE3
  8
0
 10
81.677103863568576
 20
53.31340838640336
 30
0.0
 40
4.0893163974808306
 50
55.615752531995298
 51
115.61575253210979
  0
LINE
  5
1AE4
  8
0
 10
27.720351042310629
 20
52.538571906046869
 30
0.0
 11
43.249762807016538
 21
52.538571906046869
 31
0.0
  0
LINE
  5
1AE5
  8
0
 10
43.249762807015571
 20
57.538571906046847
 30
0.0
 11
27.720351042311648
 21
57.538571906046847
 31
0.0
  0
ARC
  5
1AE6
  8
0
 10
31.48505692466367
 20
45.849306771256821
 30
0.0
 40
11.55341801262729
 50
69.743841999608392
 51
110.25615800039159
  0
LINE
  5
1AE7
  8
0
 10
27.48505692466361
 20
57.402724783884089
 30
0.0
 11
27.720351042311648
 21
57.538571906046847
 31
0.0
  0
ARC
  5
1AE8
  8
0
 10
31.48505692466361
 20
64.227837040836334
 30
0.0
 40
11.55341801262729
 50
249.74384199960841
 51
290.25615800039083
  0
LINE
  5
1AE9
  8
0
 10
27.48505692466356
 20
52.674419028209201
 30
0.0
 11
27.720351042311592
 21
52.538571906046293
 31
0.0
  0
LINE
  5
1AEA
  8
0
 10
27.48505692466361
 20
57.402724783884089
 30
0.0
 11
27.48505692466361
 21
52.674419028209201
 31
0.0
  0
LINE
  5
1AEB
  8
0
 10
35.485056924663667
 20
56.688193604068147
 30
0.0
 11
35.48505692466361
 21
53.388950208024767
 31
0.0
  0
LINE
  5
1AEC
  8
0
 10
43.485056924663724
 20
57.402724783884089
 30
0.0
 11
43.485056924663603
 21
52.674419028209201
 31
0.0
  0
ARC
  5
1AED
  8
0
 10
39.48505692466361
 20
64.227837040836334
 30
0.0
 40
11.55341801262729
 50
249.74384199960841
 51
290.25615800039083
  0
LINE
  5
1AEE
  8
0
 10
43.485056924663667
 20
52.674419028209201
 30
0.0
 11
43.249762807015571
 21
52.538571906046293
 31
0.0
  0
LINE
  5
1AEF
  8
0
 10
43.485056924663724
 20
57.402724783884089
 30
0.0
 11
43.249762807015607
 21
57.538571906046847
 31
0.0
  0
ARC
  5
1AF0
  8
0
 10
39.485056924663681
 20
45.849306771256821
 30
0.0
 40
11.55341801262729
 50
69.743841999608392
 51
110.25615800039159
  0
LINE
  5
1D95
  8
0
 10
88.605307093878494
 20
96.966775136222779
 30
0.0
 11
88.60530709387605
 21
86.687718945012307
 31
0.0
  0
TEXT
  5
1EE5
  8
0
 62
     3
 10
0.0
 20
0.0
 30
0.0
 40
10.0
  1
LSAR32S16B-SUS
  7
STANDARD1
  0
ENDSEC
  0
EOF
