  0
SECTION
  2
HEADER
  9
$ACADVER
  1
AC1009
  9
$INSBASE
 10
0.0
 20
0.0
 30
0.0
  9
$EXTMIN
 10
0.0
 20
-2.960436562073669
 30
0.0
  9
$EXTMAX
 10
111.8144611186903
 20
148.4053447383871
 30
0.0
  9
$LIMMIN
 10
0.0
 20
0.0
  9
$LIMMAX
 10
375.0
 20
270.0
  9
$ORTHOMODE
 70
     1
  9
$REGENMODE
 70
     1
  9
$FILLMODE
 70
     1
  9
$QTEXTMODE
 70
     0
  9
$MIRRTEXT
 70
     0
  9
$DRAGMODE
 70
     2
  9
$LTSCALE
 40
6.0
  9
$OSMODE
 70
    37
  9
$ATTMODE
 70
     1
  9
$TEXTSIZE
 40
0.2
  9
$TRACEWID
 40
0.05
  9
$TEXTSTYLE
  7
STANDARD
  9
$CLAYER
  8
0
  9
$CELTYPE
  6
BYLAYER
  9
$CECOLOR
 62
   256
  9
$DIMSCALE
 40
1.0
  9
$DIMASZ
 40
3.0
  9
$DIMEXO
 40
1.0
  9
$DIMDLI
 40
6.0
  9
$DIMRND
 40
0.0
  9
$DIMDLE
 40
0.0
  9
$DIMEXE
 40
1.0
  9
$DIMTP
 40
495.0
  9
$DIMTM
 40
0.0
  9
$DIMTXT
 40
3.0
  9
$DIMCEN
 40
0.0
  9
$DIMTSZ
 40
0.0
  9
$DIMTOL
 70
     0
  9
$DIMLIM
 70
     0
  9
$DIMTIH
 70
     0
  9
$DIMTOH
 70
     0
  9
$DIMSE1
 70
     0
  9
$DIMSE2
 70
     0
  9
$DIMTAD
 70
     1
  9
$DIMZIN
 70
     8
  9
$DIMBLK
  1

  9
$DIMASO
 70
     0
  9
$DIMSHO
 70
     0
  9
$DIMPOST
  1

  9
$DIMAPOST
  1

  9
$DIMALT
 70
     0
  9
$DIMALTD
 70
     2
  9
$DIMALTF
 40
25.399999999999999
  9
$DIMLFAC
 40
1.0
  9
$DIMTOFL
 70
     1
  9
$DIMTVP
 40
0.0
  9
$DIMTIX
 70
     1
  9
$DIMSOXD
 70
     0
  9
$DIMSAH
 70
     0
  9
$DIMBLK1
  1

  9
$DIMBLK2
  1

  9
$DIMSTYLE
  2
STANDARD
  9
$DIMCLRD
 70
     0
  9
$DIMCLRE
 70
     0
  9
$DIMCLRT
 70
     4
  9
$DIMTFAC
 40
1.0
  9
$DIMGAP
 40
1.0
  9
$LUNITS
 70
     2
  9
$LUPREC
 70
     4
  9
$SKETCHINC
 40
0.1
  9
$FILLETRAD
 40
2.0
  9
$AUNITS
 70
     0
  9
$AUPREC
 70
     0
  9
$MENU
  1
C:\R13\WIN\SUPPORT\ACAD-I
  9
$ELEVATION
 40
0.0
  9
$PELEVATION
 40
0.0
  9
$THICKNESS
 40
0.0
  9
$LIMCHECK
 70
     0
  9
$BLIPMODE
 70
     0
  9
$CHAMFERA
 40
0.0
  9
$CHAMFERB
 40
0.0
  9
$SKPOLY
 70
     0
  9
$TDCREATE
 40
2451961.704189294
  9
$TDUPDATE
 40
2456598.718289942
  9
$TDINDWG
 40
0.1227248264
  9
$TDUSRTIMER
 40
2456598.0154598262
  9
$USRTIMER
 70
     1
  9
$ANGBASE
 50
0.0
  9
$ANGDIR
 70
     0
  9
$PDMODE
 70
     0
  9
$PDSIZE
 40
0.0
  9
$PLINEWID
 40
0.0
  9
$COORDS
 70
     1
  9
$SPLFRAME
 70
     0
  9
$SPLINETYPE
 70
     6
  9
$SPLINESEGS
 70
     8
  9
$ATTDIA
 70
     0
  9
$ATTREQ
 70
     1
  9
$HANDLING
 70
     1
  9
$HANDSEED
  5
14D9
  9
$SURFTAB1
 70
     6
  9
$SURFTAB2
 70
     6
  9
$SURFTYPE
 70
     6
  9
$SURFU
 70
     6
  9
$SURFV
 70
     6
  9
$UCSNAME
  2

  9
$UCSORG
 10
0.0
 20
0.0
 30
0.0
  9
$UCSXDIR
 10
1.0
 20
0.0
 30
0.0
  9
$UCSYDIR
 10
0.0
 20
1.0
 30
0.0
  9
$PUCSNAME
  2

  9
$PUCSORG
 10
0.0
 20
0.0
 30
0.0
  9
$PUCSXDIR
 10
1.0
 20
0.0
 30
0.0
  9
$PUCSYDIR
 10
0.0
 20
1.0
 30
0.0
  9
$USERI1
 70
     4
  9
$USERI2
 70
     1
  9
$USERI3
 70
     0
  9
$USERI4
 70
     0
  9
$USERI5
 70
     0
  9
$USERR1
 40
1.0
  9
$USERR2
 40
3.0
  9
$USERR3
 40
3.0
  9
$USERR4
 40
3.0
  9
$USERR5
 40
10.0
  9
$WORLDVIEW
 70
     1
  9
$SHADEDGE
 70
     3
  9
$SHADEDIF
 70
    70
  9
$TILEMODE
 70
     1
  9
$MAXACTVP
 70
    16
  9
$PLIMCHECK
 70
     0
  9
$PEXTMIN
 10
1.0000000000000000E+020
 20
1.0000000000000000E+020
 30
1.0000000000000000E+020
  9
$PEXTMAX
 10
-1.0000000000000000E+020
 20
-1.0000000000000000E+020
 30
-1.0000000000000000E+020
  9
$PLIMMIN
 10
0.0
 20
0.0
  9
$PLIMMAX
 10
12.0
 20
9.0
  9
$UNITMODE
 70
     0
  9
$VISRETAIN
 70
     0
  9
$PLINEGEN
 70
     0
  9
$PSLTSCALE
 70
     0
  0
ENDSEC
  0
SECTION
  2
TABLES
  0
TABLE
  2
VPORT
 70
     1
  0
VPORT
  2
*ACTIVE
 70
     0
 10
0.0
 20
0.0
 11
1.0
 21
1.0
 12
187.49427839065231
 22
177.52205812711131
 13
0.0
 23
0.0
 14
10.0
 24
10.0
 15
10.0
 25
10.0
 16
0.0
 26
0.0
 36
1.0
 17
0.0
 27
0.0
 37
0.0
 40
364.13085016302909
 41
1.755244755244755
 42
50.0
 43
0.0
 44
0.0
 50
0.0
 51
0.0
 71
    16
 72
   100
 73
     1
 74
     0
 75
     0
 76
     0
 77
     0
 78
     0
  0
ENDTAB
  0
TABLE
  2
LTYPE
 70
     3
  0
LTYPE
  2
CONTINUOUS
 70
     0
  3
Solid Line
 72
    65
 73
     0
 40
0.0
  0
LTYPE
  2
PHANTOM2
 70
     0
  3
___ _ _ ___ _ _ ___ _ _ ___ _ _
 72
    65
 73
     6
 40
1.25
 49
0.625
 49
-0.125
 49
0.125
 49
-0.125
 49
0.125
 49
-0.125
  0
LTYPE
  2
CENTER
 70
     0
  3
____ _ ____ _ ____ _ ____ _ ____ _ ____ _ ____
 72
    65
 73
     4
 40
2.0
 49
1.25
 49
-0.25
 49
0.25
 49
-0.25
  0
ENDTAB
  0
TABLE
  2
LAYER
 70
     3
  0
LAYER
  2
0
 70
     0
 62
     7
  6
CONTINUOUS
  0
LAYER
  2
1
 70
     0
 62
     1
  6
CENTER
  0
LAYER
  2
3
 70
     0
 62
     3
  6
CONTINUOUS
  0
ENDTAB
  0
TABLE
  2
STYLE
 70
     3
  0
STYLE
  2
STANDARD
 70
     0
 40
0.0
 41
1.0
 50
0.0
 71
     0
 42
0.2
  3
SIMPLEX
  4
BIGFONT
  0
STYLE
  2
ANNOTATIVE
 70
     0
 40
0.0
 41
1.0
 50
0.0
 71
     0
 42
0.2
  3
txt
  4

  0
STYLE
  2
STANDARD1
 70
     0
 40
0.0
 41
1.0
 50
0.0
 71
     0
 42
3.0
  3
txt
  4

  0
ENDTAB
  0
TABLE
  2
VIEW
 70
     0
  0
ENDTAB
  0
TABLE
  2
UCS
 70
     0
  0
ENDTAB
  0
TABLE
  2
APPID
 70
    29
  0
APPID
  2
ACAD
 70
     0
  0
APPID
  2
ACADANNOTATIVE
 70
     0
  0
APPID
  2
GENIUS_GENOREF_13
 70
     0
  0
APPID
  2
GENIUS_GENOENT_13
 70
     0
  0
APPID
  2
GENIUS_GENBH_13
 70
     0
  0
APPID
  2
GENIUS_GENOBJ_13
 70
     0
  0
APPID
  2
GENIUS_GENODEF_13
 70
     0
  0
APPID
  2
GENIUS_GENOLIS_13
 70
     0
  0
APPID
  2
GENIUS_GENOBJ-NBEHI-BHF_13
 70
     0
  0
APPID
  2
GENIUS_GENOBJ-NBEHI-BHB_13
 70
     0
  0
APPID
  2
GENIUS_GENOBJ-F-PART_13
 70
     0
  0
APPID
  2
GENIUS_GEFSTDP_13
 70
     0
  0
APPID
  2
GENIUS_GENOBJ-N-RSSYM_13
 70
     0
  0
APPID
  2
GENIUS_GENSYMENT_13
 70
     0
  0
APPID
  2
GENIUS_GENOBJ-N-TIT_13
 70
     0
  0
APPID
  2
GENIUS_GENTITLE_13
 70
     0
  0
APPID
  2
GENIUS_GENZVEED_13
 70
     0
  0
APPID
  2
GENIUS_GENOBJ-N-LEADER_13
 70
     0
  0
APPID
  2
GENIUS_GENOBJ-N-FIL_13
 70
     0
  0
APPID
  2
GENIUS_GENOBJ-N-SEC_13
 70
     0
  0
APPID
  2
GENIUS_GENOBJ-N-CRS_13
 70
     0
  0
APPID
  2
GENIUS_GENOBJ-N-ZOO_13
 70
     0
  0
APPID
  2
GENIUS_GENZOO_13
 70
     0
  0
APPID
  2
GENIUS_GENOBJ-F-TOL_13
 70
     0
  0
APPID
  2
GENIUS_GENFIL_13
 70
     0
  0
APPID
  2
GENIUS_GENOBJ-N-CHA_13
 70
     0
  0
APPID
  2
ACAD_MLEADERVER
 70
     0
  0
APPID
  2
ACAD_EXEMPT_FROM_CAD_STANDARDS
 70
     0
  0
APPID
  2
ACAD_NAV_VCDISPLAY
 70
     0
  0
ENDTAB
  0
TABLE
  2
DIMSTYLE
 70
     2
  0
DIMSTYLE
  2
STANDARD
 70
     0
  3

  4

  5

  6

  7

 40
1.0
 41
0.18
 42
0.0625
 43
0.38
 44
0.18
 45
0.0
 46
0.0
 47
0.0
 48
0.0
140
0.18
141
0.09
142
0.0
143
25.399999999999999
144
1.0
145
0.0
146
1.0
147
0.09
 71
     0
 72
     0
 73
     1
 74
     1
 75
     0
 76
     0
 77
     0
 78
     0
170
     0
171
     2
172
     0
173
     0
174
     0
175
     0
176
     0
177
     0
178
     0
  0
DIMSTYLE
  2
ANNOTATIVE
 70
     0
  3

  4

  5

  6

  7

 40
1.0
 41
0.18
 42
0.0625
 43
0.38
 44
0.18
 45
0.0
 46
0.0
 47
0.0
 48
0.0
140
0.18
141
0.09
142
0.0
143
25.399999999999999
144
1.0
145
0.0
146
1.0
147
0.09
 71
     0
 72
     0
 73
     1
 74
     1
 75
     0
 76
     0
 77
     0
 78
     0
170
     0
171
     2
172
     0
173
     0
174
     0
175
     0
176
     0
177
     0
178
     0
  0
ENDTAB
  0
ENDSEC
  0
SECTION
  2
BLOCKS
  0
BLOCK
  8
0
  2
$MODEL_SPACE
 70
     0
 10
0.0
 20
0.0
 30
0.0
  3
$MODEL_SPACE
  1

  0
ENDBLK
  5
13A0
  8
0
  0
BLOCK
 67
     1
  8
0
  2
$PAPER_SPACE
 70
     0
 10
0.0
 20
0.0
 30
0.0
  3
$PAPER_SPACE
  1

  0
ENDBLK
  5
139C
 67
     1
  8
0
  0
ENDSEC
  0
SECTION
  2
ENTITIES
  0
CIRCLE
  5
B95
  8
0
 10
33.54274264235363
 20
129.40534473838721
 30
0.0
 40
4.0
  0
CIRCLE
  5
B96
  8
3
 10
33.54274264235363
 20
129.40534473838721
 30
0.0
 40
3.3235000000000001
  0
CIRCLE
  5
B97
  8
0
 10
33.54274264235363
 20
129.40534473838721
 30
0.0
 40
6.25
  0
LINE
  5
B98
  8
0
 10
41.048296141818412
 20
129.40534473838721
 30
0.0
 11
37.295519392086007
 21
135.90534473838699
 31
0.0
  0
LINE
  5
B99
  8
0
 10
37.295519392086007
 20
122.9053447383874
 30
0.0
 11
41.048296141818412
 21
129.40534473838721
 31
0.0
  0
LINE
  5
B9A
  8
0
 10
29.78996589262124
 20
122.9053447383874
 30
0.0
 11
37.295519392086007
 21
122.9053447383874
 31
0.0
  0
LINE
  5
B9B
  8
0
 10
26.037189142888849
 20
129.40534473838721
 30
0.0
 11
29.78996589262124
 21
122.9053447383874
 31
0.0
  0
LINE
  5
B9C
  8
0
 10
29.78996589262124
 20
135.90534473838699
 30
0.0
 11
26.037189142888849
 21
129.40534473838721
 31
0.0
  0
LINE
  5
B9D
  8
0
 10
37.295519392086007
 20
135.90534473838699
 30
0.0
 11
29.78996589262124
 21
135.90534473838699
 31
0.0
  0
LINE
  5
B9E
  8
1
 10
52.542742642353574
 20
129.40534473838721
 30
0.0
 11
14.54274264235368
 21
129.40534473838721
 31
0.0
  0
LINE
  5
B9F
  8
1
 10
33.54274264235363
 20
148.4053447383871
 30
0.0
 11
33.54274264235363
 21
110.4053447383872
 31
0.0
  0
CIRCLE
  5
BA3
  8
0
 10
33.54274264235363
 20
129.40534473838721
 30
0.0
 40
10.999999999999901
  0
CIRCLE
  5
BA4
  8
0
 10
33.54274264235363
 20
129.40534473838721
 30
0.0
 40
11.822172845681781
  0
CIRCLE
  5
BA5
  8
0
 10
33.54274264235363
 20
129.40534473838721
 30
0.0
 40
15.99999999999994
  0
LINE
  5
E26
  8
0
 10
45.3649154880354
 20
39.119018366372188
 30
0.0
 11
44.542742642353502
 21
44.119018366372188
 31
0.0
  0
LINE
  5
E2A
  8
0
 10
49.542742642353488
 20
34.119018366372181
 30
0.0
 11
45.3649154880354
 21
39.119018366372188
 31
0.0
  0
LINE
  5
E2E
  8
0
 10
49.042742642353502
 20
29.119018366372192
 30
0.0
 11
49.542742642353488
 21
29.619018366372192
 31
0.0
  0
LINE
  5
E2F
  8
0
 10
17.542742642353499
 20
29.619018366372192
 30
0.0
 11
18.042742642353488
 21
29.119018366372192
 31
0.0
  0
LINE
  5
E30
  8
0
 10
49.042742642353502
 20
26.119018366372192
 30
0.0
 11
49.042742642353502
 21
29.119018366372192
 31
0.0
  0
LINE
  5
E31
  8
0
 10
18.042742642353488
 20
29.119018366372192
 30
0.0
 11
18.042742642353488
 21
26.119018366372192
 31
0.0
  0
LINE
  5
E35
  8
0
 10
44.542742642353502
 20
44.119018366372188
 30
0.0
 11
22.54274264235352
 21
44.119018366372181
 31
0.0
  0
LINE
  5
E39
  8
0
 10
49.542742642353488
 20
34.119018366372181
 30
0.0
 11
17.542742642353499
 21
34.119018366372181
 31
0.0
  0
LINE
  5
E3B
  8
0
 10
49.042742642353502
 20
29.119018366372192
 30
0.0
 11
18.042742642353488
 21
29.119018366372192
 31
0.0
  0
LINE
  5
E3C
  8
0
 10
49.042742642353502
 20
26.119018366372192
 30
0.0
 11
18.042742642353488
 21
26.119018366372192
 31
0.0
  0
LINE
  5
E53
  8
0
 10
49.542742642353488
 20
29.619018366372192
 30
0.0
 11
49.542742642353488
 21
34.119018366372273
 31
0.0
  0
LINE
  5
E54
  8
0
 10
17.542742642353499
 20
29.619018366372192
 30
0.0
 11
17.542742642353499
 21
34.119018366372273
 31
0.0
  0
LINE
  5
E55
  8
0
 10
21.720569796671619
 20
39.119018366372188
 30
0.0
 11
45.3649154880354
 21
39.119018366372188
 31
0.0
  0
LINE
  5
E57
  8
0
 10
21.720569796671619
 20
39.119018366372188
 30
0.0
 11
22.54274264235352
 21
44.119018366372188
 31
0.0
  0
LINE
  5
E58
  8
0
 10
17.542742642353531
 20
34.119018366372181
 30
0.0
 11
21.720569796671619
 21
39.119018366372188
 31
0.0
  0
ARC
  5
E98
  8
0
 10
33.542742642353701
 20
40.78889134744999
 30
0.0
 40
7.0
 50
28.40704927173979
 51
38.213210701737523
  0
ARC
  5
E99
  8
0
 10
33.542742642353701
 20
40.78889134744999
 30
0.0
 40
7.0
 50
141.78678929826239
 51
151.59295072826001
  0
LINE
  5
E9A
  8
0
 10
39.042742642353687
 20
45.119018366372202
 30
0.0
 11
39.042742642353687
 21
49.119018366372202
 31
0.0
  0
LINE
  5
E9B
  8
0
 10
28.042742642353691
 20
45.119018366372202
 30
0.0
 11
28.042742642353691
 21
49.119018366372202
 31
0.0
  0
LINE
  5
E9C
  8
0
 10
39.042742642353687
 20
45.119018366372202
 30
0.0
 11
28.042742642353691
 21
45.119018366372202
 31
0.0
  0
LINE
  5
E9E
  8
0
 10
26.542742642353581
 20
53.963577909281938
 30
0.0
 11
26.542742642353581
 21
49.27445882346241
 31
0.0
  0
LINE
  5
E9F
  8
0
 10
40.542742642353559
 20
53.963577909281938
 30
0.0
 11
40.542742642353559
 21
49.27445882346241
 31
0.0
  0
LINE
  5
EA0
  8
0
 10
40.273511873121549
 20
54.119018366372202
 30
0.0
 11
26.811973411585569
 21
54.119018366372202
 31
0.0
  0
ARC
  5
EA1
  8
0
 10
30.042742642353691
 20
43.854337148244532
 30
0.0
 40
10.10924076103746
 50
69.743841999583097
 51
110.2561580004169
  0
LINE
  5
EA2
  8
0
 10
26.542742642353581
 20
53.963577909281938
 30
0.0
 11
26.811973411585569
 21
54.119018366372202
 31
0.0
  0
LINE
  5
EA3
  8
0
 10
40.542742642353559
 20
53.963577909281938
 30
0.0
 11
40.273511873121549
 21
54.119018366372202
 31
0.0
  0
ARC
  5
EA4
  8
0
 10
37.04274264235346
 20
43.854337148244532
 30
0.0
 40
10.10924076103746
 50
69.743841999583083
 51
110.2561580004169
  0
LINE
  5
EA5
  8
0
 10
40.273511873121549
 20
49.119018366372202
 30
0.0
 11
26.811973411585569
 21
49.119018366372202
 31
0.0
  0
ARC
  5
EA6
  8
0
 10
30.042742642353691
 20
59.383699584499837
 30
0.0
 40
10.10924076103746
 50
249.74384199958311
 51
290.25615800041692
  0
LINE
  5
EA7
  8
0
 10
26.542742642353581
 20
49.27445882346241
 30
0.0
 11
26.811973411585569
 21
49.119018366372202
 31
0.0
  0
LINE
  5
EA8
  8
0
 10
40.542742642353559
 20
49.27445882346241
 30
0.0
 11
40.273511873121549
 21
49.119018366372202
 31
0.0
  0
ARC
  5
EA9
  8
0
 10
37.04274264235346
 20
59.383699584499837
 30
0.0
 40
10.10924076103746
 50
249.74384199958311
 51
290.25615800041692
  0
LINE
  5
EAA
  8
0
 10
29.54274264235357
 20
73.619018366372146
 30
0.0
 11
29.542742642353598
 21
95.919018366372185
 31
0.0
  0
LINE
  5
EAB
  8
3
 10
30.219242642353478
 20
73.619018366372146
 30
0.0
 11
30.219242642353478
 21
96.59551836637209
 31
0.0
  0
LINE
  5
EAC
  8
3
 10
36.866242642353711
 20
73.619018366372146
 30
0.0
 11
36.866242642353711
 21
96.595518366372076
 31
0.0
  0
LINE
  5
EAD
  8
0
 10
37.542742642353588
 20
73.619018366372146
 30
0.0
 11
37.542742642353602
 21
95.919018366372143
 31
0.0
  0
LINE
  5
EAE
  8
0
 10
39.792742642353289
 20
67.119018366372131
 30
0.0
 11
27.292742642356249
 21
67.119018366372131
 31
0.0
  0
LINE
  5
EAF
  8
0
 10
27.292742642354881
 20
73.619018366372146
 30
0.0
 11
39.792742642353062
 21
73.619018366372146
 31
0.0
  0
ARC
  5
EB0
  8
0
 10
39.171907766953211
 20
70.152111226124106
 30
0.0
 40
3.3225695729499729
 50
64.384247467824906
 51
124.3842474680394
  0
LINE
  5
EB1
  8
0
 10
41.04829614181952
 20
72.894124215473312
 30
0.0
 11
39.792742642353289
 21
73.619018366372146
 31
0.0
  0
LINE
  5
EB2
  8
0
 10
41.04829614181952
 20
67.843912517270965
 30
0.0
 11
39.792742642353289
 21
67.119018366372131
 31
0.0
  0
ARC
  5
EB3
  8
0
 10
39.171907766953211
 20
70.585925506620185
 30
0.0
 40
3.3225695729499729
 50
235.6157525319606
 51
295.61575253217489
  0
LINE
  5
EB4
  8
0
 10
41.04829614181952
 20
72.894124215473312
 30
0.0
 11
41.04829614181952
 21
67.843912517270965
 31
0.0
  0
LINE
  5
EB5
  8
0
 10
37.295519392085289
 20
72.894124215473312
 30
0.0
 11
37.295519392087101
 21
67.843912517272486
 31
0.0
  0
LINE
  5
EB6
  8
0
 10
29.789965892624028
 20
72.894124215473312
 30
0.0
 11
29.78996589262221
 21
67.843912517272486
 31
0.0
  0
LINE
  5
EB7
  8
0
 10
26.037189142889758
 20
72.894124215473312
 30
0.0
 11
26.037189142889758
 21
67.843912517270965
 31
0.0
  0
ARC
  5
EB8
  8
0
 10
33.542742642355563
 20
79.682799350062581
 30
0.0
 40
12.41944341639239
 50
252.4120462259952
 51
287.58795377400372
  0
ARC
  5
EB9
  8
0
 10
27.913577517756099
 20
70.585925506620185
 30
0.0
 40
3.3225695729499729
 50
244.38424746782499
 51
304.38424746803918
  0
LINE
  5
EBA
  8
0
 10
26.037189142889758
 20
67.843912517270965
 30
0.0
 11
27.292742642356021
 21
67.119018366372131
 31
0.0
  0
LINE
  5
EBB
  8
0
 10
26.037189142889758
 20
72.894124215473312
 30
0.0
 11
27.292742642356021
 21
73.619018366372146
 31
0.0
  0
ARC
  5
EBC
  8
0
 10
33.542742642355563
 20
61.05523738268171
 30
0.0
 40
12.41944341639239
 50
72.41204622599642
 51
107.5879537740048
  0
ARC
  5
EBD
  8
0
 10
27.913577517756099
 20
70.152111226124106
 30
0.0
 40
3.3225695729499729
 50
55.615752531960531
 51
115.61575253217499
  0
LINE
  5
EBE
  8
0
 10
30.742742642353608
 20
97.119018366372188
 30
0.0
 11
36.342742642353578
 21
97.119018366372188
 31
0.0
  0
LINE
  5
EBF
  8
0
 10
37.542742642353588
 20
54.119018366372202
 30
0.0
 11
37.542742642353588
 21
67.119018366372131
 31
0.0
  0
LINE
  5
EC0
  8
3
 10
36.866242642353711
 20
56.119018366372231
 30
0.0
 11
36.866242642353711
 21
67.119018366372174
 31
0.0
  0
LINE
  5
EC1
  8
3
 10
30.219242642353471
 20
56.119018366372252
 30
0.0
 11
30.219242642353478
 21
67.119018366372131
 31
0.0
  0
LINE
  5
EC2
  8
0
 10
29.54274264235357
 20
54.119018366372202
 30
0.0
 11
29.54274264235357
 21
67.119018366372131
 31
0.0
  0
LINE
  5
EC3
  8
0
 10
29.542742642353598
 20
95.919018366372185
 30
0.0
 11
30.742742642353608
 21
97.119018366372188
 31
0.0
  0
LINE
  5
EC4
  8
0
 10
36.342742642353578
 20
97.119018366372188
 30
0.0
 11
37.542742642353602
 21
95.919018366372143
 31
0.0
  0
LINE
  5
EC5
  8
0
 10
29.54274264235357
 20
95.919018366372256
 30
0.0
 11
37.542742642353637
 21
95.919018366372143
 31
0.0
  0
LINE
  5
EC6
  8
0
 10
29.54274264235357
 20
56.119018366372252
 30
0.0
 11
37.542742642353637
 21
56.119018366372202
 31
0.0
  0
LINE
  5
EC7
  8
3
 10
30.219242642353471
 20
56.119018366372252
 30
0.0
 11
29.54274264235357
 21
54.947285995052148
 31
0.0
  0
LINE
  5
EC8
  8
3
 10
36.866242642353662
 20
56.119018366372252
 30
0.0
 11
37.542742642353588
 21
54.947285995052148
 31
0.0
  0
LINE
  5
EC9
  8
1
 10
33.54274264235346
 20
23.119018366372138
 30
0.0
 11
33.542742642353602
 21
100.1190183663722
 31
0.0
  0
LINE
  5
EE6
  8
1
 10
86.662992811534082
 20
23.119018366372138
 30
0.0
 11
86.662992811534195
 21
100.1190183663722
 31
0.0
  0
LINE
  5
EE7
  8
3
 10
89.986492811534276
 20
56.119018366372252
 30
0.0
 11
90.662992811534195
 21
54.947285995052148
 31
0.0
  0
LINE
  5
EE8
  8
3
 10
83.339492811534086
 20
56.119018366372252
 30
0.0
 11
82.662992811534181
 21
54.947285995052148
 31
0.0
  0
LINE
  5
EE9
  8
0
 10
82.662992811534181
 20
56.119018366372252
 30
0.0
 11
90.662992811534238
 21
56.119018366372202
 31
0.0
  0
LINE
  5
EEA
  8
0
 10
82.662992811534181
 20
95.919018366372256
 30
0.0
 11
90.662992811534238
 21
95.919018366372143
 31
0.0
  0
LINE
  5
EEB
  8
0
 10
89.462992811534207
 20
97.119018366372188
 30
0.0
 11
90.66299281153421
 21
95.919018366372143
 31
0.0
  0
LINE
  5
EEC
  8
0
 10
82.662992811534195
 20
95.919018366372185
 30
0.0
 11
83.862992811534255
 21
97.119018366372188
 31
0.0
  0
LINE
  5
EED
  8
0
 10
82.662992811534181
 20
54.119018366372202
 30
0.0
 11
82.662992811534181
 21
67.119018366372131
 31
0.0
  0
LINE
  5
EEE
  8
3
 10
83.339492811534086
 20
56.119018366372252
 30
0.0
 11
83.339492811534114
 21
67.119018366372131
 31
0.0
  0
LINE
  5
EEF
  8
3
 10
89.986492811534347
 20
56.119018366372231
 30
0.0
 11
89.986492811534347
 21
67.119018366372174
 31
0.0
  0
LINE
  5
EF0
  8
0
 10
90.662992811534195
 20
54.119018366372202
 30
0.0
 11
90.662992811534195
 21
67.119018366372131
 31
0.0
  0
LINE
  5
EF1
  8
0
 10
83.862992811534255
 20
97.119018366372188
 30
0.0
 11
89.462992811534207
 21
97.119018366372188
 31
0.0
  0
LINE
  5
F02
  8
0
 10
90.662992811534195
 20
73.619018366372146
 30
0.0
 11
90.66299281153421
 21
95.919018366372143
 31
0.0
  0
LINE
  5
F03
  8
3
 10
89.986492811534347
 20
73.619018366372146
 30
0.0
 11
89.986492811534347
 21
96.595518366372076
 31
0.0
  0
LINE
  5
F04
  8
3
 10
83.339492811534114
 20
73.619018366372146
 30
0.0
 11
83.339492811534114
 21
96.59551836637209
 31
0.0
  0
LINE
  5
F05
  8
0
 10
82.662992811534181
 20
73.619018366372146
 30
0.0
 11
82.662992811534195
 21
95.919018366372185
 31
0.0
  0
LINE
  5
F13
  8
0
 10
92.162992811534295
 20
45.119018366372202
 30
0.0
 11
81.162992811534295
 21
45.119018366372202
 31
0.0
  0
LINE
  5
F14
  8
0
 10
81.162992811534295
 20
45.119018366372202
 30
0.0
 11
81.162992811534295
 21
49.119018366372202
 31
0.0
  0
LINE
  5
F15
  8
0
 10
92.162992811534295
 20
45.119018366372202
 30
0.0
 11
92.162992811534295
 21
49.119018366372202
 31
0.0
  0
ARC
  5
F16
  8
0
 10
86.662992811534309
 20
40.78889134744999
 30
0.0
 40
7.0
 50
141.78678929826239
 51
151.59295072826001
  0
ARC
  5
F17
  8
0
 10
86.662992811534309
 20
40.78889134744999
 30
0.0
 40
7.0
 50
28.407049271739769
 51
38.213210701737466
  0
LINE
  5
F18
  8
0
 10
70.662992811534139
 20
34.119018366372181
 30
0.0
 11
74.840819965852219
 21
39.119018366372188
 31
0.0
  0
LINE
  5
F19
  8
0
 10
74.840819965852219
 20
39.119018366372188
 30
0.0
 11
75.662992811534139
 21
44.119018366372188
 31
0.0
  0
LINE
  5
F1A
  8
0
 10
74.840819965852219
 20
39.119018366372188
 30
0.0
 11
98.485165657216015
 21
39.119018366372188
 31
0.0
  0
LINE
  5
F1B
  8
0
 10
70.66299281153411
 20
29.619018366372192
 30
0.0
 11
70.66299281153411
 21
34.119018366372273
 31
0.0
  0
LINE
  5
F1C
  8
0
 10
102.6629928115341
 20
29.619018366372192
 30
0.0
 11
102.6629928115341
 21
34.119018366372273
 31
0.0
  0
LINE
  5
F1D
  8
0
 10
102.1629928115341
 20
26.119018366372192
 30
0.0
 11
71.16299281153411
 21
26.119018366372192
 31
0.0
  0
LINE
  5
F1E
  8
0
 10
102.1629928115341
 20
29.119018366372192
 30
0.0
 11
71.16299281153411
 21
29.119018366372192
 31
0.0
  0
LINE
  5
F1F
  8
0
 10
102.6629928115341
 20
34.119018366372181
 30
0.0
 11
70.662992811534124
 21
34.119018366372181
 31
0.0
  0
LINE
  5
F20
  8
0
 10
97.662992811534153
 20
44.119018366372188
 30
0.0
 11
75.662992811534139
 21
44.119018366372181
 31
0.0
  0
LINE
  5
F21
  8
0
 10
71.16299281153411
 20
29.119018366372192
 30
0.0
 11
71.16299281153411
 21
26.119018366372192
 31
0.0
  0
LINE
  5
F22
  8
0
 10
102.1629928115341
 20
26.119018366372192
 30
0.0
 11
102.1629928115341
 21
29.119018366372192
 31
0.0
  0
LINE
  5
F23
  8
0
 10
70.66299281153411
 20
29.619018366372192
 30
0.0
 11
71.16299281153411
 21
29.119018366372192
 31
0.0
  0
LINE
  5
F24
  8
0
 10
102.1629928115341
 20
29.119018366372192
 30
0.0
 11
102.6629928115341
 21
29.619018366372192
 31
0.0
  0
LINE
  5
F25
  8
0
 10
102.6629928115341
 20
34.119018366372181
 30
0.0
 11
98.485165657216015
 21
39.119018366372188
 31
0.0
  0
LINE
  5
F26
  8
0
 10
98.485165657216015
 20
39.119018366372188
 30
0.0
 11
97.662992811534153
 21
44.119018366372188
 31
0.0
  0
LINE
  5
F28
  8
0
 10
93.393762042302043
 20
49.119018366372309
 30
0.0
 11
79.932223580766262
 21
49.119018366372309
 31
0.0
  0
LINE
  5
F29
  8
0
 10
79.932223580764813
 20
54.119018366372202
 30
0.0
 11
93.393762042301788
 21
54.119018366372202
 31
0.0
  0
ARC
  5
F2A
  8
0
 10
92.725170638024991
 20
50.385426061489518
 30
0.0
 40
3.5781518477924039
 50
64.384247467825787
 51
124.38424746803869
  0
LINE
  5
F2B
  8
0
 10
94.745896580188813
 20
53.338363126942653
 30
0.0
 11
93.393762042302043
 21
54.119018366372202
 31
0.0
  0
LINE
  5
F2C
  8
0
 10
94.745896580188813
 20
49.899673605801873
 30
0.0
 11
93.393762042302043
 21
49.119018366372309
 31
0.0
  0
ARC
  5
F2D
  8
0
 10
92.725170638024991
 20
52.852610671255
 30
0.0
 40
3.5781518477924039
 50
235.61575253196131
 51
295.61575253217421
  0
LINE
  5
F2E
  8
0
 10
94.745896580188784
 20
53.338363126942689
 30
0.0
 11
94.745896580188813
 21
49.899673605801873
 31
0.0
  0
LINE
  5
F2F
  8
0
 10
90.704444695859678
 20
53.3383631269432
 30
0.0
 11
90.70444469586144
 21
49.899673605803542
 31
0.0
  0
LINE
  5
F30
  8
0
 10
82.621540927208372
 20
53.338363126941509
 30
0.0
 11
82.621540927206624
 21
49.899673605803542
 31
0.0
  0
LINE
  5
F31
  8
0
 10
78.580089042879251
 20
53.338363126942653
 30
0.0
 11
78.580089042879251
 21
49.899673605801873
 31
0.0
  0
ARC
  5
F32
  8
0
 10
86.66299281153502
 20
62.64924404111634
 30
0.0
 40
13.374785217653811
 50
252.4120462259952
 51
287.58795377400281
  0
ARC
  5
F33
  8
0
 10
80.600814985043058
 20
52.852610671255
 30
0.0
 40
3.5781518477924039
 50
244.38424746782579
 51
304.38424746803872
  0
LINE
  5
F34
  8
0
 10
78.580089042879251
 20
49.899673605801873
 30
0.0
 11
79.932223580766063
 21
49.119018366372309
 31
0.0
  0
LINE
  5
F35
  8
0
 10
78.580089042879251
 20
53.338363126942653
 30
0.0
 11
79.932223580766063
 21
54.119018366372202
 31
0.0
  0
ARC
  5
F36
  8
0
 10
86.66299281153502
 20
40.588792691628171
 30
0.0
 40
13.374785217653811
 50
72.412046225997216
 51
107.5879537740048
  0
ARC
  5
F37
  8
0
 10
80.600814985043058
 20
50.385426061489518
 30
0.0
 40
3.5781518477924039
 50
55.615752531961242
 51
115.6157525321741
  0
LINE
  5
F38
  8
0
 10
92.912992811533044
 20
67.119018366372131
 30
0.0
 11
80.412992811535773
 21
67.119018366372131
 31
0.0
  0
LINE
  5
F39
  8
0
 10
80.412992811535773
 20
73.619018366372146
 30
0.0
 11
92.912992811533044
 21
73.619018366372146
 31
0.0
  0
LINE
  5
F3A
  8
0
 10
80.16299281153465
 20
73.474680799074065
 30
0.0
 11
80.412992811535773
 21
73.619018366372146
 31
0.0
  0
ARC
  5
F3B
  8
0
 10
83.412992811534664
 20
64.087528663825381
 30
0.0
 40
9.3871521352487513
 50
69.743841999583111
 51
110.2561580004169
  0
ARC
  5
F3C
  8
0
 10
83.412992811534664
 20
76.650508068918896
 30
0.0
 40
9.3871521352487513
 50
249.74384199958311
 51
290.25615800041692
  0
LINE
  5
F3D
  8
0
 10
80.16299281153465
 20
67.263355933670226
 30
0.0
 11
80.412992811535773
 21
67.119018366372131
 31
0.0
  0
LINE
  5
F3E
  8
0
 10
80.16299281153465
 20
73.474680799074065
 30
0.0
 11
80.16299281153465
 21
67.263355933670226
 31
0.0
  0
LINE
  5
F3F
  8
0
 10
86.662992811534423
 20
72.894124215472928
 30
0.0
 11
86.662992811534423
 21
67.843912517270965
 31
0.0
  0
LINE
  5
F40
  8
0
 10
93.162992811534195
 20
73.474680799074065
 30
0.0
 11
93.162992811534195
 21
67.263355933670226
 31
0.0
  0
LINE
  5
F41
  8
0
 10
93.162992811534195
 20
67.263355933670226
 30
0.0
 11
92.912992811533044
 21
67.119018366372131
 31
0.0
  0
ARC
  5
F42
  8
0
 10
89.912992811534195
 20
76.650508068918896
 30
0.0
 40
9.3871521352487513
 50
249.74384199958311
 51
290.25615800041692
  0
ARC
  5
F43
  8
0
 10
89.912992811534195
 20
64.087528663825381
 30
0.0
 40
9.3871521352487513
 50
69.743841999583111
 51
110.2561580004169
  0
LINE
  5
F44
  8
0
 10
93.162992811534195
 20
73.474680799074065
 30
0.0
 11
92.912992811533044
 21
73.619018366372146
 31
0.0
  0
LINE
  5
103A
  8
0
 10
26.542742642353112
 20
133.44679662271369
 30
0.0
 11
26.542742642353129
 21
130.28098908540349
 31
0.0
  0
LINE
  5
103B
  8
0
 10
40.542742642354149
 20
133.44679662271369
 30
0.0
 11
40.542742642354149
 21
130.28098908540349
 31
0.0
  0
LINE
  5
103C
  8
0
 10
40.542742642354114
 20
125.36389285406069
 30
0.0
 11
37.8010728915512
 21
123.7809890854053
 31
0.0
  0
LINE
  5
103D
  8
0
 10
33.54274264235363
 20
121.3224409697325
 30
0.0
 11
30.801072891551389
 21
122.9053447383874
 31
0.0
  0
LINE
  5
103E
  8
0
 10
26.542742642353112
 20
133.4467966227138
 30
0.0
 11
29.28441239315617
 21
135.0297003913692
 31
0.0
  0
LINE
  5
103F
  8
0
 10
33.54274264235363
 20
137.48824850704199
 30
0.0
 11
36.284412393156003
 21
135.9053447383869
 31
0.0
  0
LINE
  5
1044
  8
0
 10
36.28441239315589
 20
122.9053447383874
 30
0.0
 11
33.54274264235363
 21
121.3224409697325
 31
0.0
  0
LINE
  5
1047
  8
0
 10
40.542742642354149
 20
128.5297003913708
 30
0.0
 11
40.542742642354114
 21
125.36389285406069
 31
0.0
  0
LINE
  5
1048
  8
0
 10
37.801072891551129
 20
135.0297003913692
 30
0.0
 11
40.542742642354149
 21
133.44679662271369
 31
0.0
  0
LINE
  5
1049
  8
0
 10
30.801072891551211
 20
135.9053447383869
 30
0.0
 11
33.54274264235363
 21
137.48824850704199
 31
0.0
  0
LINE
  5
104A
  8
0
 10
26.542742642353129
 20
128.5297003913708
 30
0.0
 11
26.54274264235314
 21
125.36389285406069
 31
0.0
  0
LINE
  5
104B
  8
0
 10
29.28441239315605
 20
123.7809890854053
 30
0.0
 11
26.54274264235314
 21
125.36389285406069
 31
0.0
  0
LINE
  5
12C7
  8
0
 10
33.542742642353517
 20
53.338363126942717
 30
0.0
 11
33.54274264235351
 21
49.899673605801617
 31
0.0
  0
TEXT
  5
1420
  8
0
 62
     3
 10
0.0
 20
0.0
 30
0.0
 40
10.0
  1
LSAR32S8A-SUS
  7
STANDARD1
  0
ENDSEC
  0
EOF
