  0
SECTION
  2
HEADER
  9
$ACADVER
  1
AC1009
  9
$INSBASE
 10
0.0
 20
0.0
 30
0.0
  9
$EXTMIN
 10
0.0
 20
-2.960436562073669
 30
0.0
  9
$EXTMAX
 10
111.8144611186903
 20
169.44148720276169
 30
0.0
  9
$LIMMIN
 10
0.0
 20
0.0
  9
$LIMMAX
 10
375.0
 20
270.0
  9
$ORTHOMODE
 70
     1
  9
$REGENMODE
 70
     1
  9
$FILLMODE
 70
     1
  9
$QTEXTMODE
 70
     0
  9
$MIRRTEXT
 70
     0
  9
$DRAGMODE
 70
     2
  9
$LTSCALE
 40
6.0
  9
$OSMODE
 70
  3071
  9
$ATTMODE
 70
     1
  9
$TEXTSIZE
 40
0.2
  9
$TRACEWID
 40
0.05
  9
$TEXTSTYLE
  7
STANDARD
  9
$CLAYER
  8
0
  9
$CELTYPE
  6
BYLAYER
  9
$CECOLOR
 62
   256
  9
$DIMSCALE
 40
1.0
  9
$DIMASZ
 40
3.0
  9
$DIMEXO
 40
1.0
  9
$DIMDLI
 40
6.0
  9
$DIMRND
 40
0.0
  9
$DIMDLE
 40
0.0
  9
$DIMEXE
 40
1.0
  9
$DIMTP
 40
495.0
  9
$DIMTM
 40
0.0
  9
$DIMTXT
 40
3.0
  9
$DIMCEN
 40
0.0
  9
$DIMTSZ
 40
0.0
  9
$DIMTOL
 70
     0
  9
$DIMLIM
 70
     0
  9
$DIMTIH
 70
     0
  9
$DIMTOH
 70
     0
  9
$DIMSE1
 70
     0
  9
$DIMSE2
 70
     0
  9
$DIMTAD
 70
     1
  9
$DIMZIN
 70
     8
  9
$DIMBLK
  1

  9
$DIMASO
 70
     0
  9
$DIMSHO
 70
     0
  9
$DIMPOST
  1

  9
$DIMAPOST
  1

  9
$DIMALT
 70
     0
  9
$DIMALTD
 70
     2
  9
$DIMALTF
 40
25.399999999999999
  9
$DIMLFAC
 40
1.0
  9
$DIMTOFL
 70
     1
  9
$DIMTVP
 40
0.0
  9
$DIMTIX
 70
     1
  9
$DIMSOXD
 70
     0
  9
$DIMSAH
 70
     0
  9
$DIMBLK1
  1

  9
$DIMBLK2
  1

  9
$DIMSTYLE
  2
STANDARD
  9
$DIMCLRD
 70
     0
  9
$DIMCLRE
 70
     0
  9
$DIMCLRT
 70
     4
  9
$DIMTFAC
 40
1.0
  9
$DIMGAP
 40
1.0
  9
$LUNITS
 70
     2
  9
$LUPREC
 70
     4
  9
$SKETCHINC
 40
0.1
  9
$FILLETRAD
 40
2.0
  9
$AUNITS
 70
     0
  9
$AUPREC
 70
     0
  9
$MENU
  1
C:\R13\WIN\SUPPORT\ACAD-I
  9
$ELEVATION
 40
0.0
  9
$PELEVATION
 40
0.0
  9
$THICKNESS
 40
0.0
  9
$LIMCHECK
 70
     0
  9
$BLIPMODE
 70
     0
  9
$CHAMFERA
 40
0.0
  9
$CHAMFERB
 40
0.0
  9
$SKPOLY
 70
     0
  9
$TDCREATE
 40
2451961.7051775232
  9
$TDUPDATE
 40
2456597.6078170142
  9
$TDINDWG
 40
0.0526408218
  9
$TDUSRTIMER
 40
2456548.2971064001
  9
$USRTIMER
 70
     1
  9
$ANGBASE
 50
0.0
  9
$ANGDIR
 70
     0
  9
$PDMODE
 70
     0
  9
$PDSIZE
 40
0.0
  9
$PLINEWID
 40
0.0
  9
$COORDS
 70
     1
  9
$SPLFRAME
 70
     0
  9
$SPLINETYPE
 70
     6
  9
$SPLINESEGS
 70
     8
  9
$ATTDIA
 70
     0
  9
$ATTREQ
 70
     1
  9
$HANDLING
 70
     1
  9
$HANDSEED
  5
1596
  9
$SURFTAB1
 70
     6
  9
$SURFTAB2
 70
     6
  9
$SURFTYPE
 70
     6
  9
$SURFU
 70
     6
  9
$SURFV
 70
     6
  9
$UCSNAME
  2

  9
$UCSORG
 10
0.0
 20
0.0
 30
0.0
  9
$UCSXDIR
 10
1.0
 20
0.0
 30
0.0
  9
$UCSYDIR
 10
0.0
 20
1.0
 30
0.0
  9
$PUCSNAME
  2

  9
$PUCSORG
 10
0.0
 20
0.0
 30
0.0
  9
$PUCSXDIR
 10
1.0
 20
0.0
 30
0.0
  9
$PUCSYDIR
 10
0.0
 20
1.0
 30
0.0
  9
$USERI1
 70
     4
  9
$USERI2
 70
     1
  9
$USERI3
 70
     0
  9
$USERI4
 70
     0
  9
$USERI5
 70
     0
  9
$USERR1
 40
1.0
  9
$USERR2
 40
3.0
  9
$USERR3
 40
3.0
  9
$USERR4
 40
3.0
  9
$USERR5
 40
10.0
  9
$WORLDVIEW
 70
     1
  9
$SHADEDGE
 70
     3
  9
$SHADEDIF
 70
    70
  9
$TILEMODE
 70
     1
  9
$MAXACTVP
 70
    16
  9
$PLIMCHECK
 70
     0
  9
$PEXTMIN
 10
1.0000000000000000E+020
 20
1.0000000000000000E+020
 30
1.0000000000000000E+020
  9
$PEXTMAX
 10
-1.0000000000000000E+020
 20
-1.0000000000000000E+020
 30
-1.0000000000000000E+020
  9
$PLIMMIN
 10
0.0
 20
0.0
  9
$PLIMMAX
 10
12.0
 20
9.0
  9
$UNITMODE
 70
     0
  9
$VISRETAIN
 70
     0
  9
$PLINEGEN
 70
     0
  9
$PSLTSCALE
 70
     0
  0
ENDSEC
  0
SECTION
  2
TABLES
  0
TABLE
  2
VPORT
 70
     1
  0
VPORT
  2
*ACTIVE
 70
     0
 10
0.0
 20
0.0
 11
1.0
 21
1.0
 12
187.49427839065231
 22
134.10366293909439
 13
0.0
 23
0.0
 14
10.0
 24
10.0
 15
10.0
 25
10.0
 16
0.0
 26
0.0
 36
1.0
 17
0.0
 27
0.0
 37
0.0
 40
277.29405978699532
 41
2.304913294797688
 42
50.0
 43
0.0
 44
0.0
 50
0.0
 51
0.0
 71
    16
 72
   100
 73
     1
 74
     0
 75
     0
 76
     0
 77
     0
 78
     0
  0
ENDTAB
  0
TABLE
  2
LTYPE
 70
     3
  0
LTYPE
  2
CONTINUOUS
 70
     0
  3
Solid Line
 72
    65
 73
     0
 40
0.0
  0
LTYPE
  2
PHANTOM2
 70
     0
  3
___ _ _ ___ _ _ ___ _ _ ___ _ _
 72
    65
 73
     6
 40
1.25
 49
0.625
 49
-0.125
 49
0.125
 49
-0.125
 49
0.125
 49
-0.125
  0
LTYPE
  2
CENTER
 70
     0
  3
____ _ ____ _ ____ _ ____ _ ____ _ ____ _ ____
 72
    65
 73
     4
 40
2.0
 49
1.25
 49
-0.25
 49
0.25
 49
-0.25
  0
ENDTAB
  0
TABLE
  2
LAYER
 70
     3
  0
LAYER
  2
0
 70
     0
 62
     7
  6
CONTINUOUS
  0
LAYER
  2
1
 70
     0
 62
     1
  6
CENTER
  0
LAYER
  2
3
 70
     0
 62
     3
  6
CONTINUOUS
  0
ENDTAB
  0
TABLE
  2
STYLE
 70
     3
  0
STYLE
  2
STANDARD
 70
     0
 40
0.0
 41
1.0
 50
0.0
 71
     0
 42
0.2
  3
SIMPLEX
  4
BIGFONT
  0
STYLE
  2
ANNOTATIVE
 70
     0
 40
0.0
 41
1.0
 50
0.0
 71
     0
 42
0.2
  3
txt
  4

  0
STYLE
  2
STANDARD1
 70
     0
 40
0.0
 41
1.0
 50
0.0
 71
     0
 42
3.0
  3
txt
  4

  0
ENDTAB
  0
TABLE
  2
VIEW
 70
     0
  0
ENDTAB
  0
TABLE
  2
UCS
 70
     0
  0
ENDTAB
  0
TABLE
  2
APPID
 70
    31
  0
APPID
  2
ACAD
 70
     0
  0
APPID
  2
ACADANNOTATIVE
 70
     0
  0
APPID
  2
GENIUS_GENOREF_13
 70
     0
  0
APPID
  2
GENIUS_GENOENT_13
 70
     0
  0
APPID
  2
GENIUS_GENBH_13
 70
     0
  0
APPID
  2
GENIUS_GENOBJ_13
 70
     0
  0
APPID
  2
GENIUS_GENODEF_13
 70
     0
  0
APPID
  2
GENIUS_GENOLIS_13
 70
     0
  0
APPID
  2
GENIUS_GENOBJ-NBEHI-BHF_13
 70
     0
  0
APPID
  2
GENIUS_GENOBJ-NBEHI-BHB_13
 70
     0
  0
APPID
  2
GENIUS_GENOBJ-F-PART_13
 70
     0
  0
APPID
  2
GENIUS_GEFSTDP_13
 70
     0
  0
APPID
  2
GENIUS_GENOBJ-N-RSSYM_13
 70
     0
  0
APPID
  2
GENIUS_GENSYMENT_13
 70
     0
  0
APPID
  2
GENIUS_GENOBJ-N-TIT_13
 70
     0
  0
APPID
  2
GENIUS_GENTITLE_13
 70
     0
  0
APPID
  2
GENIUS_GENZVEED_13
 70
     0
  0
APPID
  2
GENIUS_GENOBJ-N-LEADER_13
 70
     0
  0
APPID
  2
GENIUS_GENOBJ-N-FIL_13
 70
     0
  0
APPID
  2
GENIUS_GENOBJ-N-SEC_13
 70
     0
  0
APPID
  2
GENIUS_GENOBJ-N-CRS_13
 70
     0
  0
APPID
  2
GENIUS_GENOBJ-N-ZOO_13
 70
     0
  0
APPID
  2
GENIUS_GENZOO_13
 70
     0
  0
APPID
  2
GENIUS_GENOBJ-F-TOL_13
 70
     0
  0
APPID
  2
GENIUS_GENFIL_13
 70
     0
  0
APPID
  2
GENIUS_GENOBJ-N-CHA_13
 70
     0
  0
APPID
  2
ACAD_DSTYLE_DIMJAG
 70
     0
  0
APPID
  2
ACAD_DSTYLE_DIMTALN
 70
     0
  0
APPID
  2
ACAD_MLEADERVER
 70
     0
  0
APPID
  2
ACAD_EXEMPT_FROM_CAD_STANDARDS
 70
     0
  0
APPID
  2
ACAD_NAV_VCDISPLAY
 70
     0
  0
ENDTAB
  0
TABLE
  2
DIMSTYLE
 70
     2
  0
DIMSTYLE
  2
STANDARD
 70
     0
  3

  4

  5

  6

  7

 40
1.0
 41
0.18
 42
0.0625
 43
0.38
 44
0.18
 45
0.0
 46
0.0
 47
0.0
 48
0.0
140
0.18
141
0.09
142
0.0
143
25.399999999999999
144
1.0
145
0.0
146
1.0
147
0.09
 71
     0
 72
     0
 73
     1
 74
     1
 75
     0
 76
     0
 77
     0
 78
     0
170
     0
171
     2
172
     0
173
     0
174
     0
175
     0
176
     0
177
     0
178
     0
  0
DIMSTYLE
  2
ANNOTATIVE
 70
     0
  3

  4

  5

  6

  7

 40
1.0
 41
0.18
 42
0.0625
 43
0.38
 44
0.18
 45
0.0
 46
0.0
 47
0.0
 48
0.0
140
0.18
141
0.09
142
0.0
143
25.399999999999999
144
1.0
145
0.0
146
1.0
147
0.09
 71
     0
 72
     0
 73
     1
 74
     1
 75
     0
 76
     0
 77
     0
 78
     0
170
     0
171
     2
172
     0
173
     0
174
     0
175
     0
176
     0
177
     0
178
     0
  0
ENDTAB
  0
ENDSEC
  0
SECTION
  2
BLOCKS
  0
BLOCK
  8
0
  2
$MODEL_SPACE
 70
     0
 10
0.0
 20
0.0
 30
0.0
  3
$MODEL_SPACE
  1

  0
ENDBLK
  5
14B7
  8
0
  0
BLOCK
 67
     1
  8
0
  2
$PAPER_SPACE
 70
     0
 10
0.0
 20
0.0
 30
0.0
  3
$PAPER_SPACE
  1

  0
ENDBLK
  5
14B3
 67
     1
  8
0
  0
ENDSEC
  0
SECTION
  2
ENTITIES
  0
LINE
  5
D36
  8
1
 10
90.426464104798924
 20
18.1552696086104
 30
0.0
 11
90.426464104798924
 21
121.1552696086103
 31
0.0
  0
LINE
  5
D52
  8
0
 10
33.306213935618061
 20
69.655269608610382
 30
0.0
 11
33.306213935618423
 21
116.95526960861039
 31
0.0
  0
LINE
  5
D53
  8
3
 10
33.982713935617973
 20
69.655269608610382
 30
0.0
 11
33.982713935618342
 21
117.6317696086103
 31
0.0
  0
LINE
  5
D54
  8
3
 10
40.62971393561817
 20
69.655269608610382
 30
0.0
 11
40.629713935618547
 21
117.6317696086103
 31
0.0
  0
LINE
  5
D55
  8
0
 10
41.306213935618047
 20
69.655269608610382
 30
0.0
 11
41.306213935618402
 21
116.95526960861029
 31
0.0
  0
LINE
  5
D56
  8
0
 10
43.556213935618068
 20
63.155269608610347
 30
0.0
 11
31.056213935621091
 21
63.155269608610347
 31
0.0
  0
LINE
  5
D57
  8
0
 10
31.056213935619361
 20
69.655269608610382
 30
0.0
 11
43.556213935617457
 21
69.655269608610382
 31
0.0
  0
ARC
  5
D58
  8
0
 10
42.93537906021762
 20
66.188362468362328
 30
0.0
 40
3.3225695729499729
 50
64.384247467825034
 51
124.38424746803931
  0
LINE
  5
D59
  8
0
 10
44.811767435083958
 20
68.930375457711563
 30
0.0
 11
43.556213935617691
 21
69.655269608610382
 31
0.0
  0
LINE
  5
D5A
  8
0
 10
44.811767435084327
 20
63.880163759509173
 30
0.0
 11
43.556213935618068
 21
63.155269608610347
 31
0.0
  0
ARC
  5
D5B
  8
0
 10
42.93537906021799
 20
66.622176748858408
 30
0.0
 40
3.3225695729499729
 50
235.6157525319606
 51
295.61575253217489
  0
LINE
  5
D5C
  8
0
 10
44.811767435083958
 20
68.930375457711563
 30
0.0
 11
44.811767435084327
 21
63.880163759509173
 31
0.0
  0
LINE
  5
D5D
  8
0
 10
41.058990685349741
 20
68.930375457711563
 30
0.0
 11
41.05899068535193
 21
63.880163759510708
 31
0.0
  0
LINE
  5
D5E
  8
0
 10
33.553437185888498
 20
68.930375457711563
 30
0.0
 11
33.553437185887049
 21
63.880163759510708
 31
0.0
  0
LINE
  5
D5F
  8
0
 10
29.800660436154232
 20
68.930375457711563
 30
0.0
 11
29.800660436154601
 21
63.880163759509173
 31
0.0
  0
ARC
  5
D60
  8
0
 10
37.306213935620413
 20
75.719050592300803
 30
0.0
 40
12.41944341639239
 50
252.4120462259952
 51
287.58795377400372
  0
ARC
  5
D61
  8
0
 10
31.677048811020931
 20
66.622176748858408
 30
0.0
 40
3.3225695729499729
 50
244.38424746782499
 51
304.38424746803918
  0
LINE
  5
D62
  8
0
 10
29.800660436154601
 20
63.880163759509173
 30
0.0
 11
31.05621393562086
 21
63.155269608610347
 31
0.0
  0
LINE
  5
D63
  8
0
 10
29.800660436154232
 20
68.930375457711563
 30
0.0
 11
31.056213935620491
 21
69.655269608610382
 31
0.0
  0
ARC
  5
D64
  8
0
 10
37.306213935620043
 20
57.09148862491994
 30
0.0
 40
12.41944341639239
 50
72.41204622599642
 51
107.5879537740048
  0
ARC
  5
D65
  8
0
 10
31.677048811020569
 20
66.188362468362328
 30
0.0
 40
3.3225695729499729
 50
55.615752531960617
 51
115.6157525321748
  0
LINE
  5
D6B
  8
0
 10
34.506213935618462
 20
118.1552696086104
 30
0.0
 11
40.10621393561842
 21
118.1552696086104
 31
0.0
  0
LINE
  5
D6C
  8
0
 10
41.306213935618402
 20
50.155269608610411
 30
0.0
 11
41.306213935618402
 21
63.155269608610347
 31
0.0
  0
LINE
  5
D6D
  8
3
 10
40.629713935618547
 20
52.155269608610439
 30
0.0
 11
40.629713935618547
 21
63.155269608610382
 31
0.0
  0
LINE
  5
D6E
  8
3
 10
33.982713935618342
 20
52.155269608610467
 30
0.0
 11
33.982713935618342
 21
63.155269608610347
 31
0.0
  0
LINE
  5
D6F
  8
0
 10
33.306213935618423
 20
50.155269608610411
 30
0.0
 11
33.306213935618423
 21
63.155269608610347
 31
0.0
  0
LINE
  5
D70
  8
0
 10
33.306213935618423
 20
116.95526960861039
 30
0.0
 11
34.506213935618462
 21
118.1552696086104
 31
0.0
  0
LINE
  5
D71
  8
0
 10
40.10621393561842
 20
118.1552696086104
 30
0.0
 11
41.306213935618402
 21
116.95526960861029
 31
0.0
  0
LINE
  5
D72
  8
0
 10
33.306213935618423
 20
116.95526960861049
 30
0.0
 11
41.306213935618459
 21
116.95526960861029
 31
0.0
  0
LINE
  5
D73
  8
0
 10
33.306213935618423
 20
52.155269608610467
 30
0.0
 11
41.306213935618459
 21
52.155269608610411
 31
0.0
  0
LINE
  5
D74
  8
3
 10
33.982713935618342
 20
52.155269608610467
 30
0.0
 11
33.306213935618423
 21
50.983537237290371
 31
0.0
  0
LINE
  5
D75
  8
3
 10
40.629713935618483
 20
52.155269608610467
 30
0.0
 11
41.306213935618402
 21
50.983537237290371
 31
0.0
  0
LINE
  5
D92
  8
0
 10
86.426464104798526
 20
69.655269608610382
 30
0.0
 11
86.42646410479891
 21
116.95526960861039
 31
0.0
  0
LINE
  5
D93
  8
3
 10
87.10296410479836
 20
69.655269608610354
 30
0.0
 11
87.10296410479873
 21
117.6317696086103
 31
0.0
  0
LINE
  5
D94
  8
0
 10
94.426464104798569
 20
69.655269608610354
 30
0.0
 11
94.426464104798924
 21
116.95526960861029
 31
0.0
  0
LINE
  5
D95
  8
3
 10
93.749964104798636
 20
69.655269608610382
 30
0.0
 11
93.749964104799005
 21
117.6317696086102
 31
0.0
  0
LINE
  5
DA6
  8
0
 10
96.676464104797901
 20
63.155269608610318
 30
0.0
 11
84.17646410480063
 21
63.155269608610318
 31
0.0
  0
LINE
  5
DA7
  8
0
 10
84.17646410480026
 20
69.655269608610354
 30
0.0
 11
96.67646410479756
 21
69.655269608610354
 31
0.0
  0
LINE
  5
DA8
  8
0
 10
83.926464104799123
 20
69.510932041312287
 30
0.0
 11
84.17646410480026
 21
69.655269608610354
 31
0.0
  0
ARC
  5
DA9
  8
0
 10
87.176464104799123
 20
60.123779906063596
 30
0.0
 40
9.3871521352487513
 50
69.743841999583083
 51
110.2561580004169
  0
ARC
  5
DAA
  8
0
 10
87.176464104799479
 20
72.686759311157061
 30
0.0
 40
9.3871521352487513
 50
249.74384199958311
 51
290.25615800041692
  0
LINE
  5
DAB
  8
0
 10
83.926464104799464
 20
63.299607175908392
 30
0.0
 11
84.17646410480063
 21
63.155269608610318
 31
0.0
  0
LINE
  5
DAC
  8
0
 10
83.926464104799123
 20
69.510932041312287
 30
0.0
 11
83.926464104799464
 21
63.299607175908392
 31
0.0
  0
LINE
  5
DAD
  8
0
 10
90.426464104798868
 20
68.93037545771115
 30
0.0
 11
90.426464104799265
 21
63.880163759509152
 31
0.0
  0
LINE
  5
DAE
  8
0
 10
96.926464104798654
 20
69.510932041312287
 30
0.0
 11
96.926464104799038
 21
63.299607175908392
 31
0.0
  0
LINE
  5
DAF
  8
0
 10
96.926464104799038
 20
63.299607175908392
 30
0.0
 11
96.676464104797901
 21
63.155269608610318
 31
0.0
  0
ARC
  5
DB0
  8
0
 10
93.676464104799038
 20
72.686759311157061
 30
0.0
 40
9.3871521352487513
 50
249.74384199958311
 51
290.25615800041692
  0
ARC
  5
DB1
  8
0
 10
93.676464104798697
 20
60.123779906063596
 30
0.0
 40
9.3871521352487513
 50
69.743841999583083
 51
110.2561580004169
  0
LINE
  5
DB2
  8
0
 10
96.926464104798654
 20
69.510932041312287
 30
0.0
 11
96.67646410479756
 21
69.655269608610354
 31
0.0
  0
LINE
  5
DB3
  8
3
 10
93.749964104799005
 20
52.155269608610439
 30
0.0
 11
94.426464104798924
 21
50.983537237290328
 31
0.0
  0
LINE
  5
DB4
  8
3
 10
87.10296410479873
 20
52.155269608610439
 30
0.0
 11
86.42646410479891
 21
50.983537237290328
 31
0.0
  0
LINE
  5
DB5
  8
0
 10
86.42646410479891
 20
52.155269608610439
 30
0.0
 11
94.426464104798924
 21
52.155269608610382
 31
0.0
  0
LINE
  5
DB6
  8
0
 10
86.42646410479891
 20
116.95526960861039
 30
0.0
 11
94.426464104798924
 21
116.95526960861029
 31
0.0
  0
LINE
  5
DB7
  8
0
 10
93.226464104798893
 20
118.1552696086103
 30
0.0
 11
94.426464104798924
 21
116.95526960861029
 31
0.0
  0
LINE
  5
DB8
  8
0
 10
86.42646410479891
 20
116.95526960861039
 30
0.0
 11
87.62646410479897
 21
118.1552696086104
 31
0.0
  0
LINE
  5
DB9
  8
0
 10
86.42646410479891
 20
50.15526960861034
 30
0.0
 11
86.42646410479891
 21
63.155269608610318
 31
0.0
  0
LINE
  5
DBA
  8
3
 10
87.10296410479873
 20
52.155269608610439
 30
0.0
 11
87.10296410479873
 21
63.155269608610318
 31
0.0
  0
LINE
  5
DBB
  8
3
 10
93.749964104799005
 20
52.155269608610382
 30
0.0
 11
93.749964104799005
 21
63.155269608610318
 31
0.0
  0
LINE
  5
DBC
  8
0
 10
94.426464104798924
 20
50.15526960861034
 30
0.0
 11
94.426464104798924
 21
63.155269608610318
 31
0.0
  0
LINE
  5
DBD
  8
0
 10
87.62646410479897
 20
118.1552696086104
 30
0.0
 11
93.226464104798893
 21
118.1552696086103
 31
0.0
  0
LINE
  5
E38
  8
1
 10
37.306213935618423
 20
18.1552696086104
 30
0.0
 11
37.306213935618423
 21
121.1552696086103
 31
0.0
  0
LINE
  5
109F
  8
0
 10
49.128386781300321
 20
35.155269608610404
 30
0.0
 11
48.30621393561843
 21
40.155269608610389
 31
0.0
  0
LINE
  5
10A0
  8
0
 10
53.30621393561843
 20
30.1552696086104
 30
0.0
 11
49.128386781300321
 21
35.155269608610404
 31
0.0
  0
LINE
  5
10A1
  8
0
 10
52.80621393561843
 20
25.1552696086104
 30
0.0
 11
53.30621393561843
 21
25.6552696086104
 31
0.0
  0
LINE
  5
10A2
  8
0
 10
21.30621393561843
 20
25.6552696086104
 30
0.0
 11
21.80621393561843
 21
25.1552696086104
 31
0.0
  0
LINE
  5
10A3
  8
0
 10
52.80621393561843
 20
22.1552696086104
 30
0.0
 11
52.80621393561843
 21
25.1552696086104
 31
0.0
  0
LINE
  5
10A4
  8
0
 10
21.80621393561843
 20
25.1552696086104
 30
0.0
 11
21.80621393561843
 21
22.1552696086104
 31
0.0
  0
LINE
  5
10A5
  8
0
 10
48.30621393561843
 20
40.155269608610389
 30
0.0
 11
26.30621393561843
 21
40.155269608610389
 31
0.0
  0
LINE
  5
10A6
  8
0
 10
53.30621393561843
 20
30.1552696086104
 30
0.0
 11
21.30621393561843
 21
30.1552696086104
 31
0.0
  0
LINE
  5
10A7
  8
0
 10
52.80621393561843
 20
25.1552696086104
 30
0.0
 11
21.80621393561843
 21
25.1552696086104
 31
0.0
  0
LINE
  5
10A8
  8
0
 10
52.80621393561843
 20
22.1552696086104
 30
0.0
 11
21.80621393561843
 21
22.1552696086104
 31
0.0
  0
LINE
  5
10A9
  8
0
 10
53.30621393561843
 20
25.6552696086104
 30
0.0
 11
53.30621393561843
 21
30.155269608610482
 31
0.0
  0
LINE
  5
10AA
  8
0
 10
21.30621393561843
 20
25.6552696086104
 30
0.0
 11
21.30621393561843
 21
30.155269608610482
 31
0.0
  0
LINE
  5
10AB
  8
0
 10
25.484041089936529
 20
35.155269608610404
 30
0.0
 11
49.128386781300321
 21
35.155269608610404
 31
0.0
  0
LINE
  5
10AC
  8
0
 10
25.484041089936529
 20
35.155269608610404
 30
0.0
 11
26.30621393561843
 21
40.155269608610389
 31
0.0
  0
LINE
  5
10AD
  8
0
 10
21.30621393561843
 20
30.1552696086104
 30
0.0
 11
25.484041089936529
 21
35.155269608610404
 31
0.0
  0
ARC
  5
10AE
  8
0
 10
37.306213935618601
 20
36.825142589688198
 30
0.0
 40
7.0
 50
28.407049271739272
 51
38.213210701736877
  0
ARC
  5
10AF
  8
0
 10
37.306213935618601
 20
36.825142589688198
 30
0.0
 40
7.0
 50
141.7867892982631
 51
151.59295072826069
  0
LINE
  5
10B0
  8
0
 10
42.806213935618601
 20
41.155269608610404
 30
0.0
 11
42.806213935618601
 21
45.155269608610404
 31
0.0
  0
LINE
  5
10B1
  8
0
 10
31.806213935618601
 20
41.155269608610404
 30
0.0
 11
31.806213935618601
 21
45.155269608610404
 31
0.0
  0
LINE
  5
10B2
  8
0
 10
42.806213935618601
 20
41.155269608610404
 30
0.0
 11
31.806213935618601
 21
41.155269608610404
 31
0.0
  0
LINE
  5
10B3
  8
0
 10
37.306213935618487
 20
49.374614369180968
 30
0.0
 11
37.306213935618452
 21
45.935924848039818
 31
0.0
  0
LINE
  5
10B4
  8
0
 10
30.306213935618491
 20
49.999829151520132
 30
0.0
 11
30.306213935618491
 21
45.310710065700597
 31
0.0
  0
LINE
  5
10B5
  8
0
 10
44.306213935618487
 20
49.999829151520132
 30
0.0
 11
44.306213935618487
 21
45.310710065700597
 31
0.0
  0
LINE
  5
10B6
  8
0
 10
44.03698316638647
 20
50.155269608610411
 30
0.0
 11
30.575444704850479
 21
50.155269608610411
 31
0.0
  0
ARC
  5
10B7
  8
0
 10
33.806213935618601
 20
39.890588390482741
 30
0.0
 40
10.10924076103746
 50
69.743841999583182
 51
110.2561580004168
  0
LINE
  5
10B8
  8
0
 10
30.306213935618491
 20
49.999829151520132
 30
0.0
 11
30.575444704850479
 21
50.155269608610411
 31
0.0
  0
LINE
  5
10B9
  8
0
 10
44.306213935618487
 20
49.999829151520132
 30
0.0
 11
44.03698316638647
 21
50.155269608610411
 31
0.0
  0
ARC
  5
10BA
  8
0
 10
40.806213935618374
 20
39.890588390482741
 30
0.0
 40
10.10924076103746
 50
69.743841999583182
 51
110.2561580004168
  0
LINE
  5
10BB
  8
0
 10
44.03698316638647
 20
45.155269608610404
 30
0.0
 11
30.575444704850479
 21
45.155269608610404
 31
0.0
  0
ARC
  5
10BC
  8
0
 10
33.806213935618601
 20
55.419950826738038
 30
0.0
 40
10.10924076103746
 50
249.7438419995832
 51
290.2561580004168
  0
LINE
  5
10BD
  8
0
 10
30.306213935618491
 20
45.310710065700597
 30
0.0
 11
30.575444704850479
 21
45.155269608610404
 31
0.0
  0
LINE
  5
10BE
  8
0
 10
44.306213935618487
 20
45.310710065700597
 30
0.0
 11
44.03698316638647
 21
45.155269608610404
 31
0.0
  0
ARC
  5
10BF
  8
0
 10
40.806213935618374
 20
55.419950826738038
 30
0.0
 40
10.10924076103746
 50
249.7438419995832
 51
290.2561580004168
  0
LINE
  5
10C0
  8
0
 10
95.926464104799194
 20
41.155269608610404
 30
0.0
 11
84.926464104799223
 21
41.155269608610404
 31
0.0
  0
LINE
  5
10C1
  8
0
 10
84.926464104799223
 20
41.155269608610404
 30
0.0
 11
84.926464104799223
 21
45.155269608610404
 31
0.0
  0
LINE
  5
10C2
  8
0
 10
95.926464104799194
 20
41.155269608610404
 30
0.0
 11
95.926464104799194
 21
45.155269608610404
 31
0.0
  0
ARC
  5
10C3
  8
0
 10
90.426464104799237
 20
36.825142589688198
 30
0.0
 40
7.0
 50
141.7867892982631
 51
151.59295072826069
  0
ARC
  5
10C4
  8
0
 10
90.426464104799237
 20
36.825142589688198
 30
0.0
 40
7.0
 50
28.407049271739272
 51
38.213210701736877
  0
LINE
  5
10C5
  8
0
 10
74.426464104799066
 20
30.1552696086104
 30
0.0
 11
78.604291259117133
 21
35.155269608610404
 31
0.0
  0
LINE
  5
10C6
  8
0
 10
78.604291259117133
 20
35.155269608610404
 30
0.0
 11
79.426464104799066
 21
40.155269608610389
 31
0.0
  0
LINE
  5
10C7
  8
0
 10
78.604291259117133
 20
35.155269608610404
 30
0.0
 11
102.2486369504809
 21
35.155269608610404
 31
0.0
  0
LINE
  5
10C8
  8
0
 10
74.42646410479901
 20
25.6552696086104
 30
0.0
 11
74.42646410479901
 21
30.155269608610482
 31
0.0
  0
LINE
  5
10C9
  8
0
 10
106.426464104799
 20
25.6552696086104
 30
0.0
 11
106.426464104799
 21
30.155269608610482
 31
0.0
  0
LINE
  5
10CA
  8
0
 10
105.926464104799
 20
22.1552696086104
 30
0.0
 11
74.92646410479901
 21
22.1552696086104
 31
0.0
  0
LINE
  5
10CB
  8
0
 10
105.926464104799
 20
25.1552696086104
 30
0.0
 11
74.92646410479901
 21
25.1552696086104
 31
0.0
  0
LINE
  5
10CC
  8
0
 10
106.426464104799
 20
30.1552696086104
 30
0.0
 11
74.426464104799066
 21
30.1552696086104
 31
0.0
  0
LINE
  5
10CD
  8
0
 10
101.426464104799
 20
40.155269608610389
 30
0.0
 11
79.426464104799066
 21
40.155269608610389
 31
0.0
  0
LINE
  5
10CE
  8
0
 10
74.92646410479901
 20
25.1552696086104
 30
0.0
 11
74.92646410479901
 21
22.1552696086104
 31
0.0
  0
LINE
  5
10CF
  8
0
 10
105.926464104799
 20
22.1552696086104
 30
0.0
 11
105.926464104799
 21
25.1552696086104
 31
0.0
  0
LINE
  5
10D0
  8
0
 10
74.42646410479901
 20
25.6552696086104
 30
0.0
 11
74.92646410479901
 21
25.1552696086104
 31
0.0
  0
LINE
  5
10D1
  8
0
 10
105.926464104799
 20
25.1552696086104
 30
0.0
 11
106.426464104799
 21
25.6552696086104
 31
0.0
  0
LINE
  5
10D2
  8
0
 10
106.426464104799
 20
30.1552696086104
 30
0.0
 11
102.2486369504809
 21
35.155269608610404
 31
0.0
  0
LINE
  5
10D3
  8
0
 10
102.2486369504809
 20
35.155269608610404
 30
0.0
 11
101.426464104799
 21
40.155269608610389
 31
0.0
  0
LINE
  5
10D4
  8
0
 10
97.157233335566957
 20
45.155269608610517
 30
0.0
 11
83.69569487403119
 21
45.155269608610517
 31
0.0
  0
LINE
  5
10D5
  8
0
 10
83.695694874029726
 20
50.155269608610411
 30
0.0
 11
97.157233335566715
 21
50.155269608610411
 31
0.0
  0
ARC
  5
10D6
  8
0
 10
96.488641931289905
 20
46.421677303727712
 30
0.0
 40
3.5781518477924039
 50
64.384247467826071
 51
124.3842474680383
  0
LINE
  5
10D7
  8
0
 10
98.509367873453769
 20
49.374614369180883
 30
0.0
 11
97.157233335566957
 21
50.155269608610411
 31
0.0
  0
LINE
  5
10D8
  8
0
 10
98.509367873453769
 20
45.935924848040067
 30
0.0
 11
97.157233335566957
 21
45.155269608610517
 31
0.0
  0
ARC
  5
10D9
  8
0
 10
96.488641931289905
 20
48.888861913493201
 30
0.0
 40
3.5781518477924039
 50
235.61575253196159
 51
295.61575253217387
  0
LINE
  5
10DA
  8
0
 10
98.509367873453712
 20
49.374614369180897
 30
0.0
 11
98.509367873453769
 21
45.935924848040067
 31
0.0
  0
LINE
  5
10DB
  8
0
 10
94.467915989124606
 20
49.374614369181401
 30
0.0
 11
94.467915989126354
 21
45.935924848041722
 31
0.0
  0
LINE
  5
10DC
  8
0
 10
86.385012220473314
 20
49.37461436917971
 30
0.0
 11
86.385012220471552
 21
45.935924848041722
 31
0.0
  0
LINE
  5
10DD
  8
0
 10
82.343560336144165
 20
49.374614369180883
 30
0.0
 11
82.343560336144165
 21
45.935924848040067
 31
0.0
  0
ARC
  5
10DE
  8
0
 10
90.426464104799919
 20
58.685495283354562
 30
0.0
 40
13.374785217653811
 50
252.4120462259954
 51
287.58795377400293
  0
ARC
  5
10DF
  8
0
 10
84.364286278307986
 20
48.888861913493201
 30
0.0
 40
3.5781518477924039
 50
244.38424746782599
 51
304.38424746803832
  0
LINE
  5
10E0
  8
0
 10
82.343560336144165
 20
45.935924848040067
 30
0.0
 11
83.695694874030949
 21
45.155269608610517
 31
0.0
  0
LINE
  5
10E1
  8
0
 10
82.343560336144165
 20
49.374614369180883
 30
0.0
 11
83.695694874030949
 21
50.155269608610411
 31
0.0
  0
ARC
  5
10E2
  8
0
 10
90.426464104799919
 20
36.62504393386638
 30
0.0
 40
13.374785217653811
 50
72.412046225997059
 51
107.5879537740046
  0
ARC
  5
10E3
  8
0
 10
84.364286278307986
 20
46.421677303727712
 30
0.0
 40
3.5781518477924039
 50
55.615752531961647
 51
115.6157525321739
  0
CIRCLE
  5
1193
  8
0
 10
37.306213935618423
 20
150.44148720276169
 30
0.0
 40
4.0
  0
CIRCLE
  5
1194
  8
3
 10
37.306213935618423
 20
150.44148720276169
 30
0.0
 40
3.3235000000000001
  0
CIRCLE
  5
1195
  8
0
 10
37.306213935618423
 20
150.44148720276169
 30
0.0
 40
6.25
  0
LINE
  5
1196
  8
0
 10
44.811767435083198
 20
150.44148720276169
 30
0.0
 11
41.058990685350793
 21
156.94148720276141
 31
0.0
  0
LINE
  5
1197
  8
0
 10
41.058990685350793
 20
143.941487202762
 30
0.0
 11
44.811767435083198
 21
150.44148720276169
 31
0.0
  0
LINE
  5
1198
  8
0
 10
33.553437185886033
 20
143.941487202762
 30
0.0
 11
41.058990685350793
 21
143.941487202762
 31
0.0
  0
LINE
  5
1199
  8
0
 10
29.800660436153638
 20
150.44148720276169
 30
0.0
 11
33.553437185886033
 21
143.941487202762
 31
0.0
  0
LINE
  5
119A
  8
0
 10
33.553437185886033
 20
156.94148720276141
 30
0.0
 11
29.800660436153638
 21
150.44148720276169
 31
0.0
  0
LINE
  5
119B
  8
0
 10
41.058990685350793
 20
156.94148720276141
 30
0.0
 11
33.553437185886033
 21
156.94148720276141
 31
0.0
  0
LINE
  5
119C
  8
1
 10
56.306213935618359
 20
150.44148720276169
 30
0.0
 11
18.306213935618469
 21
150.44148720276169
 31
0.0
  0
LINE
  5
119D
  8
1
 10
37.306213935618423
 20
169.44148720276169
 30
0.0
 11
37.306213935618423
 21
131.44148720276181
 31
0.0
  0
CIRCLE
  5
119E
  8
0
 10
37.306213935618423
 20
150.44148720276169
 30
0.0
 40
10.999999999999901
  0
CIRCLE
  5
119F
  8
0
 10
37.306213935618423
 20
150.44148720276169
 30
0.0
 40
11.822172845681919
  0
CIRCLE
  5
11A0
  8
0
 10
37.306213935618423
 20
150.44148720276169
 30
0.0
 40
15.99999999999994
  0
LINE
  5
11A1
  8
0
 10
30.306213935617912
 20
154.48293908708831
 30
0.0
 11
30.306213935617912
 21
151.31713154977811
 31
0.0
  0
LINE
  5
11A2
  8
0
 10
30.306213935617919
 20
149.5658428557453
 30
0.0
 11
30.306213935617919
 21
146.4000353184353
 31
0.0
  0
LINE
  5
11A3
  8
0
 10
44.306213935618921
 20
154.48293908708831
 30
0.0
 11
44.306213935618921
 21
151.31713154977811
 31
0.0
  0
LINE
  5
11A4
  8
0
 10
44.306213935618921
 20
149.56584285574539
 30
0.0
 11
44.306213935618899
 21
146.4000353184353
 31
0.0
  0
LINE
  5
11A5
  8
0
 10
44.306213935618899
 20
146.4000353184353
 30
0.0
 11
41.564544184815972
 21
144.8171315497799
 31
0.0
  0
LINE
  5
11A6
  8
0
 10
40.047883686420661
 20
143.941487202762
 30
0.0
 11
37.306213935618423
 21
142.358583434107
 31
0.0
  0
LINE
  5
11A7
  8
0
 10
37.306213935618423
 20
142.358583434107
 30
0.0
 11
34.564544184816171
 21
143.941487202762
 31
0.0
  0
LINE
  5
11A8
  8
0
 10
33.04788368642086
 20
144.8171315497799
 30
0.0
 11
30.306213935617919
 21
146.4000353184353
 31
0.0
  0
LINE
  5
11A9
  8
0
 10
30.306213935617912
 20
154.48293908708831
 30
0.0
 11
33.04788368642096
 21
156.06584285574371
 31
0.0
  0
LINE
  5
11AA
  8
0
 10
34.564544184816
 20
156.94148720276141
 30
0.0
 11
37.306213935618423
 21
158.52439097141649
 31
0.0
  0
LINE
  5
11AB
  8
0
 10
37.306213935618423
 20
158.52439097141649
 30
0.0
 11
40.047883686420789
 21
156.94148720276141
 31
0.0
  0
LINE
  5
11AC
  8
0
 10
41.564544184815901
 20
156.06584285574371
 30
0.0
 11
44.306213935618921
 21
154.48293908708831
 31
0.0
  0
TEXT
  5
1539
  8
0
 62
     3
 10
0.0
 20
0.0
 30
0.0
 40
10.0
  1
LSAR32S8B-SUS
  7
STANDARD1
  0
ENDSEC
  0
EOF
