  0
SECTION
  2
HEADER
  9
$ACADVER
  1
AC1009
  9
$INSBASE
 10
0.0
 20
0.0
 30
0.0
  9
$EXTMIN
 10
0.0
 20
-2.960436562073669
 30
0.0
  9
$EXTMAX
 10
123.16187809580001
 20
195.37433454043159
 30
0.0
  9
$LIMMIN
 10
0.0
 20
0.0
  9
$LIMMAX
 10
375.0
 20
270.0
  9
$ORTHOMODE
 70
     1
  9
$REGENMODE
 70
     1
  9
$FILLMODE
 70
     1
  9
$QTEXTMODE
 70
     0
  9
$MIRRTEXT
 70
     0
  9
$DRAGMODE
 70
     2
  9
$LTSCALE
 40
6.0
  9
$OSMODE
 70
    37
  9
$ATTMODE
 70
     1
  9
$TEXTSIZE
 40
0.2
  9
$TRACEWID
 40
0.05
  9
$TEXTSTYLE
  7
STANDARD
  9
$CLAYER
  8
0
  9
$CELTYPE
  6
BYLAYER
  9
$CECOLOR
 62
   256
  9
$DIMSCALE
 40
1.0
  9
$DIMASZ
 40
3.0
  9
$DIMEXO
 40
1.0
  9
$DIMDLI
 40
6.0
  9
$DIMRND
 40
0.0
  9
$DIMDLE
 40
0.0
  9
$DIMEXE
 40
1.0
  9
$DIMTP
 40
495.0
  9
$DIMTM
 40
0.0
  9
$DIMTXT
 40
3.0
  9
$DIMCEN
 40
0.0
  9
$DIMTSZ
 40
0.0
  9
$DIMTOL
 70
     0
  9
$DIMLIM
 70
     0
  9
$DIMTIH
 70
     0
  9
$DIMTOH
 70
     0
  9
$DIMSE1
 70
     0
  9
$DIMSE2
 70
     0
  9
$DIMTAD
 70
     1
  9
$DIMZIN
 70
     0
  9
$DIMBLK
  1

  9
$DIMASO
 70
     0
  9
$DIMSHO
 70
     0
  9
$DIMPOST
  1

  9
$DIMAPOST
  1

  9
$DIMALT
 70
     0
  9
$DIMALTD
 70
     2
  9
$DIMALTF
 40
25.399999999999999
  9
$DIMLFAC
 40
1.0
  9
$DIMTOFL
 70
     1
  9
$DIMTVP
 40
0.0
  9
$DIMTIX
 70
     1
  9
$DIMSOXD
 70
     0
  9
$DIMSAH
 70
     0
  9
$DIMBLK1
  1

  9
$DIMBLK2
  1

  9
$DIMSTYLE
  2
STANDARD
  9
$DIMCLRD
 70
     0
  9
$DIMCLRE
 70
     0
  9
$DIMCLRT
 70
     4
  9
$DIMTFAC
 40
1.0
  9
$DIMGAP
 40
1.0
  9
$LUNITS
 70
     2
  9
$LUPREC
 70
     4
  9
$SKETCHINC
 40
0.1
  9
$FILLETRAD
 40
2.0
  9
$AUNITS
 70
     0
  9
$AUPREC
 70
     0
  9
$MENU
  1
C:\R13\WIN\SUPPORT\ACAD-I
  9
$ELEVATION
 40
0.0
  9
$PELEVATION
 40
0.0
  9
$THICKNESS
 40
0.0
  9
$LIMCHECK
 70
     0
  9
$BLIPMODE
 70
     0
  9
$CHAMFERA
 40
0.0
  9
$CHAMFERB
 40
0.0
  9
$SKPOLY
 70
     0
  9
$TDCREATE
 40
2451961.7137542008
  9
$TDUPDATE
 40
2456598.718352593
  9
$TDINDWG
 40
0.053240463
  9
$TDUSRTIMER
 40
2456598.0188187389
  9
$USRTIMER
 70
     1
  9
$ANGBASE
 50
0.0
  9
$ANGDIR
 70
     0
  9
$PDMODE
 70
     0
  9
$PDSIZE
 40
0.0
  9
$PLINEWID
 40
0.0
  9
$COORDS
 70
     1
  9
$SPLFRAME
 70
     0
  9
$SPLINETYPE
 70
     6
  9
$SPLINESEGS
 70
     8
  9
$ATTDIA
 70
     0
  9
$ATTREQ
 70
     1
  9
$HANDLING
 70
     1
  9
$HANDSEED
  5
2744
  9
$SURFTAB1
 70
     6
  9
$SURFTAB2
 70
     6
  9
$SURFTYPE
 70
     6
  9
$SURFU
 70
     6
  9
$SURFV
 70
     6
  9
$UCSNAME
  2

  9
$UCSORG
 10
0.0
 20
0.0
 30
0.0
  9
$UCSXDIR
 10
1.0
 20
0.0
 30
0.0
  9
$UCSYDIR
 10
0.0
 20
1.0
 30
0.0
  9
$PUCSNAME
  2

  9
$PUCSORG
 10
0.0
 20
0.0
 30
0.0
  9
$PUCSXDIR
 10
1.0
 20
0.0
 30
0.0
  9
$PUCSYDIR
 10
0.0
 20
1.0
 30
0.0
  9
$USERI1
 70
     4
  9
$USERI2
 70
     1
  9
$USERI3
 70
     0
  9
$USERI4
 70
     0
  9
$USERI5
 70
     0
  9
$USERR1
 40
1.0
  9
$USERR2
 40
3.0
  9
$USERR3
 40
3.0
  9
$USERR4
 40
3.0
  9
$USERR5
 40
10.0
  9
$WORLDVIEW
 70
     1
  9
$SHADEDGE
 70
     3
  9
$SHADEDIF
 70
    70
  9
$TILEMODE
 70
     1
  9
$MAXACTVP
 70
    16
  9
$PLIMCHECK
 70
     0
  9
$PEXTMIN
 10
1.0000000000000000E+020
 20
1.0000000000000000E+020
 30
1.0000000000000000E+020
  9
$PEXTMAX
 10
-1.0000000000000000E+020
 20
-1.0000000000000000E+020
 30
-1.0000000000000000E+020
  9
$PLIMMIN
 10
0.0
 20
0.0
  9
$PLIMMAX
 10
12.0
 20
9.0
  9
$UNITMODE
 70
     0
  9
$VISRETAIN
 70
     0
  9
$PLINEGEN
 70
     0
  9
$PSLTSCALE
 70
     0
  0
ENDSEC
  0
SECTION
  2
TABLES
  0
TABLE
  2
VPORT
 70
     1
  0
VPORT
  2
*ACTIVE
 70
     0
 10
0.0
 20
0.0
 11
1.0
 21
1.0
 12
187.49427839065231
 22
177.52205812711131
 13
0.0
 23
0.0
 14
10.0
 24
10.0
 15
10.0
 25
10.0
 16
0.0
 26
0.0
 36
1.0
 17
0.0
 27
0.0
 37
0.0
 40
364.13085016302909
 41
1.755244755244755
 42
50.0
 43
0.0
 44
0.0
 50
0.0
 51
0.0
 71
    16
 72
   100
 73
     1
 74
     0
 75
     0
 76
     0
 77
     0
 78
     0
  0
ENDTAB
  0
TABLE
  2
LTYPE
 70
     3
  0
LTYPE
  2
CONTINUOUS
 70
     0
  3
Solid Line
 72
    65
 73
     0
 40
0.0
  0
LTYPE
  2
PHANTOM2
 70
     0
  3
___ _ _ ___ _ _ ___ _ _ ___ _ _
 72
    65
 73
     6
 40
1.25
 49
0.625
 49
-0.125
 49
0.125
 49
-0.125
 49
0.125
 49
-0.125
  0
LTYPE
  2
CENTER
 70
     0
  3
____ _ ____ _ ____ _ ____ _ ____ _ ____ _ ____
 72
    65
 73
     4
 40
2.0
 49
1.25
 49
-0.25
 49
0.25
 49
-0.25
  0
ENDTAB
  0
TABLE
  2
LAYER
 70
     3
  0
LAYER
  2
0
 70
     0
 62
     7
  6
CONTINUOUS
  0
LAYER
  2
1
 70
     0
 62
     1
  6
CENTER
  0
LAYER
  2
3
 70
     0
 62
     3
  6
CONTINUOUS
  0
ENDTAB
  0
TABLE
  2
STYLE
 70
     3
  0
STYLE
  2
STANDARD
 70
     0
 40
0.0
 41
1.0
 50
0.0
 71
     0
 42
0.2
  3
SIMPLEX
  4
BIGFONT
  0
STYLE
  2
ANNOTATIVE
 70
     0
 40
0.0
 41
1.0
 50
0.0
 71
     0
 42
0.2
  3
txt
  4

  0
STYLE
  2
STANDARD1
 70
     0
 40
0.0
 41
1.0
 50
0.0
 71
     0
 42
3.0
  3
txt
  4

  0
ENDTAB
  0
TABLE
  2
VIEW
 70
     0
  0
ENDTAB
  0
TABLE
  2
UCS
 70
     0
  0
ENDTAB
  0
TABLE
  2
APPID
 70
    29
  0
APPID
  2
ACAD
 70
     0
  0
APPID
  2
ACADANNOTATIVE
 70
     0
  0
APPID
  2
GENIUS_GENOREF_13
 70
     0
  0
APPID
  2
GENIUS_GENOENT_13
 70
     0
  0
APPID
  2
GENIUS_GENBH_13
 70
     0
  0
APPID
  2
GENIUS_GENOBJ_13
 70
     0
  0
APPID
  2
GENIUS_GENODEF_13
 70
     0
  0
APPID
  2
GENIUS_GENOLIS_13
 70
     0
  0
APPID
  2
GENIUS_GENOBJ-NBEHI-BHF_13
 70
     0
  0
APPID
  2
GENIUS_GENOBJ-NBEHI-BHB_13
 70
     0
  0
APPID
  2
GENIUS_GENOBJ-F-PART_13
 70
     0
  0
APPID
  2
GENIUS_GEFSTDP_13
 70
     0
  0
APPID
  2
GENIUS_GENOBJ-N-RSSYM_13
 70
     0
  0
APPID
  2
GENIUS_GENSYMENT_13
 70
     0
  0
APPID
  2
GENIUS_GENOBJ-N-TIT_13
 70
     0
  0
APPID
  2
GENIUS_GENTITLE_13
 70
     0
  0
APPID
  2
GENIUS_GENZVEED_13
 70
     0
  0
APPID
  2
GENIUS_GENOBJ-N-LEADER_13
 70
     0
  0
APPID
  2
GENIUS_GENOBJ-N-FIL_13
 70
     0
  0
APPID
  2
GENIUS_GENOBJ-N-SEC_13
 70
     0
  0
APPID
  2
GENIUS_GENOBJ-N-CRS_13
 70
     0
  0
APPID
  2
GENIUS_GENOBJ-N-ZOO_13
 70
     0
  0
APPID
  2
GENIUS_GENZOO_13
 70
     0
  0
APPID
  2
GENIUS_GENOBJ-F-TOL_13
 70
     0
  0
APPID
  2
GENIUS_GENFIL_13
 70
     0
  0
APPID
  2
GENIUS_GENOBJ-N-CHA_13
 70
     0
  0
APPID
  2
ACAD_MLEADERVER
 70
     0
  0
APPID
  2
ACAD_EXEMPT_FROM_CAD_STANDARDS
 70
     0
  0
APPID
  2
ACAD_NAV_VCDISPLAY
 70
     0
  0
ENDTAB
  0
TABLE
  2
DIMSTYLE
 70
     2
  0
DIMSTYLE
  2
STANDARD
 70
     0
  3

  4

  5

  6

  7

 40
1.0
 41
0.18
 42
0.0625
 43
0.38
 44
0.18
 45
0.0
 46
0.0
 47
0.0
 48
0.0
140
0.18
141
0.09
142
0.0
143
25.399999999999999
144
1.0
145
0.0
146
1.0
147
0.09
 71
     0
 72
     0
 73
     1
 74
     1
 75
     0
 76
     0
 77
     0
 78
     0
170
     0
171
     2
172
     0
173
     0
174
     0
175
     0
176
     0
177
     0
178
     0
  0
DIMSTYLE
  2
ANNOTATIVE
 70
     0
  3

  4

  5

  6

  7

 40
1.0
 41
0.18
 42
0.0625
 43
0.38
 44
0.18
 45
0.0
 46
0.0
 47
0.0
 48
0.0
140
0.18
141
0.09
142
0.0
143
25.399999999999999
144
1.0
145
0.0
146
1.0
147
0.09
 71
     0
 72
     0
 73
     1
 74
     1
 75
     0
 76
     0
 77
     0
 78
     0
170
     0
171
     2
172
     0
173
     0
174
     0
175
     0
176
     0
177
     0
178
     0
  0
ENDTAB
  0
ENDSEC
  0
SECTION
  2
BLOCKS
  0
BLOCK
  8
0
  2
$MODEL_SPACE
 70
     0
 10
0.0
 20
0.0
 30
0.0
  3
$MODEL_SPACE
  1

  0
ENDBLK
  5
260B
  8
0
  0
BLOCK
 67
     1
  8
0
  2
$PAPER_SPACE
 70
     0
 10
0.0
 20
0.0
 30
0.0
  3
$PAPER_SPACE
  1

  0
ENDBLK
  5
2607
 67
     1
  8
0
  0
ENDSEC
  0
SECTION
  2
ENTITIES
  0
LINE
  5
1FB6
  8
1
 10
61.876316009983512
 20
172.37433454043159
 30
0.0
 11
15.876316009983491
 21
172.37433454043159
 31
0.0
  0
LINE
  5
1FB7
  8
1
 10
38.876316009983491
 20
195.37433454043159
 30
0.0
 11
38.876316009983491
 21
149.37433454043159
 31
0.0
  0
CIRCLE
  5
1FB8
  8
0
 10
38.876316009983491
 20
172.37433454043159
 30
0.0
 40
10.99533453162948
  0
CIRCLE
  5
1FB9
  8
0
 10
38.876316009983491
 20
172.37433454043159
 30
0.0
 40
12.006063426498679
  0
CIRCLE
  5
1FBA
  8
0
 10
38.876316009983491
 20
172.37433454043159
 30
0.0
 40
20.0
  0
LINE
  5
1FC0
  8
1
 10
103.16187809580001
 20
24.694218811313419
 30
0.0
 11
103.16187809580011
 21
126.69421881131341
 31
0.0
  0
LINE
  5
1FD5
  8
1
 10
38.876316009983491
 20
24.74475633129429
 30
0.0
 11
38.876316009983611
 21
126.7447563312943
 31
0.0
  0
ARC
  5
1FE9
  8
0
 10
42.37631600998327
 20
61.00943754942157
 30
0.0
 40
10.10924076103746
 50
249.74384199958311
 51
290.25615800041692
  0
LINE
  5
1FEA
  8
0
 10
45.876316009983377
 20
50.90019678838415
 30
0.0
 11
45.60708524075141
 21
50.744756331293921
 31
0.0
  0
LINE
  5
1FEB
  8
0
 10
31.876316009983391
 20
50.90019678838415
 30
0.0
 11
32.145546779215351
 21
50.744756331293921
 31
0.0
  0
ARC
  5
1FEC
  8
0
 10
35.376316009983491
 20
61.00943754942157
 30
0.0
 40
10.10924076103746
 50
249.74384199958311
 51
290.25615800041692
  0
LINE
  5
1FED
  8
0
 10
45.60708524075141
 20
50.744756331293921
 30
0.0
 11
32.145546779215351
 21
50.744756331293921
 31
0.0
  0
ARC
  5
1FEE
  8
0
 10
42.37631600998327
 20
45.480075113166251
 30
0.0
 40
10.10924076103746
 50
69.743841999583069
 51
110.2561580004169
  0
LINE
  5
1FEF
  8
0
 10
45.876316009983377
 20
55.589315874203649
 30
0.0
 11
45.60708524075141
 21
55.744756331293921
 31
0.0
  0
LINE
  5
1FF0
  8
0
 10
31.876316009983391
 20
55.589315874203649
 30
0.0
 11
32.145546779215351
 21
55.744756331293921
 31
0.0
  0
ARC
  5
1FF1
  8
0
 10
35.376316009983491
 20
45.480075113166251
 30
0.0
 40
10.10924076103746
 50
69.743841999583069
 51
110.2561580004169
  0
LINE
  5
1FF2
  8
0
 10
45.60708524075141
 20
55.744756331293921
 30
0.0
 11
32.145546779215351
 21
55.744756331293921
 31
0.0
  0
LINE
  5
1FF3
  8
0
 10
45.876316009983377
 20
55.589315874203649
 30
0.0
 11
45.876316009983377
 21
50.90019678838415
 31
0.0
  0
LINE
  5
1FF4
  8
0
 10
31.876316009983391
 20
55.589315874203649
 30
0.0
 11
31.876316009983391
 21
50.90019678838415
 31
0.0
  0
LINE
  5
1FF5
  8
0
 10
38.87631600998337
 20
54.964101091864478
 30
0.0
 11
38.87631600998337
 21
51.525411570723378
 31
0.0
  0
LINE
  5
1FF6
  8
0
 10
33.376316009983498
 20
47.744756331294099
 30
0.0
 11
33.376316009983498
 21
50.744756331293921
 31
0.0
  0
LINE
  5
1FF7
  8
0
 10
44.376316009983491
 20
47.744756331294099
 30
0.0
 11
44.376316009983491
 21
50.744756331293921
 31
0.0
  0
ARC
  5
1FF8
  8
0
 10
31.515100077816449
 20
72.255520091672736
 30
0.0
 40
4.3448986723233833
 50
55.615752531995142
 51
115.6157525321087
  0
ARC
  5
1FF9
  8
0
 10
38.876316009983611
 20
60.35960814252951
 30
0.0
 40
16.24081062146659
 50
72.412046226026803
 51
107.5879537739724
  0
LINE
  5
1FFA
  8
0
 10
29.061361433760631
 20
75.841229385442148
 30
0.0
 11
30.62631600998418
 21
76.744756331294354
 31
0.0
  0
LINE
  5
1FFB
  8
0
 10
29.061361433760631
 20
69.64828327714622
 30
0.0
 11
30.62631600998418
 21
68.744756331294013
 31
0.0
  0
ARC
  5
1FFC
  8
0
 10
31.515100077816449
 20
73.233992570915632
 30
0.0
 40
4.3448986723233833
 50
244.3842474678913
 51
304.38424746800467
  0
ARC
  5
1FFD
  8
0
 10
38.876316009983611
 20
85.129904520058844
 30
0.0
 40
16.24081062146659
 50
252.4120462260268
 51
287.5879537739724
  0
LINE
  5
1FFE
  8
0
 10
29.061361433760631
 20
75.841229385442091
 30
0.0
 11
29.061361433760631
 21
69.648283277146277
 31
0.0
  0
LINE
  5
1FFF
  8
0
 10
33.96883872187135
 20
75.841229385442148
 30
0.0
 11
33.96883872187199
 21
69.648283277146049
 31
0.0
  0
LINE
  5
2000
  8
0
 10
43.783793298096953
 20
75.841229385442148
 30
0.0
 11
43.78379329809637
 21
69.648283277146049
 31
0.0
  0
LINE
  5
2001
  8
0
 10
48.691270586207793
 20
75.841229385442091
 30
0.0
 11
48.691270586207793
 21
69.648283277146277
 31
0.0
  0
ARC
  5
2002
  8
0
 10
46.237531942151918
 20
73.233992570915632
 30
0.0
 40
4.3448986723233833
 50
235.61575253199521
 51
295.61575253210867
  0
LINE
  5
2003
  8
0
 10
48.691270586207793
 20
69.64828327714622
 30
0.0
 11
47.12631600998418
 21
68.744756331294013
 31
0.0
  0
LINE
  5
2004
  8
0
 10
48.691270586207793
 20
75.841229385442148
 30
0.0
 11
47.12631600998418
 21
76.744756331294354
 31
0.0
  0
ARC
  5
2005
  8
0
 10
46.237531942151918
 20
72.255520091672736
 30
0.0
 40
4.3448986723233833
 50
64.384247467891285
 51
124.3842474680049
  0
LINE
  5
2006
  8
0
 10
30.62631600998418
 20
76.744756331294354
 30
0.0
 11
47.1263160099845
 21
76.744756331294141
 31
0.0
  0
LINE
  5
2007
  8
0
 10
47.1263160099845
 20
68.744756331294241
 30
0.0
 11
30.626316009983839
 21
68.744756331294241
 31
0.0
  0
LINE
  5
2008
  8
0
 10
35.376316009983611
 20
123.7447563312943
 30
0.0
 11
42.376316009983611
 21
123.7447563312942
 31
0.0
  0
LINE
  5
2009
  8
0
 10
43.876316009983597
 20
55.744756331293921
 30
0.0
 11
43.876316009983597
 21
68.744756331294241
 31
0.0
  0
LINE
  5
200A
  8
3
 10
43.064316009983713
 20
57.744756331294219
 30
0.0
 11
43.064316009983713
 21
68.744756331294241
 31
0.0
  0
LINE
  5
200B
  8
3
 10
34.688316009983531
 20
57.744756331294333
 30
0.0
 11
34.68831600998351
 21
68.744756331294241
 31
0.0
  0
LINE
  5
200C
  8
0
 10
33.876316009983611
 20
55.744756331293921
 30
0.0
 11
33.876316009983611
 21
68.744756331294241
 31
0.0
  0
LINE
  5
200D
  8
0
 10
33.876316009983611
 20
122.2447563312943
 30
0.0
 11
35.376316009983611
 21
123.7447563312943
 31
0.0
  0
LINE
  5
200E
  8
0
 10
42.376316009983611
 20
123.7447563312942
 30
0.0
 11
43.876316009983597
 21
122.2447563312942
 31
0.0
  0
LINE
  5
200F
  8
0
 10
33.876316009983611
 20
57.744756331294333
 30
0.0
 11
43.876316009983597
 21
57.744756331294219
 31
0.0
  0
LINE
  5
2010
  8
3
 10
34.68831600998351
 20
57.744756331294333
 30
0.0
 11
33.876316009983611
 21
56.338331075548489
 31
0.0
  0
LINE
  5
2011
  8
3
 10
43.064316009983713
 20
57.744756331294333
 30
0.0
 11
43.876316009983597
 21
56.338331075548489
 31
0.0
  0
LINE
  5
2012
  8
0
 10
33.876316009983611
 20
122.2447563312943
 30
0.0
 11
43.876316009983597
 21
122.2447563312942
 31
0.0
  0
LINE
  5
2013
  8
3
 10
43.064316009983713
 20
76.744756331294184
 30
0.0
 11
43.064316009983713
 21
123.0567563312942
 31
0.0
  0
LINE
  5
2014
  8
0
 10
43.876316009983597
 20
76.744756331294184
 30
0.0
 11
43.876316009983597
 21
122.2447563312942
 31
0.0
  0
LINE
  5
2015
  8
3
 10
34.68831600998351
 20
76.744756331294283
 30
0.0
 11
34.68831600998351
 21
123.0567563312942
 31
0.0
  0
LINE
  5
2016
  8
0
 10
33.876316009983611
 20
76.744756331294283
 30
0.0
 11
33.876316009983611
 21
122.2447563312943
 31
0.0
  0
LINE
  5
2017
  8
3
 10
98.973878095800032
 20
76.744756331294397
 30
0.0
 11
98.973878095800032
 21
123.05675633129449
 31
0.0
  0
LINE
  5
2018
  8
0
 10
98.161878095800134
 20
76.744756331294397
 30
0.0
 11
98.161878095800134
 21
122.2447563312946
 31
0.0
  0
LINE
  5
2019
  8
0
 10
108.16187809580011
 20
76.744756331294397
 30
0.0
 11
108.16187809580011
 21
122.2447563312945
 31
0.0
  0
LINE
  5
201A
  8
3
 10
107.34987809580031
 20
76.744756331294397
 30
0.0
 11
107.34987809580019
 21
123.05675633129449
 31
0.0
  0
LINE
  5
201B
  8
0
 10
108.16187809580011
 20
55.744756331293821
 30
0.0
 11
108.16187809580011
 21
68.744756331294525
 31
0.0
  0
LINE
  5
201C
  8
0
 10
98.161878095800134
 20
55.744756331293821
 30
0.0
 11
98.161878095800134
 21
68.744756331294525
 31
0.0
  0
LINE
  5
201D
  8
0
 10
99.661878095800148
 20
123.7447563312946
 30
0.0
 11
106.66187809580011
 21
123.7447563312945
 31
0.0
  0
LINE
  5
201E
  8
3
 10
107.34987809580041
 20
57.744756331293871
 30
0.0
 11
107.34987809580031
 21
68.744756331294525
 31
0.0
  0
LINE
  5
201F
  8
3
 10
98.973878095800032
 20
57.744756331293956
 30
0.0
 11
98.973878095800146
 21
68.744756331294525
 31
0.0
  0
LINE
  5
2020
  8
0
 10
98.161878095800134
 20
122.2447563312946
 30
0.0
 11
99.661878095800148
 21
123.7447563312946
 31
0.0
  0
LINE
  5
2021
  8
0
 10
106.66187809580011
 20
123.7447563312945
 30
0.0
 11
108.16187809580011
 21
122.2447563312945
 31
0.0
  0
LINE
  5
2022
  8
0
 10
98.161878095800134
 20
57.744756331293992
 30
0.0
 11
108.16187809580011
 21
57.744756331293871
 31
0.0
  0
LINE
  5
2023
  8
3
 10
98.973878095800032
 20
57.744756331293992
 30
0.0
 11
98.161878095800034
 21
56.338331075548219
 31
0.0
  0
LINE
  5
2024
  8
3
 10
107.34987809579999
 20
57.744756331293992
 30
0.0
 11
108.16187809580001
 21
56.338331075548219
 31
0.0
  0
LINE
  5
2025
  8
0
 10
98.161878095800134
 20
122.2447563312946
 30
0.0
 11
108.16187809580011
 21
122.2447563312945
 31
0.0
  0
LINE
  5
2026
  8
0
 10
94.911878095800148
 20
68.744756331294525
 30
0.0
 11
111.41187809580011
 21
68.744756331294525
 31
0.0
  0
LINE
  5
2027
  8
0
 10
111.4118780957991
 20
76.744756331294397
 30
0.0
 11
94.911878095801157
 21
76.744756331294397
 31
0.0
  0
ARC
  5
2028
  8
0
 10
98.911878095800148
 20
64.324912125579885
 30
0.0
 40
12.275506638416489
 50
69.743841999604243
 51
110.2561580003957
  0
LINE
  5
2029
  8
0
 10
94.661878095800148
 20
76.600418763996402
 30
0.0
 11
94.911878095801157
 21
76.744756331294397
 31
0.0
  0
ARC
  5
202A
  8
0
 10
98.911878095800148
 20
81.164600537008369
 30
0.0
 40
12.275506638416489
 50
249.74384199960431
 51
290.25615800039583
  0
LINE
  5
202B
  8
0
 10
94.661878095800148
 20
68.889093898591909
 30
0.0
 11
94.911878095801157
 21
68.7447563312939
 31
0.0
  0
LINE
  5
202C
  8
0
 10
94.661878095800148
 20
76.600418763996402
 30
0.0
 11
94.661878095800148
 21
68.889093898591909
 31
0.0
  0
LINE
  5
202D
  8
0
 10
103.16187809580011
 20
75.841229385442034
 30
0.0
 11
103.16187809580011
 21
69.648283277145993
 31
0.0
  0
LINE
  5
202E
  8
0
 10
111.6618780958002
 20
76.600418763996402
 30
0.0
 11
111.66187809580011
 21
68.889093898591909
 31
0.0
  0
ARC
  5
202F
  8
0
 10
107.41187809580011
 20
81.164600537008369
 30
0.0
 40
12.275506638416489
 50
249.74384199960431
 51
290.25615800039583
  0
LINE
  5
2030
  8
0
 10
111.6618780958002
 20
68.889093898591909
 30
0.0
 11
111.4118780957991
 21
68.7447563312939
 31
0.0
  0
LINE
  5
2031
  8
0
 10
111.6618780958002
 20
76.600418763996402
 30
0.0
 11
111.4118780957991
 21
76.744756331294397
 31
0.0
  0
ARC
  5
2032
  8
0
 10
107.41187809580011
 20
64.324912125579885
 30
0.0
 40
12.275506638416489
 50
69.743841999604243
 51
110.2561580003957
  0
LINE
  5
2033
  8
0
 10
109.89264732656819
 20
50.744756331293921
 30
0.0
 11
96.431108865032442
 21
50.744756331293921
 31
0.0
  0
LINE
  5
2034
  8
0
 10
96.431108865030978
 20
55.744756331293821
 30
0.0
 11
109.8926473265679
 21
55.744756331293821
 31
0.0
  0
ARC
  5
2035
  8
0
 10
109.2240559222911
 20
52.01116402641113
 30
0.0
 40
3.5781518477924039
 50
64.38424746782583
 51
124.38424746803869
  0
LINE
  5
2036
  8
0
 10
111.24478186445489
 20
54.964101091864272
 30
0.0
 11
109.89264732656819
 21
55.744756331293821
 31
0.0
  0
LINE
  5
2037
  8
0
 10
111.24478186445489
 20
51.525411570723428
 30
0.0
 11
109.89264732656819
 21
50.744756331293921
 31
0.0
  0
ARC
  5
2038
  8
0
 10
109.2240559222911
 20
54.478348636176612
 30
0.0
 40
3.5781518477924039
 50
235.61575253196131
 51
295.61575253217421
  0
LINE
  5
2039
  8
0
 10
111.24478186445489
 20
54.964101091864308
 30
0.0
 11
111.24478186445489
 21
51.525411570723428
 31
0.0
  0
LINE
  5
203A
  8
0
 10
107.2033299801258
 20
54.964101091864748
 30
0.0
 11
107.20332998012761
 21
51.525411570725147
 31
0.0
  0
LINE
  5
203B
  8
0
 10
99.120426211474509
 20
54.96410109186305
 30
0.0
 11
99.120426211472704
 21
51.525411570725147
 31
0.0
  0
LINE
  5
203C
  8
0
 10
95.07897432714536
 20
54.964101091864272
 30
0.0
 11
95.07897432714536
 21
51.525411570723428
 31
0.0
  0
ARC
  5
203D
  8
0
 10
103.1618780958011
 20
64.274982006037902
 30
0.0
 40
13.374785217653811
 50
252.4120462259952
 51
287.5879537740048
  0
ARC
  5
203E
  8
0
 10
97.099700269309196
 20
54.478348636176612
 30
0.0
 40
3.5781518477924039
 50
244.38424746782579
 51
304.38424746803872
  0
LINE
  5
203F
  8
0
 10
95.07897432714536
 20
51.525411570723428
 30
0.0
 11
96.431108865032215
 21
50.744756331293921
 31
0.0
  0
LINE
  5
2040
  8
0
 10
95.07897432714536
 20
54.964101091864272
 30
0.0
 11
96.431108865032215
 21
55.744756331293821
 31
0.0
  0
ARC
  5
2041
  8
0
 10
103.1618780958011
 20
42.214530656549726
 30
0.0
 40
13.374785217653811
 50
72.412046225995169
 51
107.5879537740048
  0
ARC
  5
2042
  8
0
 10
97.099700269309196
 20
52.01116402641113
 30
0.0
 40
3.5781518477924039
 50
55.615752531961242
 51
115.6157525321741
  0
LINE
  5
2043
  8
0
 10
97.661878095800262
 20
47.744756331294099
 30
0.0
 11
97.661878095800262
 21
50.744756331293921
 31
0.0
  0
LINE
  5
2044
  8
0
 10
108.6618780958002
 20
47.744756331294099
 30
0.0
 11
108.6618780958002
 21
50.744756331293921
 31
0.0
  0
CIRCLE
  5
2045
  8
0
 10
38.876316009983491
 20
172.37433454043159
 30
0.0
 40
5.0
  0
CIRCLE
  5
2046
  8
3
 10
38.876316009983491
 20
172.37433454043159
 30
0.0
 40
4.1879999999999979
  0
LINE
  5
2047
  8
0
 10
33.968838721871641
 20
163.8743345404317
 30
0.0
 11
43.783793298095347
 21
163.87433454043159
 31
0.0
  0
LINE
  5
2048
  8
0
 10
43.783793298095347
 20
163.87433454043159
 30
0.0
 11
48.691270586207111
 21
172.3743345404317
 31
0.0
  0
LINE
  5
2049
  8
0
 10
48.691270586207111
 20
172.3743345404317
 30
0.0
 11
43.783793298095347
 21
180.87433454043159
 31
0.0
  0
LINE
  5
204A
  8
0
 10
43.783793298095347
 20
180.87433454043159
 30
0.0
 11
33.968838721871748
 21
180.87433454043159
 31
0.0
  0
LINE
  5
204B
  8
0
 10
33.968838721871748
 20
180.87433454043159
 30
0.0
 11
29.061361433759949
 21
172.37433454043159
 31
0.0
  0
LINE
  5
204C
  8
0
 10
29.061361433759949
 20
172.37433454043159
 30
0.0
 11
33.968838721871641
 21
163.8743345404317
 31
0.0
  0
CIRCLE
  5
204D
  8
0
 10
38.876316009983491
 20
172.37433454043159
 30
0.0
 40
8.25
  0
LINE
  5
2243
  8
0
 10
19.376316009983469
 20
27.744756331293999
 30
0.0
 11
19.376316009983569
 21
30.744756331294081
 31
0.0
  0
LINE
  5
2244
  8
0
 10
58.376316009983462
 20
27.744756331293999
 30
0.0
 11
58.376316009983341
 21
30.744756331294081
 31
0.0
  0
LINE
  5
2245
  8
0
 10
19.376316009983469
 20
27.744756331294109
 30
0.0
 11
58.376316009983462
 21
27.744756331294081
 31
0.0
  0
LINE
  5
2246
  8
0
 10
50.882379436482182
 20
41.779844758226069
 30
0.0
 11
49.871650541612979
 21
47.744756331294091
 31
0.0
  0
LINE
  5
2247
  8
0
 10
58.876316009983512
 20
36.244756331294091
 30
0.0
 11
50.882379436482182
 21
41.779844758226069
 31
0.0
  0
LINE
  5
2248
  8
0
 10
58.376316009983512
 20
30.744756331294091
 30
0.0
 11
58.876316009983512
 21
31.244756331294091
 31
0.0
  0
LINE
  5
2249
  8
0
 10
49.871650541612979
 20
47.744756331294091
 30
0.0
 11
27.88098147835408
 21
47.744756331294091
 31
0.0
  0
LINE
  5
224A
  8
0
 10
58.876316009983512
 20
36.244756331294091
 30
0.0
 11
18.876316009983519
 21
36.244756331294091
 31
0.0
  0
LINE
  5
224B
  8
0
 10
58.376316009983512
 20
30.744756331294091
 30
0.0
 11
19.376316009983519
 21
30.744756331294091
 31
0.0
  0
LINE
  5
224C
  8
0
 10
58.876316009983512
 20
31.244756331294091
 30
0.0
 11
58.876316009983512
 21
36.244756331294091
 31
0.0
  0
LINE
  5
224D
  8
0
 10
18.876316009983519
 20
36.244756331294091
 30
0.0
 11
26.87025258348481
 21
41.779844758226069
 31
0.0
  0
LINE
  5
224E
  8
0
 10
19.376316009983519
 20
30.744756331294091
 30
0.0
 11
18.876316009983519
 21
31.244756331294091
 31
0.0
  0
LINE
  5
224F
  8
0
 10
18.876316009983519
 20
31.244756331294091
 30
0.0
 11
18.876316009983519
 21
36.244756331294091
 31
0.0
  0
LINE
  5
2250
  8
0
 10
26.87025258348481
 20
41.779844758226069
 30
0.0
 11
27.88098147835408
 21
47.744756331294091
 31
0.0
  0
LINE
  5
2251
  8
0
 10
26.87025258348481
 20
41.779844758226069
 30
0.0
 11
50.882379436482182
 21
41.779844758226069
 31
0.0
  0
LINE
  5
2252
  8
0
 10
83.661878095800034
 20
27.744756331293999
 30
0.0
 11
83.661878095800105
 21
30.744756331294081
 31
0.0
  0
LINE
  5
2253
  8
0
 10
122.66187809580001
 20
27.744756331293999
 30
0.0
 11
122.66187809579981
 21
30.744756331294081
 31
0.0
  0
LINE
  5
2254
  8
0
 10
83.661878095800034
 20
27.744756331294109
 30
0.0
 11
122.66187809580001
 21
27.744756331294081
 31
0.0
  0
LINE
  5
2255
  8
0
 10
115.1679415222987
 20
41.779844758226069
 30
0.0
 11
114.1572126274295
 21
47.744756331294091
 31
0.0
  0
LINE
  5
2256
  8
0
 10
123.16187809580001
 20
36.244756331294091
 30
0.0
 11
115.1679415222987
 21
41.779844758226069
 31
0.0
  0
LINE
  5
2257
  8
0
 10
122.66187809580001
 20
30.744756331294091
 30
0.0
 11
123.16187809580001
 21
31.244756331294091
 31
0.0
  0
LINE
  5
2258
  8
0
 10
114.1572126274295
 20
47.744756331294091
 30
0.0
 11
92.166543564170595
 21
47.744756331294091
 31
0.0
  0
LINE
  5
2259
  8
0
 10
123.16187809580001
 20
36.244756331294091
 30
0.0
 11
83.161878095800049
 21
36.244756331294091
 31
0.0
  0
LINE
  5
225A
  8
0
 10
122.66187809580001
 20
30.744756331294091
 30
0.0
 11
83.661878095800063
 21
30.744756331294091
 31
0.0
  0
LINE
  5
225B
  8
0
 10
123.16187809580001
 20
31.244756331294091
 30
0.0
 11
123.16187809580001
 21
36.244756331294091
 31
0.0
  0
LINE
  5
225C
  8
0
 10
83.161878095800049
 20
36.244756331294091
 30
0.0
 11
91.155814669301364
 21
41.779844758226069
 31
0.0
  0
LINE
  5
225D
  8
0
 10
83.661878095800034
 20
30.744756331294091
 30
0.0
 11
83.161878095800049
 21
31.244756331294091
 31
0.0
  0
LINE
  5
225E
  8
0
 10
83.161878095800049
 20
31.244756331294091
 30
0.0
 11
83.161878095800049
 21
36.244756331294091
 31
0.0
  0
LINE
  5
225F
  8
0
 10
91.155814669301364
 20
41.779844758226069
 30
0.0
 11
92.166543564170595
 21
47.744756331294091
 31
0.0
  0
LINE
  5
2260
  8
0
 10
91.155814669301364
 20
41.779844758226069
 30
0.0
 11
115.1679415222987
 21
41.779844758226069
 31
0.0
  0
TEXT
  5
268B
  8
0
 62
     3
 10
0.0
 20
0.0
 30
0.0
 40
10.0
  1
LSAR40S10B-SUS
  7
STANDARD1
  0
ENDSEC
  0
EOF
