  0
SECTION
  2
HEADER
  9
$ACADVER
  1
AC1009
  9
$INSBASE
 10
0.0
 20
0.0
 30
0.0
  9
$EXTMIN
 10
0.0
 20
-2.960436562073669
 30
0.0
  9
$EXTMAX
 10
120.35470668485669
 20
228.6012640841615
 30
0.0
  9
$LIMMIN
 10
0.0
 20
0.0
  9
$LIMMAX
 10
375.0
 20
270.0
  9
$ORTHOMODE
 70
     1
  9
$REGENMODE
 70
     1
  9
$FILLMODE
 70
     1
  9
$QTEXTMODE
 70
     0
  9
$MIRRTEXT
 70
     0
  9
$DRAGMODE
 70
     2
  9
$LTSCALE
 40
6.0
  9
$OSMODE
 70
    37
  9
$ATTMODE
 70
     1
  9
$TEXTSIZE
 40
0.2
  9
$TRACEWID
 40
0.05
  9
$TEXTSTYLE
  7
STANDARD
  9
$CLAYER
  8
0
  9
$CELTYPE
  6
BYLAYER
  9
$CECOLOR
 62
   256
  9
$DIMSCALE
 40
1.0
  9
$DIMASZ
 40
3.0
  9
$DIMEXO
 40
1.0
  9
$DIMDLI
 40
6.0
  9
$DIMRND
 40
0.0
  9
$DIMDLE
 40
0.0
  9
$DIMEXE
 40
1.0
  9
$DIMTP
 40
495.0
  9
$DIMTM
 40
0.0
  9
$DIMTXT
 40
3.0
  9
$DIMCEN
 40
0.0
  9
$DIMTSZ
 40
0.0
  9
$DIMTOL
 70
     0
  9
$DIMLIM
 70
     0
  9
$DIMTIH
 70
     0
  9
$DIMTOH
 70
     0
  9
$DIMSE1
 70
     0
  9
$DIMSE2
 70
     0
  9
$DIMTAD
 70
     1
  9
$DIMZIN
 70
     0
  9
$DIMBLK
  1

  9
$DIMASO
 70
     0
  9
$DIMSHO
 70
     0
  9
$DIMPOST
  1

  9
$DIMAPOST
  1

  9
$DIMALT
 70
     0
  9
$DIMALTD
 70
     2
  9
$DIMALTF
 40
25.399999999999999
  9
$DIMLFAC
 40
1.0
  9
$DIMTOFL
 70
     1
  9
$DIMTVP
 40
0.0
  9
$DIMTIX
 70
     1
  9
$DIMSOXD
 70
     0
  9
$DIMSAH
 70
     0
  9
$DIMBLK1
  1

  9
$DIMBLK2
  1

  9
$DIMSTYLE
  2
STANDARD
  9
$DIMCLRD
 70
     0
  9
$DIMCLRE
 70
     0
  9
$DIMCLRT
 70
     4
  9
$DIMTFAC
 40
1.0
  9
$DIMGAP
 40
1.0
  9
$LUNITS
 70
     2
  9
$LUPREC
 70
     4
  9
$SKETCHINC
 40
0.1
  9
$FILLETRAD
 40
2.0
  9
$AUNITS
 70
     0
  9
$AUPREC
 70
     0
  9
$MENU
  1
C:\R13\WIN\SUPPORT\ACAD-I
  9
$ELEVATION
 40
0.0
  9
$PELEVATION
 40
0.0
  9
$THICKNESS
 40
0.0
  9
$LIMCHECK
 70
     0
  9
$BLIPMODE
 70
     0
  9
$CHAMFERA
 40
0.0
  9
$CHAMFERB
 40
0.0
  9
$SKPOLY
 70
     0
  9
$TDCREATE
 40
2451961.714150371
  9
$TDUPDATE
 40
2456598.7183805788
  9
$TDINDWG
 40
0.0539710185
  9
$TDUSRTIMER
 40
2456598.0199546069
  9
$USRTIMER
 70
     1
  9
$ANGBASE
 50
0.0
  9
$ANGDIR
 70
     0
  9
$PDMODE
 70
     0
  9
$PDSIZE
 40
0.0
  9
$PLINEWID
 40
0.0
  9
$COORDS
 70
     1
  9
$SPLFRAME
 70
     0
  9
$SPLINETYPE
 70
     6
  9
$SPLINESEGS
 70
     8
  9
$ATTDIA
 70
     0
  9
$ATTREQ
 70
     1
  9
$HANDLING
 70
     1
  9
$HANDSEED
  5
28AF
  9
$SURFTAB1
 70
     6
  9
$SURFTAB2
 70
     6
  9
$SURFTYPE
 70
     6
  9
$SURFU
 70
     6
  9
$SURFV
 70
     6
  9
$UCSNAME
  2

  9
$UCSORG
 10
0.0
 20
0.0
 30
0.0
  9
$UCSXDIR
 10
1.0
 20
0.0
 30
0.0
  9
$UCSYDIR
 10
0.0
 20
1.0
 30
0.0
  9
$PUCSNAME
  2

  9
$PUCSORG
 10
0.0
 20
0.0
 30
0.0
  9
$PUCSXDIR
 10
1.0
 20
0.0
 30
0.0
  9
$PUCSYDIR
 10
0.0
 20
1.0
 30
0.0
  9
$USERI1
 70
     4
  9
$USERI2
 70
     1
  9
$USERI3
 70
     0
  9
$USERI4
 70
     0
  9
$USERI5
 70
     0
  9
$USERR1
 40
1.0
  9
$USERR2
 40
3.0
  9
$USERR3
 40
3.0
  9
$USERR4
 40
3.0
  9
$USERR5
 40
10.0
  9
$WORLDVIEW
 70
     1
  9
$SHADEDGE
 70
     3
  9
$SHADEDIF
 70
    70
  9
$TILEMODE
 70
     1
  9
$MAXACTVP
 70
    16
  9
$PLIMCHECK
 70
     0
  9
$PEXTMIN
 10
1.0000000000000000E+020
 20
1.0000000000000000E+020
 30
1.0000000000000000E+020
  9
$PEXTMAX
 10
-1.0000000000000000E+020
 20
-1.0000000000000000E+020
 30
-1.0000000000000000E+020
  9
$PLIMMIN
 10
0.0
 20
0.0
  9
$PLIMMAX
 10
12.0
 20
9.0
  9
$UNITMODE
 70
     0
  9
$VISRETAIN
 70
     0
  9
$PLINEGEN
 70
     0
  9
$PSLTSCALE
 70
     0
  0
ENDSEC
  0
SECTION
  2
TABLES
  0
TABLE
  2
VPORT
 70
     1
  0
VPORT
  2
*ACTIVE
 70
     0
 10
0.0
 20
0.0
 11
1.0
 21
1.0
 12
187.49427839065231
 22
177.52205812711131
 13
0.0
 23
0.0
 14
10.0
 24
10.0
 15
10.0
 25
10.0
 16
0.0
 26
0.0
 36
1.0
 17
0.0
 27
0.0
 37
0.0
 40
364.13085016302909
 41
1.755244755244755
 42
50.0
 43
0.0
 44
0.0
 50
0.0
 51
0.0
 71
    16
 72
   100
 73
     1
 74
     0
 75
     0
 76
     0
 77
     0
 78
     0
  0
ENDTAB
  0
TABLE
  2
LTYPE
 70
     3
  0
LTYPE
  2
CONTINUOUS
 70
     0
  3
Solid Line
 72
    65
 73
     0
 40
0.0
  0
LTYPE
  2
PHANTOM2
 70
     0
  3
___ _ _ ___ _ _ ___ _ _ ___ _ _
 72
    65
 73
     6
 40
1.25
 49
0.625
 49
-0.125
 49
0.125
 49
-0.125
 49
0.125
 49
-0.125
  0
LTYPE
  2
CENTER
 70
     0
  3
____ _ ____ _ ____ _ ____ _ ____ _ ____ _ ____
 72
    65
 73
     4
 40
2.0
 49
1.25
 49
-0.25
 49
0.25
 49
-0.25
  0
ENDTAB
  0
TABLE
  2
LAYER
 70
     3
  0
LAYER
  2
0
 70
     0
 62
     7
  6
CONTINUOUS
  0
LAYER
  2
1
 70
     0
 62
     1
  6
CENTER
  0
LAYER
  2
3
 70
     0
 62
     3
  6
CONTINUOUS
  0
ENDTAB
  0
TABLE
  2
STYLE
 70
     3
  0
STYLE
  2
STANDARD
 70
     0
 40
0.0
 41
1.0
 50
0.0
 71
     0
 42
0.2
  3
SIMPLEX
  4
BIGFONT
  0
STYLE
  2
ANNOTATIVE
 70
     0
 40
0.0
 41
1.0
 50
0.0
 71
     0
 42
0.2
  3
txt
  4

  0
STYLE
  2
STANDARD1
 70
     0
 40
0.0
 41
1.0
 50
0.0
 71
     0
 42
3.0
  3
txt
  4

  0
ENDTAB
  0
TABLE
  2
VIEW
 70
     0
  0
ENDTAB
  0
TABLE
  2
UCS
 70
     0
  0
ENDTAB
  0
TABLE
  2
APPID
 70
    29
  0
APPID
  2
ACAD
 70
     0
  0
APPID
  2
ACADANNOTATIVE
 70
     0
  0
APPID
  2
GENIUS_GENOREF_13
 70
     0
  0
APPID
  2
GENIUS_GENOENT_13
 70
     0
  0
APPID
  2
GENIUS_GENBH_13
 70
     0
  0
APPID
  2
GENIUS_GENOBJ_13
 70
     0
  0
APPID
  2
GENIUS_GENODEF_13
 70
     0
  0
APPID
  2
GENIUS_GENOLIS_13
 70
     0
  0
APPID
  2
GENIUS_GENOBJ-NBEHI-BHF_13
 70
     0
  0
APPID
  2
GENIUS_GENOBJ-NBEHI-BHB_13
 70
     0
  0
APPID
  2
GENIUS_GENOBJ-F-PART_13
 70
     0
  0
APPID
  2
GENIUS_GEFSTDP_13
 70
     0
  0
APPID
  2
GENIUS_GENOBJ-N-RSSYM_13
 70
     0
  0
APPID
  2
GENIUS_GENSYMENT_13
 70
     0
  0
APPID
  2
GENIUS_GENOBJ-N-TIT_13
 70
     0
  0
APPID
  2
GENIUS_GENTITLE_13
 70
     0
  0
APPID
  2
GENIUS_GENZVEED_13
 70
     0
  0
APPID
  2
GENIUS_GENOBJ-N-LEADER_13
 70
     0
  0
APPID
  2
GENIUS_GENOBJ-N-FIL_13
 70
     0
  0
APPID
  2
GENIUS_GENOBJ-N-SEC_13
 70
     0
  0
APPID
  2
GENIUS_GENOBJ-N-CRS_13
 70
     0
  0
APPID
  2
GENIUS_GENOBJ-N-ZOO_13
 70
     0
  0
APPID
  2
GENIUS_GENZOO_13
 70
     0
  0
APPID
  2
GENIUS_GENOBJ-F-TOL_13
 70
     0
  0
APPID
  2
GENIUS_GENFIL_13
 70
     0
  0
APPID
  2
GENIUS_GENOBJ-N-CHA_13
 70
     0
  0
APPID
  2
ACAD_MLEADERVER
 70
     0
  0
APPID
  2
ACAD_EXEMPT_FROM_CAD_STANDARDS
 70
     0
  0
APPID
  2
ACAD_NAV_VCDISPLAY
 70
     0
  0
ENDTAB
  0
TABLE
  2
DIMSTYLE
 70
     2
  0
DIMSTYLE
  2
STANDARD
 70
     0
  3

  4

  5

  6

  7

 40
1.0
 41
0.18
 42
0.0625
 43
0.38
 44
0.18
 45
0.0
 46
0.0
 47
0.0
 48
0.0
140
0.18
141
0.09
142
0.0
143
25.399999999999999
144
1.0
145
0.0
146
1.0
147
0.09
 71
     0
 72
     0
 73
     1
 74
     1
 75
     0
 76
     0
 77
     0
 78
     0
170
     0
171
     2
172
     0
173
     0
174
     0
175
     0
176
     0
177
     0
178
     0
  0
DIMSTYLE
  2
ANNOTATIVE
 70
     0
  3

  4

  5

  6

  7

 40
1.0
 41
0.18
 42
0.0625
 43
0.38
 44
0.18
 45
0.0
 46
0.0
 47
0.0
 48
0.0
140
0.18
141
0.09
142
0.0
143
25.399999999999999
144
1.0
145
0.0
146
1.0
147
0.09
 71
     0
 72
     0
 73
     1
 74
     1
 75
     0
 76
     0
 77
     0
 78
     0
170
     0
171
     2
172
     0
173
     0
174
     0
175
     0
176
     0
177
     0
178
     0
  0
ENDTAB
  0
ENDSEC
  0
SECTION
  2
BLOCKS
  0
BLOCK
  8
0
  2
$MODEL_SPACE
 70
     0
 10
0.0
 20
0.0
 30
0.0
  3
$MODEL_SPACE
  1

  0
ENDBLK
  5
2776
  8
0
  0
BLOCK
 67
     1
  8
0
  2
$PAPER_SPACE
 70
     0
 10
0.0
 20
0.0
 30
0.0
  3
$PAPER_SPACE
  1

  0
ENDBLK
  5
2772
 67
     1
  8
0
  0
ENDSEC
  0
SECTION
  2
ENTITIES
  0
CIRCLE
  5
20F2
  8
0
 10
29.6704778988925
 20
205.60126408416139
 30
0.0
 40
8.25
  0
LINE
  5
20F3
  8
0
 10
19.855523322668891
 20
205.60126408416139
 30
0.0
 11
24.76300061078064
 21
197.1012640841615
 31
0.0
  0
LINE
  5
20F4
  8
0
 10
24.76300061078075
 20
214.1012640841615
 30
0.0
 11
19.855523322668891
 21
205.60126408416139
 31
0.0
  0
LINE
  5
20F5
  8
0
 10
34.577955187004363
 20
214.1012640841615
 30
0.0
 11
24.76300061078075
 21
214.1012640841615
 31
0.0
  0
LINE
  5
20F6
  8
0
 10
39.48543247511612
 20
205.6012640841615
 30
0.0
 11
34.577955187004363
 21
214.1012640841615
 31
0.0
  0
LINE
  5
20F7
  8
0
 10
34.577955187004363
 20
197.10126408416139
 30
0.0
 11
39.48543247511612
 21
205.6012640841615
 31
0.0
  0
LINE
  5
20F8
  8
0
 10
24.76300061078064
 20
197.1012640841615
 30
0.0
 11
34.577955187004363
 21
197.10126408416139
 31
0.0
  0
CIRCLE
  5
20FA
  8
0
 10
29.6704778988925
 20
205.60126408416139
 30
0.0
 40
5.0
  0
LINE
  5
20FB
  8
0
 10
99.456039984709264
 20
50.971685875024072
 30
0.0
 11
99.456039984709264
 21
53.971685875023901
 31
0.0
  0
LINE
  5
20FC
  8
0
 10
88.456039984709264
 20
50.971685875024072
 30
0.0
 11
88.456039984709264
 21
53.971685875023901
 31
0.0
  0
ARC
  5
20FD
  8
0
 10
87.893862158218212
 20
55.23809357014111
 30
0.0
 40
3.5781518477924039
 50
55.615752531961242
 51
115.6157525321741
  0
ARC
  5
20FE
  8
0
 10
93.956039984710145
 20
45.441460200279693
 30
0.0
 40
13.374785217653811
 50
72.412046225995169
 51
107.5879537740048
  0
LINE
  5
20FF
  8
0
 10
85.873136216054377
 20
58.19103063559421
 30
0.0
 11
87.225270753941246
 21
58.97168587502378
 31
0.0
  0
LINE
  5
2100
  8
0
 10
85.873136216054377
 20
54.752341114453387
 30
0.0
 11
87.225270753941246
 21
53.971685875023901
 31
0.0
  0
ARC
  5
2101
  8
0
 10
87.893862158218212
 20
57.705278179906571
 30
0.0
 40
3.5781518477924039
 50
244.38424746782579
 51
304.38424746803872
  0
ARC
  5
2102
  8
0
 10
93.956039984710145
 20
67.501911549767854
 30
0.0
 40
13.374785217653811
 50
252.4120462259952
 51
287.5879537740048
  0
LINE
  5
2103
  8
0
 10
85.873136216054377
 20
58.19103063559421
 30
0.0
 11
85.873136216054377
 21
54.752341114453387
 31
0.0
  0
LINE
  5
2104
  8
0
 10
89.914588100383497
 20
58.191030635593023
 30
0.0
 11
89.914588100381692
 21
54.752341114455113
 31
0.0
  0
LINE
  5
2105
  8
0
 10
97.997491869034761
 20
58.191030635594728
 30
0.0
 11
97.997491869036594
 21
54.752341114455113
 31
0.0
  0
LINE
  5
2106
  8
0
 10
102.0389437533639
 20
58.191030635594281
 30
0.0
 11
102.0389437533639
 21
54.752341114453387
 31
0.0
  0
ARC
  5
2107
  8
0
 10
100.0182178112001
 20
57.705278179906571
 30
0.0
 40
3.5781518477924039
 50
235.61575253196131
 51
295.61575253217421
  0
LINE
  5
2108
  8
0
 10
102.0389437533639
 20
54.752341114453387
 30
0.0
 11
100.6868092154772
 21
53.971685875023901
 31
0.0
  0
LINE
  5
2109
  8
0
 10
102.0389437533639
 20
58.19103063559421
 30
0.0
 11
100.6868092154772
 21
58.97168587502378
 31
0.0
  0
ARC
  5
210A
  8
0
 10
100.0182178112001
 20
55.23809357014111
 30
0.0
 40
3.5781518477924039
 50
64.38424746782583
 51
124.38424746803869
  0
LINE
  5
210B
  8
0
 10
87.225270753939995
 20
58.97168587502378
 30
0.0
 11
100.6868092154769
 21
58.97168587502378
 31
0.0
  0
LINE
  5
210C
  8
0
 10
100.6868092154772
 20
53.971685875023901
 30
0.0
 11
87.225270753941444
 21
53.971685875023901
 31
0.0
  0
ARC
  5
210D
  8
0
 10
98.206039984708312
 20
65.551841669309511
 30
0.0
 40
12.275506638416489
 50
69.743841999604243
 51
110.2561580003957
  0
LINE
  5
210E
  8
0
 10
102.4560399847084
 20
77.827348307726027
 30
0.0
 11
102.2060399847073
 21
77.971685875024036
 31
0.0
  0
LINE
  5
210F
  8
0
 10
102.45603998470919
 20
70.116023442321762
 30
0.0
 11
102.2060399847081
 21
69.971685875023752
 31
0.0
  0
ARC
  5
2110
  8
0
 10
98.20603998470915
 20
82.391530080738221
 30
0.0
 40
12.275506638416489
 50
249.74384199960431
 51
290.25615800039583
  0
LINE
  5
2111
  8
0
 10
102.4560399847084
 20
77.827348307726027
 30
0.0
 11
102.45603998470899
 21
70.116023442321762
 31
0.0
  0
LINE
  5
2113
  8
0
 10
85.456039984708312
 20
77.827348307726027
 30
0.0
 11
85.456039984709136
 21
70.116023442321762
 31
0.0
  0
LINE
  5
2114
  8
0
 10
85.456039984709136
 20
70.116023442321762
 30
0.0
 11
85.706039984710188
 21
69.971685875023752
 31
0.0
  0
ARC
  5
2115
  8
0
 10
89.70603998470915
 20
82.391530080738221
 30
0.0
 40
12.275506638416489
 50
249.74384199960431
 51
290.25615800039583
  0
LINE
  5
2116
  8
0
 10
85.456039984708312
 20
77.827348307726027
 30
0.0
 11
85.706039984709335
 21
77.971685875024036
 31
0.0
  0
ARC
  5
2117
  8
0
 10
89.706039984708312
 20
65.551841669309511
 30
0.0
 40
12.275506638416489
 50
69.743841999604243
 51
110.2561580003957
  0
LINE
  5
2118
  8
0
 10
102.2060399847073
 20
77.971685875024036
 30
0.0
 11
85.706039984709335
 21
77.971685875024036
 31
0.0
  0
LINE
  5
2119
  8
0
 10
85.706039984709165
 20
69.971685875024377
 30
0.0
 11
102.20603998470899
 21
69.971685875024377
 31
0.0
  0
LINE
  5
211A
  8
0
 10
88.956039984709079
 20
155.47168587502449
 30
0.0
 11
98.956039984709065
 21
155.47168587502441
 31
0.0
  0
LINE
  5
211B
  8
3
 10
98.144039984709153
 20
60.971685875023951
 30
0.0
 11
98.956039984709051
 21
59.56526061927817
 31
0.0
  0
LINE
  5
211C
  8
3
 10
89.76803998470902
 20
60.971685875023951
 30
0.0
 11
88.956039984709008
 21
59.56526061927817
 31
0.0
  0
LINE
  5
211D
  8
0
 10
88.956039984709165
 20
60.971685875023951
 30
0.0
 11
98.956039984709165
 21
60.97168587502383
 31
0.0
  0
LINE
  5
211E
  8
0
 10
97.456039984709065
 20
156.97168587502429
 30
0.0
 11
98.956039984709065
 21
155.47168587502441
 31
0.0
  0
LINE
  5
211F
  8
0
 10
88.956039984709079
 20
155.47168587502449
 30
0.0
 11
90.456039984709065
 21
156.97168587502449
 31
0.0
  0
LINE
  5
2120
  8
3
 10
89.76803998470902
 20
60.97168587502388
 30
0.0
 11
89.768039984709148
 21
69.971685875024377
 31
0.0
  0
LINE
  5
2121
  8
3
 10
98.144039984709366
 20
60.97168587502378
 30
0.0
 11
98.144039984709366
 21
69.971685875024377
 31
0.0
  0
LINE
  5
2122
  8
0
 10
90.456039984709065
 20
156.97168587502449
 30
0.0
 11
97.456039984709065
 21
156.97168587502429
 31
0.0
  0
LINE
  5
2123
  8
0
 10
88.956039984709165
 20
58.97168587502378
 30
0.0
 11
88.956039984709165
 21
69.971685875024377
 31
0.0
  0
LINE
  5
2124
  8
0
 10
98.956039984709165
 20
58.97168587502378
 30
0.0
 11
98.956039984709165
 21
69.971685875024377
 31
0.0
  0
LINE
  5
2125
  8
3
 10
98.144039984708542
 20
77.971685875024036
 30
0.0
 11
98.144039984709224
 21
156.2836858750243
 31
0.0
  0
LINE
  5
2126
  8
0
 10
98.956039984708326
 20
77.971685875024036
 30
0.0
 11
98.956039984709065
 21
155.47168587502441
 31
0.0
  0
LINE
  5
2127
  8
0
 10
88.956039984708298
 20
77.971685875024036
 30
0.0
 11
88.956039984709079
 21
155.47168587502449
 31
0.0
  0
LINE
  5
2128
  8
3
 10
89.768039984708196
 20
77.971685875024036
 30
0.0
 11
89.768039984708963
 21
156.28368587502439
 31
0.0
  0
LINE
  5
2129
  8
0
 10
24.670477898891772
 20
77.971685875023923
 30
0.0
 11
24.67047789889256
 21
155.47168587502421
 31
0.0
  0
LINE
  5
212A
  8
3
 10
25.48247789889168
 20
77.971685875023923
 30
0.0
 11
25.482477898892451
 21
156.2836858750241
 31
0.0
  0
LINE
  5
212B
  8
0
 10
34.670477898891789
 20
77.971685875023809
 30
0.0
 11
34.670477898892557
 21
155.47168587502401
 31
0.0
  0
LINE
  5
212C
  8
3
 10
33.858477898891891
 20
77.971685875023809
 30
0.0
 11
33.858477898892659
 21
156.28368587502399
 31
0.0
  0
LINE
  5
212D
  8
0
 10
24.67047789889256
 20
155.47168587502421
 30
0.0
 11
34.670477898892557
 21
155.47168587502401
 31
0.0
  0
LINE
  5
212E
  8
3
 10
33.85847789889273
 20
60.971685875024292
 30
0.0
 11
34.670477898892607
 21
59.565260619278469
 31
0.0
  0
LINE
  5
212F
  8
3
 10
25.482477898892508
 20
60.971685875024292
 30
0.0
 11
24.67047789889261
 21
59.565260619278469
 31
0.0
  0
LINE
  5
2130
  8
0
 10
24.67047789889261
 20
60.971685875024292
 30
0.0
 11
34.670477898892607
 21
60.971685875024171
 31
0.0
  0
LINE
  5
2131
  8
0
 10
33.170477898892557
 20
156.97168587502401
 30
0.0
 11
34.670477898892557
 21
155.47168587502401
 31
0.0
  0
LINE
  5
2132
  8
0
 10
24.67047789889256
 20
155.47168587502421
 30
0.0
 11
26.17047789889256
 21
156.97168587502421
 31
0.0
  0
LINE
  5
2133
  8
0
 10
24.67047789889261
 20
58.971685875023951
 30
0.0
 11
24.67047789889261
 21
69.971685875024093
 31
0.0
  0
LINE
  5
2134
  8
3
 10
25.482477898892508
 20
60.971685875024292
 30
0.0
 11
25.482477898892508
 21
69.971685875024093
 31
0.0
  0
LINE
  5
2135
  8
3
 10
33.85847789889273
 20
60.971685875024171
 30
0.0
 11
33.85847789889273
 21
69.971685875024093
 31
0.0
  0
LINE
  5
2136
  8
0
 10
34.670477898892607
 20
58.971685875023908
 30
0.0
 11
34.670477898892607
 21
69.971685875024093
 31
0.0
  0
LINE
  5
2137
  8
0
 10
26.17047789889256
 20
156.97168587502421
 30
0.0
 11
33.170477898892557
 21
156.97168587502401
 31
0.0
  0
LINE
  5
2138
  8
0
 10
37.920477898893523
 20
69.971685875024093
 30
0.0
 11
21.420477898892841
 21
69.971685875024093
 31
0.0
  0
LINE
  5
2139
  8
0
 10
21.420477898892361
 20
77.971685875023965
 30
0.0
 11
37.920477898892692
 21
77.971685875023752
 31
0.0
  0
ARC
  5
213A
  8
0
 10
37.031693831060103
 20
73.482449635402361
 30
0.0
 40
4.3448986723233833
 50
64.384247467891285
 51
124.3842474680049
  0
LINE
  5
213B
  8
0
 10
39.485432475115957
 20
77.068158929171773
 30
0.0
 11
37.920477898892351
 21
77.971685875023965
 31
0.0
  0
LINE
  5
213C
  8
0
 10
39.485432475116788
 20
70.875212820876072
 30
0.0
 11
37.920477898893189
 21
69.971685875023866
 31
0.0
  0
ARC
  5
213D
  8
0
 10
37.03169383106092
 20
74.460922114645484
 30
0.0
 40
4.3448986723233833
 50
235.6157525319951
 51
295.61575253210867
  0
LINE
  5
213E
  8
0
 10
39.485432475115957
 20
77.068158929171702
 30
0.0
 11
39.485432475116788
 21
70.875212820876129
 31
0.0
  0
LINE
  5
213F
  8
0
 10
34.577955187005131
 20
77.068158929171773
 30
0.0
 11
34.577955187005387
 21
70.875212820875902
 31
0.0
  0
LINE
  5
2140
  8
0
 10
24.763000610779581
 20
77.068158929171773
 30
0.0
 11
24.763000610780981
 21
70.875212820875902
 31
0.0
  0
LINE
  5
2141
  8
0
 10
19.855523322668731
 20
77.068158929171702
 30
0.0
 11
19.855523322669558
 21
70.875212820876129
 31
0.0
  0
ARC
  5
2142
  8
0
 10
29.670477898892621
 20
86.356834063788725
 30
0.0
 40
16.24081062146659
 50
252.41204622602669
 51
287.5879537739724
  0
ARC
  5
2143
  8
0
 10
22.309261966725451
 20
74.460922114645484
 30
0.0
 40
4.3448986723233833
 50
244.3842474678913
 51
304.38424746800479
  0
LINE
  5
2144
  8
0
 10
19.855523322669558
 20
70.875212820876072
 30
0.0
 11
21.420477898893179
 21
69.971685875023866
 31
0.0
  0
LINE
  5
2145
  8
0
 10
19.855523322668731
 20
77.068158929171773
 30
0.0
 11
21.420477898892361
 21
77.971685875023965
 31
0.0
  0
ARC
  5
2146
  8
0
 10
29.670477898891772
 20
61.586537686259142
 30
0.0
 40
16.24081062146659
 50
72.412046226026817
 51
107.5879537739724
  0
ARC
  5
2147
  8
0
 10
22.309261966724609
 20
73.482449635402361
 30
0.0
 40
4.3448986723233833
 50
55.615752531995092
 51
115.6157525321087
  0
LINE
  5
2148
  8
0
 10
35.1704778988925
 20
50.971685875024072
 30
0.0
 11
35.1704778988925
 21
53.971685875023901
 31
0.0
  0
LINE
  5
2149
  8
0
 10
24.1704778988925
 20
50.971685875024072
 30
0.0
 11
24.1704778988925
 21
53.971685875023901
 31
0.0
  0
LINE
  5
214B
  8
0
 10
22.67047789889239
 20
58.816245417933629
 30
0.0
 11
22.67047789889239
 21
54.127126332114102
 31
0.0
  0
LINE
  5
214C
  8
0
 10
36.670477898892393
 20
58.816245417933629
 30
0.0
 11
36.670477898892393
 21
54.127126332114102
 31
0.0
  0
LINE
  5
214D
  8
0
 10
36.401247129660419
 20
58.971685875023908
 30
0.0
 11
22.93970866812435
 21
58.971685875023908
 31
0.0
  0
ARC
  5
214E
  8
0
 10
26.1704778988925
 20
48.70700465689621
 30
0.0
 40
10.10924076103746
 50
69.743841999583097
 51
110.2561580004169
  0
LINE
  5
214F
  8
0
 10
22.67047789889239
 20
58.816245417933629
 30
0.0
 11
22.93970866812435
 21
58.971685875023908
 31
0.0
  0
LINE
  5
2150
  8
0
 10
36.670477898892393
 20
58.816245417933629
 30
0.0
 11
36.401247129660419
 21
58.971685875023908
 31
0.0
  0
ARC
  5
2151
  8
0
 10
33.170477898892273
 20
48.70700465689621
 30
0.0
 40
10.10924076103746
 50
69.743841999583083
 51
110.2561580004169
  0
LINE
  5
2152
  8
0
 10
36.401247129660419
 20
53.971685875023901
 30
0.0
 11
22.93970866812435
 21
53.971685875023901
 31
0.0
  0
ARC
  5
2153
  8
0
 10
26.1704778988925
 20
64.236367093151529
 30
0.0
 40
10.10924076103746
 50
249.74384199958311
 51
290.25615800041692
  0
LINE
  5
2154
  8
0
 10
22.67047789889239
 20
54.127126332114102
 30
0.0
 11
22.93970866812435
 21
53.971685875023901
 31
0.0
  0
LINE
  5
2155
  8
0
 10
36.670477898892393
 20
54.127126332114102
 30
0.0
 11
36.401247129660419
 21
53.971685875023901
 31
0.0
  0
ARC
  5
2156
  8
0
 10
33.170477898892273
 20
64.236367093151529
 30
0.0
 40
10.10924076103746
 50
249.74384199958311
 51
290.25615800041692
  0
LINE
  5
216A
  8
1
 10
29.6704778988925
 20
27.97168587502415
 30
0.0
 11
29.67047789889256
 21
159.97168587502401
 31
0.0
  0
LINE
  5
217F
  8
1
 10
93.956039984709051
 20
27.921148355043272
 30
0.0
 11
93.956039984709079
 21
159.9211483550433
 31
0.0
  0
CIRCLE
  5
2185
  8
0
 10
29.6704778988925
 20
205.60126408416139
 30
0.0
 40
20.0
  0
CIRCLE
  5
2186
  8
0
 10
29.6704778988925
 20
205.60126408416139
 30
0.0
 40
12.006063426498679
  0
CIRCLE
  5
2187
  8
0
 10
29.6704778988925
 20
205.60126408416139
 30
0.0
 40
10.99533453162948
  0
LINE
  5
2188
  8
1
 10
29.6704778988925
 20
228.6012640841615
 30
0.0
 11
29.6704778988925
 21
182.60126408416139
 31
0.0
  0
LINE
  5
2189
  8
1
 10
52.6704778988925
 20
205.60126408416139
 30
0.0
 11
6.6704778988924991
 21
205.60126408416139
 31
0.0
  0
LINE
  5
23F7
  8
0
 10
10.1704778988925
 20
30.971685875023969
 30
0.0
 11
10.17047789889261
 21
33.971685875024058
 31
0.0
  0
LINE
  5
23F8
  8
0
 10
49.170477898892443
 20
30.971685875023969
 30
0.0
 11
49.170477898892329
 21
33.971685875024058
 31
0.0
  0
LINE
  5
23F9
  8
0
 10
10.1704778988925
 20
30.97168587502409
 30
0.0
 11
49.170477898892443
 21
30.971685875024061
 31
0.0
  0
LINE
  5
23FA
  8
0
 10
41.67654132539117
 20
45.00677430195605
 30
0.0
 11
40.665812430521981
 21
50.971685875024072
 31
0.0
  0
LINE
  5
23FB
  8
0
 10
49.670477898892493
 20
39.471685875024072
 30
0.0
 11
41.67654132539117
 21
45.00677430195605
 31
0.0
  0
LINE
  5
23FC
  8
0
 10
49.1704778988925
 20
33.971685875024072
 30
0.0
 11
49.670477898892493
 21
34.471685875024072
 31
0.0
  0
LINE
  5
23FD
  8
0
 10
40.665812430521981
 20
50.971685875024072
 30
0.0
 11
18.67514336726305
 21
50.971685875024072
 31
0.0
  0
LINE
  5
23FE
  8
0
 10
49.670477898892493
 20
39.471685875024072
 30
0.0
 11
9.6704778988924982
 21
39.471685875024072
 31
0.0
  0
LINE
  5
23FF
  8
0
 10
49.1704778988925
 20
33.971685875024072
 30
0.0
 11
10.1704778988925
 21
33.971685875024072
 31
0.0
  0
LINE
  5
2400
  8
0
 10
49.670477898892493
 20
34.471685875024072
 30
0.0
 11
49.670477898892493
 21
39.471685875024072
 31
0.0
  0
LINE
  5
2401
  8
0
 10
9.6704778988924982
 20
39.471685875024072
 30
0.0
 11
17.664414472393791
 21
45.00677430195605
 31
0.0
  0
LINE
  5
2402
  8
0
 10
10.1704778988925
 20
33.971685875024072
 30
0.0
 11
9.6704778988924982
 21
34.471685875024072
 31
0.0
  0
LINE
  5
2403
  8
0
 10
9.6704778988924982
 20
34.471685875024072
 30
0.0
 11
9.6704778988924982
 21
39.471685875024072
 31
0.0
  0
LINE
  5
2404
  8
0
 10
17.664414472393791
 20
45.00677430195605
 30
0.0
 11
18.67514336726305
 21
50.971685875024072
 31
0.0
  0
LINE
  5
2405
  8
0
 10
17.664414472393791
 20
45.00677430195605
 30
0.0
 11
41.67654132539117
 21
45.00677430195605
 31
0.0
  0
LINE
  5
2406
  8
0
 10
74.45603998470898
 20
30.971685875023969
 30
0.0
 11
74.456039984709136
 21
33.971685875024058
 31
0.0
  0
LINE
  5
2407
  8
0
 10
113.45603998470899
 20
30.971685875023969
 30
0.0
 11
113.45603998470889
 21
33.971685875024058
 31
0.0
  0
LINE
  5
2408
  8
0
 10
74.45603998470898
 20
30.97168587502409
 30
0.0
 11
113.45603998470899
 21
30.971685875024061
 31
0.0
  0
LINE
  5
2409
  8
0
 10
105.96210341120771
 20
45.00677430195605
 30
0.0
 11
104.9513745163385
 21
50.971685875024072
 31
0.0
  0
LINE
  5
240A
  8
0
 10
113.95603998470899
 20
39.471685875024072
 30
0.0
 11
105.96210341120771
 21
45.00677430195605
 31
0.0
  0
LINE
  5
240B
  8
0
 10
113.45603998470899
 20
33.971685875024072
 30
0.0
 11
113.95603998470899
 21
34.471685875024072
 31
0.0
  0
LINE
  5
240C
  8
0
 10
104.9513745163385
 20
50.971685875024072
 30
0.0
 11
82.960705453079584
 21
50.971685875024072
 31
0.0
  0
LINE
  5
240D
  8
0
 10
113.95603998470899
 20
39.471685875024072
 30
0.0
 11
73.956039984709065
 21
39.471685875024072
 31
0.0
  0
LINE
  5
240E
  8
0
 10
113.45603998470899
 20
33.971685875024072
 30
0.0
 11
74.456039984709065
 21
33.971685875024072
 31
0.0
  0
LINE
  5
240F
  8
0
 10
113.95603998470899
 20
34.471685875024072
 30
0.0
 11
113.95603998470899
 21
39.471685875024072
 31
0.0
  0
LINE
  5
2410
  8
0
 10
73.956039984708994
 20
39.471685875024072
 30
0.0
 11
81.949976558210324
 21
45.00677430195605
 31
0.0
  0
LINE
  5
2411
  8
0
 10
74.456039984708994
 20
33.971685875024072
 30
0.0
 11
73.956039984708994
 21
34.471685875024072
 31
0.0
  0
LINE
  5
2412
  8
0
 10
73.956039984708994
 20
34.471685875024072
 30
0.0
 11
73.956039984708994
 21
39.471685875024072
 31
0.0
  0
LINE
  5
2413
  8
0
 10
81.949976558210324
 20
45.00677430195605
 30
0.0
 11
82.960705453079584
 21
50.971685875024072
 31
0.0
  0
LINE
  5
2414
  8
0
 10
81.949976558210324
 20
45.00677430195605
 30
0.0
 11
105.96210341120771
 21
45.00677430195605
 31
0.0
  0
CIRCLE
  5
2536
  8
3
 10
29.6704778988925
 20
205.60126408416139
 30
0.0
 40
4.1879999999999979
  0
LINE
  5
269E
  8
0
 10
93.956039984709577
 20
77.068158929172498
 30
0.0
 11
93.956039984709577
 21
70.875212820875873
 31
0.0
  0
LINE
  5
269F
  8
0
 10
29.670477898892351
 20
58.191030635594387
 30
0.0
 11
29.670477898892521
 21
54.75234111445338
 31
0.0
  0
TEXT
  5
27F6
  8
0
 62
     3
 10
0.0
 20
0.0
 30
0.0
 40
10.0
  1
LSAR40S10C-SUS
  7
STANDARD1
  0
ENDSEC
  0
EOF
