  0
SECTION
  2
HEADER
  9
$ACADVER
  1
AC1009
  9
$INSBASE
 10
0.0
 20
0.0
 30
0.0
  9
$EXTMIN
 10
0.0
 20
-2.960436562073669
 30
0.0
  9
$EXTMAX
 10
194.14516979734631
 20
264.44391578790851
 30
0.0
  9
$LIMMIN
 10
0.0
 20
0.0
  9
$LIMMAX
 10
375.0
 20
270.0
  9
$ORTHOMODE
 70
     1
  9
$REGENMODE
 70
     1
  9
$FILLMODE
 70
     1
  9
$QTEXTMODE
 70
     0
  9
$MIRRTEXT
 70
     0
  9
$DRAGMODE
 70
     2
  9
$LTSCALE
 40
6.0
  9
$OSMODE
 70
    37
  9
$ATTMODE
 70
     1
  9
$TEXTSIZE
 40
0.2
  9
$TRACEWID
 40
0.05
  9
$TEXTSTYLE
  7
STANDARD
  9
$CLAYER
  8
0
  9
$CELTYPE
  6
BYLAYER
  9
$CECOLOR
 62
   256
  9
$DIMSCALE
 40
1.0
  9
$DIMASZ
 40
3.0
  9
$DIMEXO
 40
1.0
  9
$DIMDLI
 40
6.0
  9
$DIMRND
 40
0.0
  9
$DIMDLE
 40
0.0
  9
$DIMEXE
 40
1.0
  9
$DIMTP
 40
495.0
  9
$DIMTM
 40
0.0
  9
$DIMTXT
 40
3.0
  9
$DIMCEN
 40
0.0
  9
$DIMTSZ
 40
0.0
  9
$DIMTOL
 70
     0
  9
$DIMLIM
 70
     0
  9
$DIMTIH
 70
     0
  9
$DIMTOH
 70
     0
  9
$DIMSE1
 70
     0
  9
$DIMSE2
 70
     0
  9
$DIMTAD
 70
     1
  9
$DIMZIN
 70
     8
  9
$DIMBLK
  1

  9
$DIMASO
 70
     0
  9
$DIMSHO
 70
     0
  9
$DIMPOST
  1

  9
$DIMAPOST
  1

  9
$DIMALT
 70
     0
  9
$DIMALTD
 70
     2
  9
$DIMALTF
 40
25.399999999999999
  9
$DIMLFAC
 40
1.0
  9
$DIMTOFL
 70
     1
  9
$DIMTVP
 40
0.0
  9
$DIMTIX
 70
     1
  9
$DIMSOXD
 70
     0
  9
$DIMSAH
 70
     0
  9
$DIMBLK1
  1

  9
$DIMBLK2
  1

  9
$DIMSTYLE
  2
STANDARD
  9
$DIMCLRD
 70
     0
  9
$DIMCLRE
 70
     0
  9
$DIMCLRT
 70
     4
  9
$DIMTFAC
 40
1.0
  9
$DIMGAP
 40
1.0
  9
$LUNITS
 70
     2
  9
$LUPREC
 70
     4
  9
$SKETCHINC
 40
0.1
  9
$FILLETRAD
 40
2.0
  9
$AUNITS
 70
     0
  9
$AUPREC
 70
     0
  9
$MENU
  1
C:\R13\WIN\SUPPORT\ACAD-I
  9
$ELEVATION
 40
0.0
  9
$PELEVATION
 40
0.0
  9
$THICKNESS
 40
0.0
  9
$LIMCHECK
 70
     0
  9
$BLIPMODE
 70
     0
  9
$CHAMFERA
 40
0.0
  9
$CHAMFERB
 40
0.0
  9
$SKPOLY
 70
     0
  9
$TDCREATE
 40
2451961.711538055
  9
$TDUPDATE
 40
2456598.7188187959
  9
$TDINDWG
 40
0.2036090162
  9
$TDUSRTIMER
 40
2456598.023240915
  9
$USRTIMER
 70
     1
  9
$ANGBASE
 50
0.0
  9
$ANGDIR
 70
     0
  9
$PDMODE
 70
     0
  9
$PDSIZE
 40
0.0
  9
$PLINEWID
 40
0.0
  9
$COORDS
 70
     1
  9
$SPLFRAME
 70
     0
  9
$SPLINETYPE
 70
     6
  9
$SPLINESEGS
 70
     8
  9
$ATTDIA
 70
     0
  9
$ATTREQ
 70
     1
  9
$HANDLING
 70
     1
  9
$HANDSEED
  5
3D3B
  9
$SURFTAB1
 70
     6
  9
$SURFTAB2
 70
     6
  9
$SURFTYPE
 70
     6
  9
$SURFU
 70
     6
  9
$SURFV
 70
     6
  9
$UCSNAME
  2

  9
$UCSORG
 10
0.0
 20
0.0
 30
0.0
  9
$UCSXDIR
 10
1.0
 20
0.0
 30
0.0
  9
$UCSYDIR
 10
0.0
 20
1.0
 30
0.0
  9
$PUCSNAME
  2

  9
$PUCSORG
 10
0.0
 20
0.0
 30
0.0
  9
$PUCSXDIR
 10
1.0
 20
0.0
 30
0.0
  9
$PUCSYDIR
 10
0.0
 20
1.0
 30
0.0
  9
$USERI1
 70
     4
  9
$USERI2
 70
     1
  9
$USERI3
 70
     0
  9
$USERI4
 70
     0
  9
$USERI5
 70
     0
  9
$USERR1
 40
1.0
  9
$USERR2
 40
3.0
  9
$USERR3
 40
3.0
  9
$USERR4
 40
3.0
  9
$USERR5
 40
10.0
  9
$WORLDVIEW
 70
     1
  9
$SHADEDGE
 70
     3
  9
$SHADEDIF
 70
    70
  9
$TILEMODE
 70
     1
  9
$MAXACTVP
 70
    16
  9
$PLIMCHECK
 70
     0
  9
$PEXTMIN
 10
1.0000000000000000E+020
 20
1.0000000000000000E+020
 30
1.0000000000000000E+020
  9
$PEXTMAX
 10
-1.0000000000000000E+020
 20
-1.0000000000000000E+020
 30
-1.0000000000000000E+020
  9
$PLIMMIN
 10
0.0
 20
0.0
  9
$PLIMMAX
 10
12.0
 20
9.0
  9
$UNITMODE
 70
     0
  9
$VISRETAIN
 70
     0
  9
$PLINEGEN
 70
     0
  9
$PSLTSCALE
 70
     0
  0
ENDSEC
  0
SECTION
  2
TABLES
  0
TABLE
  2
VPORT
 70
     1
  0
VPORT
  2
*ACTIVE
 70
     0
 10
0.0
 20
0.0
 11
1.0
 21
1.0
 12
187.49427839065231
 22
177.52205812711131
 13
0.0
 23
0.0
 14
10.0
 24
10.0
 15
10.0
 25
10.0
 16
0.0
 26
0.0
 36
1.0
 17
0.0
 27
0.0
 37
0.0
 40
364.13085016302909
 41
1.755244755244755
 42
50.0
 43
0.0
 44
0.0
 50
0.0
 51
0.0
 71
    16
 72
   100
 73
     1
 74
     0
 75
     0
 76
     0
 77
     0
 78
     0
  0
ENDTAB
  0
TABLE
  2
LTYPE
 70
     3
  0
LTYPE
  2
CONTINUOUS
 70
     0
  3
Solid Line
 72
    65
 73
     0
 40
0.0
  0
LTYPE
  2
PHANTOM2
 70
     0
  3
___ _ _ ___ _ _ ___ _ _ ___ _ _
 72
    65
 73
     6
 40
1.25
 49
0.625
 49
-0.125
 49
0.125
 49
-0.125
 49
0.125
 49
-0.125
  0
LTYPE
  2
CENTER
 70
     0
  3
____ _ ____ _ ____ _ ____ _ ____ _ ____ _ ____
 72
    65
 73
     4
 40
2.0
 49
1.25
 49
-0.25
 49
0.25
 49
-0.25
  0
ENDTAB
  0
TABLE
  2
LAYER
 70
     3
  0
LAYER
  2
0
 70
     0
 62
     7
  6
CONTINUOUS
  0
LAYER
  2
1
 70
     0
 62
     1
  6
CENTER
  0
LAYER
  2
3
 70
     0
 62
     3
  6
CONTINUOUS
  0
ENDTAB
  0
TABLE
  2
STYLE
 70
     3
  0
STYLE
  2
STANDARD
 70
     0
 40
0.0
 41
1.0
 50
0.0
 71
     0
 42
0.2
  3
SIMPLEX
  4
BIGFONT
  0
STYLE
  2
ANNOTATIVE
 70
     0
 40
0.0
 41
1.0
 50
0.0
 71
     0
 42
0.2
  3
txt
  4

  0
STYLE
  2
STANDARD1
 70
     0
 40
0.0
 41
1.0
 50
0.0
 71
     0
 42
3.0
  3
txt
  4

  0
ENDTAB
  0
TABLE
  2
VIEW
 70
     0
  0
ENDTAB
  0
TABLE
  2
UCS
 70
     0
  0
ENDTAB
  0
TABLE
  2
APPID
 70
    31
  0
APPID
  2
ACAD
 70
     0
  0
APPID
  2
ACADANNOTATIVE
 70
     0
  0
APPID
  2
GENIUS_GENOREF_13
 70
     0
  0
APPID
  2
GENIUS_GENOENT_13
 70
     0
  0
APPID
  2
GENIUS_GENBH_13
 70
     0
  0
APPID
  2
GENIUS_GENOBJ_13
 70
     0
  0
APPID
  2
GENIUS_GENODEF_13
 70
     0
  0
APPID
  2
GENIUS_GENOLIS_13
 70
     0
  0
APPID
  2
GENIUS_GENOBJ-NBEHI-BHF_13
 70
     0
  0
APPID
  2
GENIUS_GENOBJ-NBEHI-BHB_13
 70
     0
  0
APPID
  2
GENIUS_GENOBJ-F-PART_13
 70
     0
  0
APPID
  2
GENIUS_GEFSTDP_13
 70
     0
  0
APPID
  2
GENIUS_GENOBJ-N-RSSYM_13
 70
     0
  0
APPID
  2
GENIUS_GENSYMENT_13
 70
     0
  0
APPID
  2
GENIUS_GENOBJ-N-TIT_13
 70
     0
  0
APPID
  2
GENIUS_GENTITLE_13
 70
     0
  0
APPID
  2
GENIUS_GENZVEED_13
 70
     0
  0
APPID
  2
GENIUS_GENOBJ-N-LEADER_13
 70
     0
  0
APPID
  2
GENIUS_GENOBJ-N-FIL_13
 70
     0
  0
APPID
  2
GENIUS_GENOBJ-N-SEC_13
 70
     0
  0
APPID
  2
GENIUS_GENOBJ-N-CRS_13
 70
     0
  0
APPID
  2
GENIUS_GENOBJ-N-ZOO_13
 70
     0
  0
APPID
  2
GENIUS_GENZOO_13
 70
     0
  0
APPID
  2
GENIUS_GENOBJ-F-TOL_13
 70
     0
  0
APPID
  2
GENIUS_GENFIL_13
 70
     0
  0
APPID
  2
GENIUS_GENOBJ-N-CHA_13
 70
     0
  0
APPID
  2
ACAD_MLEADERVER
 70
     0
  0
APPID
  2
ACAD_DSTYLE_DIMJAG
 70
     0
  0
APPID
  2
ACAD_DSTYLE_DIMTALN
 70
     0
  0
APPID
  2
ACAD_EXEMPT_FROM_CAD_STANDARDS
 70
     0
  0
APPID
  2
ACAD_NAV_VCDISPLAY
 70
     0
  0
ENDTAB
  0
TABLE
  2
DIMSTYLE
 70
     2
  0
DIMSTYLE
  2
STANDARD
 70
     0
  3

  4

  5

  6

  7

 40
1.0
 41
0.18
 42
0.0625
 43
0.38
 44
0.18
 45
0.0
 46
0.0
 47
0.0
 48
0.0
140
0.18
141
0.09
142
0.0
143
25.399999999999999
144
1.0
145
0.0
146
1.0
147
0.09
 71
     0
 72
     0
 73
     1
 74
     1
 75
     0
 76
     0
 77
     0
 78
     0
170
     0
171
     2
172
     0
173
     0
174
     0
175
     0
176
     0
177
     0
178
     0
  0
DIMSTYLE
  2
ANNOTATIVE
 70
     0
  3

  4

  5

  6

  7

 40
1.0
 41
0.18
 42
0.0625
 43
0.38
 44
0.18
 45
0.0
 46
0.0
 47
0.0
 48
0.0
140
0.18
141
0.09
142
0.0
143
25.399999999999999
144
1.0
145
0.0
146
1.0
147
0.09
 71
     0
 72
     0
 73
     1
 74
     1
 75
     0
 76
     0
 77
     0
 78
     0
170
     0
171
     2
172
     0
173
     0
174
     0
175
     0
176
     0
177
     0
178
     0
  0
ENDTAB
  0
ENDSEC
  0
SECTION
  2
BLOCKS
  0
BLOCK
  8
0
  2
$MODEL_SPACE
 70
     0
 10
0.0
 20
0.0
 30
0.0
  3
$MODEL_SPACE
  1

  0
ENDBLK
  5
3C00
  8
0
  0
BLOCK
 67
     1
  8
0
  2
$PAPER_SPACE
 70
     0
 10
0.0
 20
0.0
 30
0.0
  3
$PAPER_SPACE
  1

  0
ENDBLK
  5
3BFC
 67
     1
  8
0
  0
ENDSEC
  0
SECTION
  2
ENTITIES
  0
LINE
  5
20CB
  8
0
 10
74.64516979734627
 20
43.854613089131682
 30
0.0
 11
74.64516979734627
 21
47.52448607020947
 31
0.0
  0
LINE
  5
20CC
  8
0
 10
63.64516979734627
 20
47.52448607020947
 30
0.0
 11
63.64516979734627
 21
43.854613089131682
 31
0.0
  0
LINE
  5
20F0
  8
1
 10
69.145169797346284
 20
164.52448607020381
 30
0.0
 11
69.145169797346284
 21
18.524486070209459
 31
0.0
  0
LINE
  5
20F4
  8
0
 10
81.08500261487201
 20
37.590615195015047
 30
0.0
 11
80.145169797346284
 21
43.524486070209477
 31
0.0
  0
LINE
  5
20F5
  8
0
 10
58.14516979734627
 20
43.524486070209477
 30
0.0
 11
57.205336979820537
 21
37.590615195015047
 31
0.0
  0
LINE
  5
20F8
  8
0
 10
94.145169797346284
 20
32.024486070209477
 30
0.0
 11
81.08500261487201
 21
37.590615195015047
 31
0.0
  0
LINE
  5
20F9
  8
0
 10
57.205336979820537
 20
37.590615195015047
 30
0.0
 11
44.14516979734627
 21
32.02448607020947
 31
0.0
  0
LINE
  5
20FC
  8
0
 10
93.645169797346284
 20
25.52448607020948
 30
0.0
 11
94.145169797346284
 21
26.02448607020948
 31
0.0
  0
LINE
  5
20FD
  8
0
 10
44.14516979734627
 20
26.02448607020948
 30
0.0
 11
44.645169797346277
 21
25.52448607020948
 31
0.0
  0
LINE
  5
2101
  8
0
 10
80.145169797346284
 20
43.524486070209477
 30
0.0
 11
58.14516979734627
 21
43.524486070209477
 31
0.0
  0
LINE
  5
2105
  8
0
 10
94.145169797346284
 20
32.024486070209477
 30
0.0
 11
44.14516979734627
 21
32.02448607020947
 31
0.0
  0
LINE
  5
2107
  8
0
 10
93.645169797346284
 20
25.52448607020948
 30
0.0
 11
44.645169797346277
 21
25.52448607020948
 31
0.0
  0
POINT
  5
210C
  8
0
 10
69.145169797346284
 20
25.52448607020948
 30
0.0
210
0.0
220
1.0
230
0.0
  0
CIRCLE
  5
214F
  8
0
 10
69.145169797346284
 20
235.52448607020389
 30
0.0
 40
25.0
  0
LINE
  5
2152
  8
1
 10
40.225740079641682
 20
235.52448607020389
 30
0.0
 11
98.064599515050901
 21
235.52448607020389
 31
0.0
  0
LINE
  5
2153
  8
1
 10
69.145169797346284
 20
206.6050563524993
 30
0.0
 11
69.145169797346284
 21
264.44391578790851
 31
0.0
  0
LINE
  5
248B
  8
0
 10
93.645169797346284
 20
22.524486070209459
 30
0.0
 11
93.645169797346284
 21
25.524486070209459
 31
0.0
  0
LINE
  5
248C
  8
0
 10
44.645169797346277
 20
25.524486070209459
 30
0.0
 11
44.645169797346277
 21
22.524486070209459
 31
0.0
  0
LINE
  5
248D
  8
0
 10
93.645169797346284
 20
22.524486070209459
 30
0.0
 11
44.645169797346277
 21
22.524486070209459
 31
0.0
  0
LINE
  5
2555
  8
0
 10
94.145169797346284
 20
26.02448607020948
 30
0.0
 11
94.145169797346284
 21
32.02448607020947
 31
0.0
  0
LINE
  5
2556
  8
0
 10
44.14516979734627
 20
26.02448607020948
 30
0.0
 11
44.14516979734627
 21
32.02448607020947
 31
0.0
  0
LINE
  5
2557
  8
0
 10
57.205336979820537
 20
37.590615195015047
 30
0.0
 11
81.08500261487201
 21
37.590615195015047
 31
0.0
  0
LINE
  5
26A3
  8
1
 10
169.14516979734631
 20
164.52448607020381
 30
0.0
 11
169.14516979734631
 21
18.524486070209459
 31
0.0
  0
LINE
  5
26A8
  8
0
 10
194.14516979734631
 20
32.024486070209477
 30
0.0
 11
181.085002614872
 21
37.590615195015047
 31
0.0
  0
LINE
  5
26A9
  8
0
 10
157.2053369798204
 20
37.590615195015047
 30
0.0
 11
144.14516979734631
 21
32.02448607020947
 31
0.0
  0
LINE
  5
26AA
  8
0
 10
193.64516979734631
 20
25.52448607020948
 30
0.0
 11
194.14516979734631
 21
26.02448607020948
 31
0.0
  0
LINE
  5
26AB
  8
0
 10
144.14516979734631
 20
26.02448607020948
 30
0.0
 11
144.64516979734631
 21
25.52448607020948
 31
0.0
  0
LINE
  5
26AD
  8
0
 10
194.14516979734631
 20
32.024486070209477
 30
0.0
 11
144.14516979734631
 21
32.02448607020947
 31
0.0
  0
LINE
  5
26AE
  8
0
 10
193.64516979734631
 20
25.52448607020948
 30
0.0
 11
144.64516979734631
 21
25.52448607020948
 31
0.0
  0
POINT
  5
26B0
  8
0
 10
169.14516979734631
 20
25.52448607020948
 30
0.0
210
0.0
220
1.0
230
0.0
  0
LINE
  5
26B8
  8
0
 10
193.64516979734631
 20
22.524486070209459
 30
0.0
 11
193.64516979734631
 21
25.524486070209459
 31
0.0
  0
LINE
  5
26B9
  8
0
 10
144.64516979734631
 20
25.524486070209459
 30
0.0
 11
144.64516979734631
 21
22.524486070209459
 31
0.0
  0
LINE
  5
26BA
  8
0
 10
193.64516979734631
 20
22.524486070209459
 30
0.0
 11
144.64516979734631
 21
22.524486070209459
 31
0.0
  0
LINE
  5
26BB
  8
0
 10
194.14516979734631
 20
26.02448607020948
 30
0.0
 11
194.14516979734631
 21
32.02448607020947
 31
0.0
  0
LINE
  5
26BC
  8
0
 10
144.14516979734631
 20
26.02448607020948
 30
0.0
 11
144.14516979734631
 21
32.02448607020947
 31
0.0
  0
LINE
  5
26BD
  8
0
 10
157.2053369798204
 20
37.590615195015047
 30
0.0
 11
181.085002614872
 21
37.590615195015047
 31
0.0
  0
LINE
  5
26CF
  8
0
 10
181.085002614872
 20
37.590615195015047
 30
0.0
 11
180.14516979734631
 21
43.524486070209477
 31
0.0
  0
LINE
  5
26D0
  8
0
 10
158.14516979734631
 20
43.524486070209477
 30
0.0
 11
157.2053369798204
 21
37.590615195015047
 31
0.0
  0
LINE
  5
26D1
  8
0
 10
180.14516979734631
 20
43.524486070209477
 30
0.0
 11
158.14516979734631
 21
43.524486070209477
 31
0.0
  0
ARC
  5
2FCA
  8
0
 10
69.145169797341566
 20
39.524486070212923
 30
0.0
 40
6.9999999999941682
 50
141.78678929825981
 51
145.15009542095461
  0
ARC
  5
2FCB
  8
0
 10
69.145169797348331
 20
39.52448607021099
 30
0.0
 40
6.999999999997466
 50
34.84990457904599
 51
38.213210701738731
  0
LINE
  5
2FCC
  8
0
 10
74.64516979734627
 20
43.854613089131682
 30
0.0
 11
63.64516979734627
 21
43.854613089131682
 31
0.0
  0
LINE
  5
2FCE
  8
0
 10
174.64516979734631
 20
43.854613089131682
 30
0.0
 11
174.64516979734631
 21
47.52448607020947
 31
0.0
  0
LINE
  5
2FCF
  8
0
 10
163.64516979734631
 20
47.52448607020947
 30
0.0
 11
163.64516979734631
 21
43.854613089131682
 31
0.0
  0
ARC
  5
2FD0
  8
0
 10
169.14516979734159
 20
39.524486070212923
 30
0.0
 40
6.9999999999941682
 50
141.78678929825961
 51
145.15009542095461
  0
ARC
  5
2FD1
  8
0
 10
169.1451697973483
 20
39.52448607021099
 30
0.0
 40
6.999999999997466
 50
34.84990457904582
 51
38.213210701738888
  0
LINE
  5
2FD2
  8
0
 10
174.64516979734631
 20
43.854613089131682
 30
0.0
 11
163.64516979734631
 21
43.854613089131682
 31
0.0
  0
CIRCLE
  5
35F6
  8
3
 10
69.145169797346284
 20
235.52448607020389
 30
0.0
 40
6.9175000000000004
  0
CIRCLE
  5
35F7
  8
0
 10
69.145169797346284
 20
235.52448607020389
 30
0.0
 40
8.0
  0
CIRCLE
  5
35F8
  8
0
 10
69.145169797346284
 20
235.52448607020389
 30
0.0
 40
11.5
  0
LINE
  5
35F9
  8
0
 10
83.001576257897355
 20
235.52448607020389
 30
0.0
 11
76.073373027621741
 21
247.52448607020381
 31
0.0
  0
LINE
  5
35FA
  8
0
 10
76.073373027621741
 20
223.52448607020381
 30
0.0
 11
83.001576257897355
 21
235.52448607020389
 31
0.0
  0
LINE
  5
35FB
  8
0
 10
62.216966567070813
 20
223.52448607020381
 30
0.0
 11
76.073373027621741
 21
223.52448607020381
 31
0.0
  0
LINE
  5
35FC
  8
0
 10
55.288763336795213
 20
235.52448607020389
 30
0.0
 11
62.216966567070813
 21
223.52448607020381
 31
0.0
  0
LINE
  5
35FD
  8
0
 10
62.216966567070813
 20
247.52448607020381
 30
0.0
 11
55.288763336795213
 21
235.52448607020389
 31
0.0
  0
LINE
  5
35FE
  8
0
 10
76.073373027621741
 20
247.52448607020381
 30
0.0
 11
62.216966567070813
 21
247.52448607020381
 31
0.0
  0
LINE
  5
3600
  8
3
 10
176.0626697973465
 20
93.313161204824596
 30
0.0
 11
176.0626697973465
 21
159.6069860702039
 31
0.0
  0
LINE
  5
3601
  8
0
 10
177.1451697973464
 20
93.313161204826514
 30
0.0
 11
177.1451697973464
 21
158.52448607020381
 31
0.0
  0
LINE
  5
3602
  8
0
 10
161.1451697973464
 20
93.31316120479957
 30
0.0
 11
161.1451697973464
 21
158.52448607020409
 31
0.0
  0
LINE
  5
3603
  8
3
 10
162.22766979734641
 20
93.313161204801403
 30
0.0
 11
162.22766979734641
 21
159.60698607020399
 31
0.0
  0
LINE
  5
3605
  8
0
 10
161.1451697973464
 20
158.52448607020409
 30
0.0
 11
163.1451697973464
 21
160.52448607020401
 31
0.0
  0
LINE
  5
3606
  8
0
 10
161.1451697973464
 20
52.824486070204202
 30
0.0
 11
161.1451697973464
 21
80.313161204787974
 31
0.0
  0
LINE
  5
3607
  8
3
 10
162.22766979734641
 20
54.524486070209811
 30
0.0
 11
162.22766979734641
 21
80.313161204786056
 31
0.0
  0
LINE
  5
3608
  8
3
 10
176.0626697973465
 20
54.524486070209811
 30
0.0
 11
177.1451697973464
 21
53.180503134951771
 31
0.0
  0
LINE
  5
3609
  8
0
 10
161.1451697973464
 20
54.524486070209811
 30
0.0
 11
177.1451697973464
 21
54.524486070209811
 31
0.0
  0
LINE
  5
360A
  8
0
 10
177.1451697973464
 20
158.52448607020381
 30
0.0
 11
161.1451697973464
 21
158.52448607020389
 31
0.0
  0
LINE
  5
360B
  8
0
 10
175.1451697973464
 20
160.52448607020381
 30
0.0
 11
177.1451697973464
 21
158.52448607020381
 31
0.0
  0
LINE
  5
360C
  8
3
 10
176.0626697973465
 20
54.524486070209811
 30
0.0
 11
176.0626697973465
 21
80.313161204763105
 31
0.0
  0
LINE
  5
360D
  8
0
 10
177.1451697973464
 20
52.824486070204202
 30
0.0
 11
177.1451697973464
 21
80.313161204761158
 31
0.0
  0
LINE
  5
360E
  8
0
 10
163.1451697973464
 20
160.52448607020401
 30
0.0
 11
175.1451697973464
 21
160.52448607020381
 31
0.0
  0
LINE
  5
360F
  8
0
 10
180.64516979734751
 20
80.313161204755346
 30
0.0
 11
157.64516979728111
 21
80.313161204793772
 31
0.0
  0
LINE
  5
3610
  8
0
 10
157.64516979728111
 20
93.313161204793758
 30
0.0
 11
180.64516979734751
 21
93.313161204832198
 31
0.0
  0
ARC
  5
3611
  8
0
 10
163.14516979734739
 20
75.694359052895479
 30
0.0
 40
17.330127017333279
 50
69.7438419976408
 51
110.2561580023591
  0
LINE
  5
3612
  8
0
 10
157.1451697973325
 20
93.024486070228804
 30
0.0
 11
157.64516979734751
 21
93.313161204832198
 31
0.0
  0
LINE
  5
3613
  8
0
 10
157.1451697973325
 20
80.601836339358755
 30
0.0
 11
157.64516979734751
 21
80.313161204755346
 31
0.0
  0
ARC
  5
3614
  8
0
 10
163.14516979734739
 20
97.931963356692066
 30
0.0
 40
17.330127017333279
 50
249.7438419976408
 51
290.2561580023592
  0
LINE
  5
3615
  8
0
 10
157.1451697973325
 20
93.024486070228804
 30
0.0
 11
157.14516979734739
 21
80.601836339350129
 31
0.0
  0
LINE
  5
3616
  8
0
 10
169.14516979734751
 20
81.673633109187989
 30
0.0
 11
169.14516979734751
 21
91.952689300399555
 31
0.0
  0
LINE
  5
3617
  8
0
 10
181.14516979736251
 20
93.024486070228804
 30
0.0
 11
181.14516979734731
 21
80.601836339350129
 31
0.0
  0
ARC
  5
3618
  8
0
 10
175.14516979734751
 20
97.931963356692066
 30
0.0
 40
17.330127017333279
 50
249.7438419976408
 51
290.2561580023592
  0
LINE
  5
3619
  8
0
 10
181.14516979736251
 20
80.601836339358755
 30
0.0
 11
180.64516979734751
 21
80.313161204755346
 31
0.0
  0
LINE
  5
361A
  8
0
 10
181.14516979736251
 20
93.024486070228804
 30
0.0
 11
180.64516979734751
 21
93.313161204832198
 31
0.0
  0
ARC
  5
361B
  8
0
 10
175.14516979734751
 20
75.694359052895479
 30
0.0
 40
17.330127017333279
 50
69.7438419976408
 51
110.2561580023591
  0
LINE
  5
361C
  8
0
 10
61.145169797346227
 20
93.313161204774573
 30
0.0
 11
61.145169797346227
 21
158.52448607020409
 31
0.0
  0
LINE
  5
361D
  8
3
 10
62.227669797346209
 20
93.313161204774687
 30
0.0
 11
62.227669797346209
 21
159.60698607020399
 31
0.0
  0
LINE
  5
361E
  8
0
 10
77.145169797346199
 20
93.313161204774687
 30
0.0
 11
77.145169797346199
 21
158.52448607020381
 31
0.0
  0
LINE
  5
361F
  8
3
 10
76.062669797346246
 20
93.313161204774573
 30
0.0
 11
76.062669797346246
 21
159.6069860702039
 31
0.0
  0
LINE
  5
3620
  8
0
 10
63.145169797346227
 20
160.52448607020401
 30
0.0
 11
75.145169797346199
 21
160.52448607020381
 31
0.0
  0
LINE
  5
3622
  8
3
 10
76.062669797346246
 20
54.52448607020969
 30
0.0
 11
76.062669797346246
 21
80.313161204774474
 31
0.0
  0
LINE
  5
3623
  8
3
 10
62.227669797346209
 20
54.52448607020969
 30
0.0
 11
62.227669797346209
 21
80.313161204774474
 31
0.0
  0
LINE
  5
3625
  8
0
 10
61.145169797346227
 20
158.52448607020409
 30
0.0
 11
63.145169797346227
 21
160.52448607020401
 31
0.0
  0
LINE
  5
3626
  8
0
 10
75.145169797346199
 20
160.52448607020381
 30
0.0
 11
77.145169797346199
 21
158.52448607020381
 31
0.0
  0
LINE
  5
3627
  8
0
 10
77.145169797346199
 20
158.52448607020381
 30
0.0
 11
61.145169797346227
 21
158.52448607020389
 31
0.0
  0
LINE
  5
3628
  8
0
 10
61.145169797346227
 20
54.52448607020969
 30
0.0
 11
77.145169797346199
 21
54.52448607020969
 31
0.0
  0
LINE
  5
362B
  8
0
 10
80.645169797238168
 20
80.313161204774573
 30
0.0
 11
57.645169797453718
 21
80.313161204774573
 31
0.0
  0
LINE
  5
362C
  8
0
 10
57.645169797345943
 20
93.313161204774573
 30
0.0
 11
80.645169797238168
 21
93.313161204774573
 31
0.0
  0
ARC
  5
362D
  8
0
 10
79.53747464275942
 20
86.890511474488775
 30
0.0
 40
6.1339745957208196
 50
64.384247469852298
 51
124.3842474712113
  0
LINE
  5
362E
  8
0
 10
83.001576257918956
 20
91.952689300380342
 30
0.0
 11
80.645169797238168
 21
93.313161204774573
 31
0.0
  0
LINE
  5
362F
  8
0
 10
83.001576257918956
 20
81.67363310916879
 30
0.0
 11
80.645169797238168
 21
80.313161204774573
 31
0.0
  0
ARC
  5
3630
  8
0
 10
79.53747464275942
 20
86.735810935060371
 30
0.0
 40
6.1339745957208196
 50
235.6157525287887
 51
295.61575253014757
  0
LINE
  5
3631
  8
0
 10
83.001576257897085
 20
91.952689300380342
 30
0.0
 11
83.001576257897085
 21
81.673633109156157
 31
0.0
  0
LINE
  5
3632
  8
0
 10
76.073373027621301
 20
91.952689300380342
 30
0.0
 11
76.073373027621301
 21
81.67363310916879
 31
0.0
  0
LINE
  5
3633
  8
0
 10
62.216966567070592
 20
91.952689300380342
 30
0.0
 11
62.216966567070592
 21
81.67363310916879
 31
0.0
  0
LINE
  5
3634
  8
0
 10
55.28876333679478
 20
91.952689300380342
 30
0.0
 11
55.28876333679478
 21
81.673633109156157
 31
0.0
  0
ARC
  5
3635
  8
0
 10
69.145169797345915
 20
103.53003956747909
 30
0.0
 40
22.928203228139491
 50
252.41204622431439
 51
287.58795377568561
  0
ARC
  5
3636
  8
0
 10
58.752864951932452
 20
86.735810935060371
 30
0.0
 40
6.1339745957208196
 50
244.3842474698524
 51
304.38424747121132
  0
LINE
  5
3637
  8
0
 10
55.288763336772952
 20
81.67363310916879
 30
0.0
 11
57.645169797453718
 21
80.313161204774573
 31
0.0
  0
LINE
  5
3638
  8
0
 10
55.288763336772952
 20
91.952689300380342
 30
0.0
 11
57.645169797453718
 21
93.313161204774573
 31
0.0
  0
ARC
  5
3639
  8
0
 10
58.752864951932452
 20
86.890511474488775
 30
0.0
 40
6.1339745957208196
 50
55.615752528788711
 51
115.6157525301476
  0
ARC
  5
363A
  8
0
 10
69.145169797345915
 20
70.096282842070082
 30
0.0
 40
22.928203228139491
 50
72.412046224314366
 51
107.58795377568561
  0
LINE
  5
363B
  8
0
 10
176.9098756796995
 20
47.524486070204212
 30
0.0
 11
161.38046391499299
 21
47.524486070204212
 31
0.0
  0
LINE
  5
363C
  8
0
 10
161.3804639149933
 20
52.524486070204318
 30
0.0
 11
176.90987567969941
 21
52.524486070204098
 31
0.0
  0
ARC
  5
363D
  8
0
 10
176.07337302762181
 20
48.299322550560468
 30
0.0
 40
4.0893163974808306
 50
64.384247467889296
 51
124.3842474680048
  0
LINE
  5
363E
  8
0
 10
178.38277410438019
 20
51.67410776822571
 30
0.0
 11
176.9098756796991
 21
52.524486070204318
 31
0.0
  0
LINE
  5
363F
  8
0
 10
178.38277410438019
 20
48.374864372182572
 30
0.0
 11
176.9098756796991
 21
47.52448607020397
 31
0.0
  0
ARC
  5
3640
  8
0
 10
176.07337302762181
 20
51.74964958984782
 30
0.0
 40
4.0893163974808306
 50
235.61575253199521
 51
295.61575253211072
  0
LINE
  5
3641
  8
0
 10
178.38277410438019
 20
51.67410776822571
 30
0.0
 11
178.38277410438019
 21
48.374864372182572
 31
0.0
  0
LINE
  5
3642
  8
0
 10
173.76397195086409
 20
51.67410776822571
 30
0.0
 11
173.76397195086361
 21
48.374864372182351
 31
0.0
  0
LINE
  5
3643
  8
0
 10
164.52636764382831
 20
51.67410776822571
 30
0.0
 11
164.52636764382891
 21
48.374864372182351
 31
0.0
  0
LINE
  5
3644
  8
0
 10
159.90756549031229
 20
51.67410776822571
 30
0.0
 11
159.90756549031229
 21
48.374864372182572
 31
0.0
  0
ARC
  5
3645
  8
0
 10
169.1451697973458
 20
62.945802012570823
 30
0.0
 40
15.28546882020385
 50
252.4120462260295
 51
287.58795377397041
  0
ARC
  5
3646
  8
0
 10
162.21696656707081
 20
51.74964958984782
 30
0.0
 40
4.0893163974808306
 50
244.38424746788931
 51
304.38424746800479
  0
LINE
  5
3647
  8
0
 10
159.90756549031229
 20
48.374864372182572
 30
0.0
 11
161.3804639149933
 21
47.52448607020397
 31
0.0
  0
LINE
  5
3648
  8
0
 10
159.90756549031229
 20
51.67410776822571
 30
0.0
 11
161.3804639149933
 21
52.524486070204318
 31
0.0
  0
ARC
  5
3649
  8
0
 10
169.1451697973458
 20
37.103170127837473
 30
0.0
 40
15.28546882020385
 50
72.412046226029531
 51
107.5879537739705
  0
ARC
  5
364A
  8
0
 10
162.21696656707081
 20
48.299322550560468
 30
0.0
 40
4.0893163974808306
 50
55.615752531995142
 51
115.6157525321107
  0
LINE
  5
364B
  8
0
 10
61.380463914993321
 20
47.52448607020397
 30
0.0
 11
76.909875679699226
 21
47.52448607020397
 31
0.0
  0
LINE
  5
364C
  8
0
 10
76.90987567969826
 20
52.52448607020397
 30
0.0
 11
61.380463914994351
 21
52.52448607020397
 31
0.0
  0
ARC
  5
364D
  8
0
 10
65.145169797346355
 20
40.835220935413922
 30
0.0
 40
11.55341801262729
 50
69.743841999607483
 51
110.2561580003925
  0
LINE
  5
364E
  8
0
 10
61.145169797346313
 20
52.388638948041198
 30
0.0
 11
61.380463914994351
 21
52.52448607020397
 31
0.0
  0
ARC
  5
364F
  8
0
 10
65.145169797346313
 20
59.21375120499345
 30
0.0
 40
11.55341801262729
 50
249.7438419996092
 51
290.25615800039247
  0
LINE
  5
3650
  8
0
 10
61.145169797346249
 20
47.660333192366302
 30
0.0
 11
61.380463914994287
 21
47.524486070203388
 31
0.0
  0
LINE
  5
3651
  8
0
 10
61.145169797346313
 20
52.388638948041198
 30
0.0
 11
61.145169797346313
 21
47.660333192366302
 31
0.0
  0
LINE
  5
3652
  8
0
 10
69.145169797346369
 20
51.674107768225277
 30
0.0
 11
69.145169797346313
 21
48.374864372181882
 31
0.0
  0
LINE
  5
3653
  8
0
 10
77.145169797346426
 20
52.388638948041198
 30
0.0
 11
77.145169797346298
 21
47.660333192366302
 31
0.0
  0
ARC
  5
3654
  8
0
 10
73.145169797346298
 20
59.21375120499345
 30
0.0
 40
11.55341801262729
 50
249.74384199960909
 51
290.25615800039247
  0
LINE
  5
3655
  8
0
 10
77.145169797346369
 20
47.660333192366302
 30
0.0
 11
76.90987567969826
 21
47.524486070203388
 31
0.0
  0
LINE
  5
3656
  8
0
 10
77.145169797346426
 20
52.388638948041198
 30
0.0
 11
76.909875679698345
 21
52.52448607020397
 31
0.0
  0
ARC
  5
3657
  8
0
 10
73.145169797346369
 20
40.835220935413922
 30
0.0
 40
11.55341801262729
 50
69.743841999607483
 51
110.2561580003925
  0
LINE
  5
366A
  8
0
 10
176.84516979734639
 20
52.52448607020419
 30
0.0
 11
177.1451697973464
 21
52.824486070204202
 31
0.0
  0
LINE
  5
366B
  8
0
 10
161.1451697973464
 20
52.824486070204202
 30
0.0
 11
161.44516979734641
 21
52.52448607020419
 31
0.0
  0
LINE
  5
366C
  8
0
 10
177.1451697973464
 20
52.824486070204202
 30
0.0
 11
161.1451697973464
 21
52.824486070204202
 31
0.0
  0
LINE
  5
3674
  8
3
 10
162.22766979734641
 20
54.524486070209811
 30
0.0
 11
161.1451697973464
 21
53.180503134951771
 31
0.0
  0
LINE
  5
3675
  8
3
 10
76.062669797346373
 20
54.524486070209591
 30
0.0
 11
77.145169797346369
 21
53.180503134951543
 31
0.0
  0
LINE
  5
3676
  8
0
 10
77.145169797346298
 20
52.824486070203967
 30
0.0
 11
77.145169797346369
 21
80.313161204760931
 31
0.0
  0
LINE
  5
3677
  8
0
 10
76.845169797346301
 20
52.52448607020397
 30
0.0
 11
77.145169797346298
 21
52.824486070203967
 31
0.0
  0
LINE
  5
3678
  8
0
 10
61.145169797346313
 20
52.824486070203967
 30
0.0
 11
61.445169797346317
 21
52.52448607020397
 31
0.0
  0
LINE
  5
3679
  8
0
 10
77.145169797346298
 20
52.824486070203967
 30
0.0
 11
61.145169797346313
 21
52.824486070203967
 31
0.0
  0
LINE
  5
367A
  8
3
 10
62.227669797346351
 20
54.524486070209591
 30
0.0
 11
61.145169797346362
 21
53.180503134951543
 31
0.0
  0
LINE
  5
367B
  8
0
 10
61.145169797346249
 20
52.82448607020396
 30
0.0
 11
61.145169797346313
 21
80.313161204760917
 31
0.0
  0
TEXT
  5
3C82
  8
0
 62
     3
 10
0.0
 20
0.0
 30
0.0
 40
10.0
  1
LSAR50S16B-SUS
  7
STANDARD1
  0
ENDSEC
  0
EOF
