  0
SECTION
  2
HEADER
  9
$ACADVER
  1
AC1009
  9
$INSBASE
 10
0.0
 20
0.0
 30
0.0
  9
$EXTMIN
 10
0.0
 20
-2.960436562073669
 30
0.0
  9
$EXTMAX
 10
345.35918406915971
 20
240.0
 30
0.0
  9
$LIMMIN
 10
0.0
 20
0.0
  9
$LIMMAX
 10
375.0
 20
270.0
  9
$ORTHOMODE
 70
     1
  9
$REGENMODE
 70
     1
  9
$FILLMODE
 70
     1
  9
$QTEXTMODE
 70
     0
  9
$MIRRTEXT
 70
     0
  9
$DRAGMODE
 70
     2
  9
$LTSCALE
 40
10.0
  9
$OSMODE
 70
  3071
  9
$ATTMODE
 70
     1
  9
$TEXTSIZE
 40
0.2
  9
$TRACEWID
 40
0.05
  9
$TEXTSTYLE
  7
K70
  9
$CLAYER
  8
0
  9
$CELTYPE
  6
BYLAYER
  9
$CECOLOR
 62
   256
  9
$DIMSCALE
 40
1.0
  9
$DIMASZ
 40
3.0
  9
$DIMEXO
 40
2.0
  9
$DIMDLI
 40
0.38
  9
$DIMRND
 40
0.0
  9
$DIMDLE
 40
0.0
  9
$DIMEXE
 40
2.0
  9
$DIMTP
 40
0.0
  9
$DIMTM
 40
0.0
  9
$DIMTXT
 40
3.2000000000000002
  9
$DIMCEN
 40
0.0
  9
$DIMTSZ
 40
0.0
  9
$DIMTOL
 70
     0
  9
$DIMLIM
 70
     0
  9
$DIMTIH
 70
     0
  9
$DIMTOH
 70
     0
  9
$DIMSE1
 70
     0
  9
$DIMSE2
 70
     0
  9
$DIMTAD
 70
     1
  9
$DIMZIN
 70
     0
  9
$DIMBLK
  1

  9
$DIMASO
 70
     0
  9
$DIMSHO
 70
     0
  9
$DIMPOST
  1

  9
$DIMAPOST
  1

  9
$DIMALT
 70
     0
  9
$DIMALTD
 70
     2
  9
$DIMALTF
 40
25.399999999999999
  9
$DIMLFAC
 40
1.0
  9
$DIMTOFL
 70
     1
  9
$DIMTVP
 40
1.6000000000000001
  9
$DIMTIX
 70
     1
  9
$DIMSOXD
 70
     0
  9
$DIMSAH
 70
     0
  9
$DIMBLK1
  1

  9
$DIMBLK2
  1

  9
$DIMSTYLE
  2
STANDARD
  9
$DIMCLRD
 70
     0
  9
$DIMCLRE
 70
     0
  9
$DIMCLRT
 70
     0
  9
$DIMTFAC
 40
1.0
  9
$DIMGAP
 40
0.09
  9
$LUNITS
 70
     2
  9
$LUPREC
 70
     4
  9
$SKETCHINC
 40
0.1
  9
$FILLETRAD
 40
0.0
  9
$AUNITS
 70
     0
  9
$AUPREC
 70
     4
  9
$MENU
  1
E:\r13\win\SUPPORT\ACAD
  9
$ELEVATION
 40
0.0
  9
$PELEVATION
 40
0.0
  9
$THICKNESS
 40
0.0
  9
$LIMCHECK
 70
     0
  9
$BLIPMODE
 70
     0
  9
$CHAMFERA
 40
0.0
  9
$CHAMFERB
 40
0.0
  9
$SKPOLY
 70
     0
  9
$TDCREATE
 40
2449840.6465277779
  9
$TDUPDATE
 40
2456597.6082783332
  9
$TDINDWG
 40
0.0024802662
  9
$TDUSRTIMER
 40
0.0024802662
  9
$USRTIMER
 70
     1
  9
$ANGBASE
 50
0.0
  9
$ANGDIR
 70
     0
  9
$PDMODE
 70
     0
  9
$PDSIZE
 40
0.0
  9
$PLINEWID
 40
0.0
  9
$COORDS
 70
     1
  9
$SPLFRAME
 70
     0
  9
$SPLINETYPE
 70
     6
  9
$SPLINESEGS
 70
     8
  9
$ATTDIA
 70
     0
  9
$ATTREQ
 70
     1
  9
$HANDLING
 70
     1
  9
$HANDSEED
  5
264
  9
$SURFTAB1
 70
     6
  9
$SURFTAB2
 70
     6
  9
$SURFTYPE
 70
     6
  9
$SURFU
 70
     6
  9
$SURFV
 70
     6
  9
$UCSNAME
  2

  9
$UCSORG
 10
0.0
 20
0.0
 30
0.0
  9
$UCSXDIR
 10
1.0
 20
0.0
 30
0.0
  9
$UCSYDIR
 10
0.0
 20
1.0
 30
0.0
  9
$PUCSNAME
  2

  9
$PUCSORG
 10
0.0
 20
0.0
 30
0.0
  9
$PUCSXDIR
 10
1.0
 20
0.0
 30
0.0
  9
$PUCSYDIR
 10
0.0
 20
1.0
 30
0.0
  9
$USERI1
 70
     0
  9
$USERI2
 70
     1
  9
$USERI3
 70
     0
  9
$USERI4
 70
     0
  9
$USERI5
 70
     0
  9
$USERR1
 40
0.0
  9
$USERR2
 40
0.0
  9
$USERR3
 40
0.0
  9
$USERR4
 40
0.0
  9
$USERR5
 40
0.0
  9
$WORLDVIEW
 70
     1
  9
$SHADEDGE
 70
     3
  9
$SHADEDIF
 70
    70
  9
$TILEMODE
 70
     1
  9
$MAXACTVP
 70
    16
  9
$PLIMCHECK
 70
     0
  9
$PEXTMIN
 10
1.0000000000000000E+020
 20
1.0000000000000000E+020
 30
1.0000000000000000E+020
  9
$PEXTMAX
 10
-1.0000000000000000E+020
 20
-1.0000000000000000E+020
 30
-1.0000000000000000E+020
  9
$PLIMMIN
 10
0.0
 20
0.0
  9
$PLIMMAX
 10
12.0
 20
9.0
  9
$UNITMODE
 70
     0
  9
$VISRETAIN
 70
     0
  9
$PLINEGEN
 70
     0
  9
$PSLTSCALE
 70
     0
  0
ENDSEC
  0
SECTION
  2
TABLES
  0
TABLE
  2
VPORT
 70
     1
  0
VPORT
  2
*ACTIVE
 70
     0
 10
0.0
 20
0.0
 11
1.0
 21
1.0
 12
187.49427839065231
 22
134.10366293909439
 13
0.0
 23
0.0
 14
10.0
 24
10.0
 15
10.0
 25
10.0
 16
0.0
 26
0.0
 36
1.0
 17
0.0
 27
0.0
 37
0.0
 40
277.29405978699532
 41
2.304913294797688
 42
50.0
 43
0.0
 44
0.0
 50
0.0
 51
0.0
 71
     0
 72
   500
 73
     1
 74
     0
 75
     0
 76
     0
 77
     0
 78
     2
  0
ENDTAB
  0
TABLE
  2
LTYPE
 70
     4
  0
LTYPE
  2
CONTINUOUS
 70
     0
  3
Solid Line
 72
    65
 73
     0
 40
0.0
  0
LTYPE
  2
CENTER
 70
     0
  3
____ _ ____ _ ____ _ ____ _ ____ _ ____ _ ____
 72
    65
 73
     4
 40
2.0
 49
1.25
 49
-0.25
 49
0.25
 49
-0.25
  0
LTYPE
  2
HIDDEN
 70
     0
  3
_ _ _ _ _ _ _ _ _ _ _ _ _ _ _ _ _ _ _ _ _ _ _
 72
    65
 73
     2
 40
0.375
 49
0.25
 49
-0.125
  0
LTYPE
  2
PHANTOM2
 70
     0
  3
___ _ _ ___ _ _ ___ _ _ ___ _ _
 72
    65
 73
     6
 40
1.25
 49
0.625
 49
-0.125
 49
0.125
 49
-0.125
 49
0.125
 49
-0.125
  0
ENDTAB
  0
TABLE
  2
LAYER
 70
     3
  0
LAYER
  2
0
 70
     0
 62
     7
  6
CONTINUOUS
  0
LAYER
  2
1
 70
     0
 62
     1
  6
CENTER
  0
LAYER
  2
2
 70
     0
 62
     2
  6
HIDDEN
  0
ENDTAB
  0
TABLE
  2
STYLE
 70
     4
  0
STYLE
  2
STANDARD
 70
     0
 40
0.0
 41
1.0
 50
0.0
 71
     0
 42
0.2
  3
romans.shx
  4

  0
STYLE
  2
K80
 70
     0
 40
0.0
 41
1.0
 50
0.0
 71
     0
 42
0.2
  3
romans.shx
  4

  0
STYLE
  2
K70
 70
     0
 40
0.0
 41
1.0
 50
0.0
 71
     0
 42
0.2
  3
romans.shx
  4

  0
STYLE
  2
STANDARD1
 70
     0
 40
0.0
 41
1.0
 50
0.0
 71
     0
 42
3.0
  3
txt
  4

  0
ENDTAB
  0
TABLE
  2
VIEW
 70
     1
  0
VIEW
  2
ALL
 70
     0
 40
270.0
 10
220.99159663865549
 20
135.0
 41
0.0
 11
0.0
 21
0.0
 31
1.0
 12
0.0
 22
0.0
 32
0.0
 42
0.0
 43
0.0
 44
0.0
 50
0.0
 71
     0
  0
ENDTAB
  0
TABLE
  2
UCS
 70
     0
  0
ENDTAB
  0
TABLE
  2
APPID
 70
     3
  0
APPID
  2
ACAD
 70
     0
  0
APPID
  2
ACAD_MLEADERVER
 70
     0
  0
APPID
  2
ACAD_NAV_VCDISPLAY
 70
     0
  0
ENDTAB
  0
TABLE
  2
DIMSTYLE
 70
     1
  0
DIMSTYLE
  2
STANDARD
 70
     0
  3

  4

  5

  6

  7

 40
1.0
 41
0.18
 42
0.0625
 43
0.38
 44
0.18
 45
0.0
 46
0.0
 47
0.0
 48
0.0
140
0.18
141
0.09
142
0.0
143
25.399999999999999
144
1.0
145
0.0
146
1.0
147
0.09
 71
     0
 72
     0
 73
     1
 74
     1
 75
     0
 76
     0
 77
     0
 78
     0
170
     0
171
     2
172
     0
173
     0
174
     0
175
     0
176
     0
177
     0
178
     0
  0
ENDTAB
  0
ENDSEC
  0
SECTION
  2
BLOCKS
  0
BLOCK
  8
0
  2
$MODEL_SPACE
 70
     0
 10
0.0
 20
0.0
 30
0.0
  3
$MODEL_SPACE
  1

  0
ENDBLK
  5
104
  8
0
  0
BLOCK
 67
     1
  8
0
  2
$PAPER_SPACE
 70
     0
 10
0.0
 20
0.0
 30
0.0
  3
$PAPER_SPACE
  1

  0
ENDBLK
  5
102
 67
     1
  8
0
  0
ENDSEC
  0
SECTION
  2
ENTITIES
  0
LINE
  5
37
  8
1
 10
185.78165109662251
 20
205.0
 30
0.0
 11
185.78165109662251
 21
228.19999999999999
 31
0.0
  0
LINE
  5
38
  8
1
 10
156.43165109662249
 20
223.1999999999999
 30
0.0
 11
156.43165109662249
 21
210.00000000000011
 31
0.0
  0
LINE
  5
39
  8
1
 10
215.13165109662259
 20
223.19999999999959
 30
0.0
 11
215.13165109662259
 21
210.00000000000051
 31
0.0
  0
LINE
  5
3A
  8
0
 10
222.58165109662249
 20
225.0
 30
0.0
 11
225.78165109662251
 21
225.0
 31
0.0
  0
LINE
  5
3B
  8
0
 10
145.78165109662251
 20
225.0
 30
0.0
 11
148.9816510966225
 21
225.0
 31
0.0
  0
ARC
  5
3C
  8
0
 10
242.78165109662251
 20
237.0
 30
0.0
 40
3.0
 50
359.99999999999977
 51
90.0
  0
ARC
  5
3D
  8
0
 10
242.78165109662251
 20
223.0
 30
0.0
 40
3.0
 50
270.0
 51
0.0
  0
ARC
  5
3E
  8
0
 10
128.78165109662251
 20
223.0
 30
0.0
 40
3.0
 50
180.0
 51
269.99999999999989
  0
ARC
  5
3F
  8
0
 10
128.78165109662251
 20
237.0
 30
0.0
 40
3.0
 50
90.0
 51
179.99999999999989
  0
ARC
  5
40
  8
0
 10
221.08165109662249
 20
219.69999999999999
 30
0.0
 40
4.7000000000000002
 50
270.0
 51
0.0
  0
ARC
  5
41
  8
0
 10
150.4816510966225
 20
219.69999999999999
 30
0.0
 40
4.7000000000000002
 50
180.0
 51
269.99999999999989
  0
ARC
  5
42
  8
0
 10
221.08165109662249
 20
219.69999999999999
 30
0.0
 40
1.5
 50
270.0
 51
0.0
  0
ARC
  5
43
  8
0
 10
150.4816510966225
 20
219.69999999999999
 30
0.0
 40
1.5
 50
180.0
 51
269.99999999999989
  0
LINE
  5
44
  8
1
 10
135.78165109662251
 20
223.5
 30
0.0
 11
135.78165109662251
 21
236.5
 31
0.0
  0
LINE
  5
45
  8
1
 10
129.28165109662331
 20
230.0
 30
0.0
 11
142.2816510966228
 21
230.0
 31
0.0
  0
CIRCLE
  5
46
  8
0
 10
135.78165109662251
 20
230.0
 30
0.0
 40
3.5
  0
CIRCLE
  5
47
  8
0
 10
235.78165109662251
 20
230.0
 30
0.0
 40
3.5
  0
LINE
  5
48
  8
1
 10
229.28165109662339
 20
230.0
 30
0.0
 11
242.2816510966228
 21
230.0
 31
0.0
  0
LINE
  5
49
  8
1
 10
235.78165109662251
 20
223.5
 30
0.0
 11
235.78165109662251
 21
236.5
 31
0.0
  0
LINE
  5
4A
  8
0
 10
222.58165109662249
 20
240.0
 30
0.0
 11
242.78165109662251
 21
240.0
 31
0.0
  0
LINE
  5
4B
  8
0
 10
148.9816510966225
 20
219.69999999999999
 30
0.0
 11
148.9816510966225
 21
240.0
 31
0.0
  0
LINE
  5
4C
  8
0
 10
222.58165109662249
 20
240.0
 30
0.0
 11
222.58165109662249
 21
219.69999999999999
 31
0.0
  0
LINE
  5
4D
  8
0
 10
221.08165109662249
 20
218.19999999999999
 30
0.0
 11
150.4816510966225
 21
218.19999999999999
 31
0.0
  0
LINE
  5
4E
  8
0
 10
145.78165109662251
 20
219.69999999999999
 30
0.0
 11
145.78165109662251
 21
240.0
 31
0.0
  0
LINE
  5
4F
  8
0
 10
221.08165109662249
 20
215.0
 30
0.0
 11
150.4816510966225
 21
215.0
 31
0.0
  0
LINE
  5
50
  8
0
 10
225.78165109662251
 20
240.0
 30
0.0
 11
225.78165109662251
 21
219.69999999999999
 31
0.0
  0
LINE
  5
51
  8
0
 10
242.78165109662251
 20
220.0
 30
0.0
 11
225.78165109662251
 21
220.0
 31
0.0
  0
LINE
  5
52
  8
0
 10
245.78165109662251
 20
237.0
 30
0.0
 11
245.78165109662251
 21
223.0
 31
0.0
  0
LINE
  5
53
  8
0
 10
128.78165109662251
 20
240.0
 30
0.0
 11
148.9816510966225
 21
240.0
 31
0.0
  0
LINE
  5
54
  8
0
 10
128.78165109662251
 20
220.0
 30
0.0
 11
145.78165109662251
 21
220.0
 31
0.0
  0
LINE
  5
55
  8
0
 10
125.7816510966225
 20
237.0
 30
0.0
 11
125.7816510966225
 21
223.0
 31
0.0
  0
ARC
  5
56
  8
0
 10
227.28165109662251
 20
100.11366906474819
 30
0.0
 40
4.7000000000000002
 50
180.0
 51
269.99999999999989
  0
ARC
  5
57
  8
0
 10
144.28165109662251
 20
100.11366906474819
 30
0.0
 40
4.7000000000000002
 50
270.0
 51
0.0
  0
ARC
  5
58
  8
0
 10
227.28165109662251
 20
100.11366906474819
 30
0.0
 40
1.5
 50
180.0
 51
269.99999999999989
  0
ARC
  5
59
  8
0
 10
144.28165109662251
 20
100.11366906474819
 30
0.0
 40
1.5
 50
270.0
 51
0.0
  0
LINE
  5
5A
  8
1
 10
208.63165109662231
 20
150.51366906474809
 30
0.0
 11
221.6316510966227
 21
150.51366906474809
 31
0.0
  0
LINE
  5
5B
  8
0
 10
211.63165109662259
 20
143.01366906474809
 30
0.0
 11
211.63165109662259
 21
158.0136690647482
 31
0.0
  0
LINE
  5
5C
  8
0
 10
218.63165109662251
 20
143.01366906474809
 30
0.0
 11
218.63165109662251
 21
158.0136690647482
 31
0.0
  0
ARC
  5
5D
  8
0
 10
215.13165109662259
 20
158.0136690647482
 30
0.0
 40
3.4999999999999969
 50
0.0
 51
180.0
  0
ARC
  5
5E
  8
0
 10
215.13165109662259
 20
143.01366906474809
 30
0.0
 40
3.4999999999999969
 50
180.0
 51
0.0
  0
LINE
  5
5F
  8
1
 10
215.13165109662259
 20
136.5136690647484
 30
0.0
 11
215.13165109662259
 21
164.51366906474701
 31
0.0
  0
LINE
  5
60
  8
1
 10
215.13165109662259
 20
106.3136690647484
 30
0.0
 11
215.13165109662259
 21
134.3136690647471
 31
0.0
  0
ARC
  5
61
  8
0
 10
215.13165109662259
 20
112.8136690647482
 30
0.0
 40
3.4999999999999969
 50
180.0
 51
0.0
  0
ARC
  5
62
  8
0
 10
215.13165109662259
 20
127.8136690647482
 30
0.0
 40
3.4999999999999969
 50
0.0
 51
180.0
  0
LINE
  5
63
  8
0
 10
218.63165109662251
 20
112.8136690647482
 30
0.0
 11
218.63165109662251
 21
127.8136690647482
 31
0.0
  0
LINE
  5
64
  8
0
 10
211.63165109662259
 20
112.8136690647482
 30
0.0
 11
211.63165109662259
 21
127.8136690647482
 31
0.0
  0
LINE
  5
65
  8
1
 10
208.63165109662231
 20
120.3136690647482
 30
0.0
 11
221.6316510966227
 21
120.3136690647482
 31
0.0
  0
LINE
  5
66
  8
1
 10
149.9316510966222
 20
120.3136690647482
 30
0.0
 11
162.9316510966226
 21
120.3136690647482
 31
0.0
  0
LINE
  5
67
  8
0
 10
152.93165109662249
 20
112.8136690647482
 30
0.0
 11
152.93165109662249
 21
127.8136690647482
 31
0.0
  0
LINE
  5
68
  8
0
 10
159.93165109662249
 20
112.8136690647482
 30
0.0
 11
159.93165109662249
 21
127.8136690647482
 31
0.0
  0
ARC
  5
69
  8
0
 10
156.43165109662249
 20
127.8136690647482
 30
0.0
 40
3.4999999999999969
 50
0.0
 51
180.0
  0
ARC
  5
6A
  8
0
 10
156.43165109662249
 20
112.8136690647482
 30
0.0
 40
3.4999999999999969
 50
180.0
 51
0.0
  0
LINE
  5
6B
  8
1
 10
156.43165109662249
 20
106.3136690647484
 30
0.0
 11
156.43165109662249
 21
134.3136690647471
 31
0.0
  0
LINE
  5
6C
  8
1
 10
156.43165109662249
 20
136.5136690647484
 30
0.0
 11
156.43165109662249
 21
164.51366906474701
 31
0.0
  0
ARC
  5
6D
  8
0
 10
156.43165109662249
 20
143.01366906474809
 30
0.0
 40
3.4999999999999969
 50
180.0
 51
0.0
  0
ARC
  5
6E
  8
0
 10
156.43165109662249
 20
158.0136690647482
 30
0.0
 40
3.4999999999999969
 50
0.0
 51
180.0
  0
LINE
  5
6F
  8
0
 10
159.93165109662249
 20
143.01366906474809
 30
0.0
 11
159.93165109662249
 21
158.0136690647482
 31
0.0
  0
LINE
  5
70
  8
0
 10
152.93165109662249
 20
143.01366906474809
 30
0.0
 11
152.93165109662249
 21
158.0136690647482
 31
0.0
  0
LINE
  5
71
  8
1
 10
149.9316510966222
 20
150.51366906474809
 30
0.0
 11
162.9316510966226
 21
150.51366906474809
 31
0.0
  0
LINE
  5
72
  8
1
 10
235.78165109662251
 20
103.6136690647477
 30
0.0
 11
235.78165109662251
 21
90.413669064748646
 31
0.0
  0
LINE
  5
73
  8
1
 10
135.78165109662251
 20
103.61366906474809
 30
0.0
 11
135.78165109662251
 21
90.413669064748277
 31
0.0
  0
LINE
  5
74
  8
2
 10
222.58165109662249
 20
105.41366906474821
 30
0.0
 11
222.58165109662249
 21
165.41366906474809
 31
0.0
  0
LINE
  5
75
  8
2
 10
148.9816510966225
 20
105.41366906474821
 30
0.0
 11
148.9816510966225
 21
165.41366906474809
 31
0.0
  0
LINE
  5
76
  8
1
 10
185.78165109662251
 20
100.41366906474769
 30
0.0
 11
185.78165109662251
 21
170.41366906474809
 31
0.0
  0
LINE
  5
77
  8
0
 10
145.78165109662251
 20
105.41366906474821
 30
0.0
 11
225.78165109662251
 21
105.41366906474821
 31
0.0
  0
LINE
  5
78
  8
0
 10
222.58165109662249
 20
100.11366906474819
 30
0.0
 11
222.58165109662249
 21
105.41366906474821
 31
0.0
  0
LINE
  5
79
  8
0
 10
245.78165109662251
 20
95.413669064748177
 30
0.0
 11
227.28165109662251
 21
95.413669064748177
 31
0.0
  0
LINE
  5
7A
  8
0
 10
148.9816510966225
 20
100.11366906474819
 30
0.0
 11
148.9816510966225
 21
105.41366906474821
 31
0.0
  0
LINE
  5
7B
  8
0
 10
125.7816510966225
 20
95.413669064748177
 30
0.0
 11
144.28165109662251
 21
95.413669064748177
 31
0.0
  0
LINE
  5
7C
  8
0
 10
125.7816510966225
 20
98.613669064748166
 30
0.0
 11
125.7816510966225
 21
95.413669064748177
 31
0.0
  0
LINE
  5
7D
  8
0
 10
144.28165109662251
 20
98.613669064748194
 30
0.0
 11
125.7816510966225
 21
98.613669064748166
 31
0.0
  0
LINE
  5
7E
  8
0
 10
145.78165109662251
 20
165.41366906474809
 30
0.0
 11
145.78165109662251
 21
100.11366906474819
 31
0.0
  0
LINE
  5
7F
  8
0
 10
225.78165109662251
 20
165.41366906474809
 30
0.0
 11
145.78165109662251
 21
165.41366906474809
 31
0.0
  0
LINE
  5
80
  8
0
 10
225.78165109662251
 20
100.11366906474819
 30
0.0
 11
225.78165109662251
 21
165.41366906474809
 31
0.0
  0
LINE
  5
81
  8
0
 10
245.78165109662251
 20
98.613669064748194
 30
0.0
 11
227.28165109662251
 21
98.613669064748194
 31
0.0
  0
LINE
  5
82
  8
0
 10
245.78165109662251
 20
95.413669064748177
 30
0.0
 11
245.78165109662251
 21
98.613669064748194
 31
0.0
  0
ARC
  5
83
  8
0
 10
340.35918406915971
 20
138.07478171821231
 30
0.0
 40
5.0
 50
0.0
 51
29.98163936884891
  0
ARC
  5
84
  8
0
 10
327.47136444615842
 20
160.41366906474821
 30
0.0
 40
5.0
 50
29.981639368848992
 51
90.000000000000099
  0
TEXT
  5
85
  8
0
 10
343.3880638979636
 20
102.3582833733013
 30
0.0
 40
4.5
  1
LSB
 50
90.0
 41
0.8
  7
K80
  0
TEXT
  5
86
  8
0
 10
343.16870398040192
 20
118.40169864108709
 30
0.0
 40
4.5
  1
70A
 50
90.0
 41
0.8
  7
K80
  0
TEXT
  5
87
  8
0
 10
337.3880638979636
 20
102.3582833733013
 30
0.0
 40
4.2000000000000002
  1
Venlic
 50
90.0
  7
K80
  0
LINE
  5
88
  8
0
 10
333.21587539631628
 20
105.7125395666009
 30
0.0
 11
333.21587539631628
 21
112.7183486107476
 31
0.0
  0
LINE
  5
89
  8
2
 10
320.35918406915971
 20
161.5136690647476
 30
0.0
 11
323.5591840691597
 21
161.5136690647476
 31
0.0
  0
LINE
  5
8A
  8
2
 10
320.35918406915971
 20
139.5136690647482
 30
0.0
 11
323.5591840691597
 21
139.5136690647482
 31
0.0
  0
LINE
  5
8B
  8
2
 10
320.35918406915971
 20
131.3136690647471
 30
0.0
 11
323.5591840691597
 21
131.3136690647471
 31
0.0
  0
LINE
  5
8C
  8
2
 10
323.5591840691597
 20
109.3136690647495
 30
0.0
 11
320.35918406915971
 21
109.3136690647495
 31
0.0
  0
LINE
  5
8D
  8
1
 10
335.3591840691596
 20
103.6136690647477
 30
0.0
 11
335.3591840691596
 21
90.413669064748646
 31
0.0
  0
LINE
  5
8E
  8
0
 10
345.35918406915971
 20
98.613669064748194
 30
0.0
 11
325.3591840691596
 21
98.613669064748194
 31
0.0
  0
ARC
  5
8F
  8
0
 10
322.35918406915971
 20
102.41366906474821
 30
0.0
 40
3.0
 50
0.0
 51
90.0
  0
LINE
  5
90
  8
2
 10
323.5591840691597
 20
105.1632144817186
 30
0.0
 11
323.5591840691597
 21
165.41366906474809
 31
0.0
  0
LINE
  5
91
  8
0
 10
345.35918406915971
 20
138.07478171821231
 30
0.0
 11
345.35918406915971
 21
95.413669064748177
 31
0.0
  0
LINE
  5
92
  8
0
 10
331.80229237640151
 20
162.9122813321961
 30
0.0
 11
344.69011199940269
 21
140.5733939856602
 31
0.0
  0
LINE
  5
93
  8
0
 10
320.35918406915971
 20
165.41366906474809
 30
0.0
 11
327.47136444615842
 21
165.41366906474821
 31
0.0
  0
LINE
  5
94
  8
0
 10
320.35918406915971
 20
105.41366906474821
 30
0.0
 11
320.35918406915971
 21
165.41366906474809
 31
0.0
  0
LINE
  5
95
  8
0
 10
322.35918406915971
 20
105.41366906474821
 30
0.0
 11
320.35918406915971
 21
105.41366906474821
 31
0.0
  0
LINE
  5
96
  8
0
 10
325.3591840691596
 20
95.413669064748177
 30
0.0
 11
325.3591840691596
 21
102.41366906474821
 31
0.0
  0
LINE
  5
97
  8
0
 10
345.35918406915971
 20
95.413669064748177
 30
0.0
 11
325.3591840691596
 21
95.413669064748177
 31
0.0
  0
LINE
  5
98
  8
1
 10
140.78165109662231
 20
135.41366906474821
 30
0.0
 11
230.7816510966222
 21
135.41366906474821
 31
0.0
  0
LINE
  5
99
  8
0
 10
30.749938063487608
 20
95.413669064748177
 30
0.0
 11
50.749938063487612
 21
95.413669064748177
 31
0.0
  0
LINE
  5
9A
  8
0
 10
50.749938063487612
 20
95.413669064748177
 30
0.0
 11
50.749938063487612
 21
102.41366906474821
 31
0.0
  0
LINE
  5
9B
  8
0
 10
53.749938063487612
 20
105.41366906474821
 30
0.0
 11
55.749938063487612
 21
105.41366906474821
 31
0.0
  0
LINE
  5
9C
  8
0
 10
55.749938063487612
 20
105.41366906474821
 30
0.0
 11
55.749938063487612
 21
165.41366906474809
 31
0.0
  0
LINE
  5
9D
  8
0
 10
55.749938063487612
 20
165.41366906474809
 30
0.0
 11
48.637757686488847
 21
165.41366906474821
 31
0.0
  0
LINE
  5
9E
  8
0
 10
44.306829756245811
 20
162.9122813321961
 30
0.0
 11
31.41901013324458
 21
140.5733939856602
 31
0.0
  0
LINE
  5
9F
  8
0
 10
30.749938063487608
 20
138.07478171821231
 30
0.0
 11
30.749938063487608
 21
95.413669064748177
 31
0.0
  0
LINE
  5
A0
  8
2
 10
52.549938063487623
 20
105.1632144817186
 30
0.0
 11
52.549938063487623
 21
165.41366906474809
 31
0.0
  0
ARC
  5
A1
  8
0
 10
53.749938063487612
 20
102.41366906474821
 30
0.0
 40
3.0
 50
90.000000000000028
 51
180.0
  0
LINE
  5
A2
  8
0
 10
30.749938063487608
 20
98.613669064748194
 30
0.0
 11
50.749938063487612
 21
98.613669064748194
 31
0.0
  0
LINE
  5
A3
  8
1
 10
40.749938063487612
 20
103.6136690647477
 30
0.0
 11
40.749938063487612
 21
90.413669064748646
 31
0.0
  0
LINE
  5
A4
  8
2
 10
52.549938063487623
 20
109.3136690647495
 30
0.0
 11
55.749938063487612
 21
109.3136690647495
 31
0.0
  0
LINE
  5
A5
  8
2
 10
55.749938063487612
 20
131.3136690647471
 30
0.0
 11
52.549938063487623
 21
131.3136690647471
 31
0.0
  0
LINE
  5
A6
  8
2
 10
55.749938063487612
 20
139.5136690647482
 30
0.0
 11
52.549938063487623
 21
139.5136690647482
 31
0.0
  0
LINE
  5
A7
  8
2
 10
55.749938063487612
 20
161.5136690647476
 30
0.0
 11
52.549938063487623
 21
161.5136690647476
 31
0.0
  0
ARC
  5
A8
  8
0
 10
48.637757686488847
 20
160.41366906474821
 30
0.0
 40
5.0
 50
89.999999999999915
 51
150.01836063115101
  0
ARC
  5
A9
  8
0
 10
35.749938063487612
 20
138.07478171821231
 30
0.0
 40
5.0
 50
150.0183606311511
 51
180.0
  0
LINE
  5
AA
  8
0
 10
125.7816510966225
 20
33.82733812949639
 30
0.0
 11
125.7816510966225
 21
47.827338129496347
 31
0.0
  0
LINE
  5
AB
  8
0
 10
128.78165109662251
 20
50.827338129496361
 30
0.0
 11
145.78165109662251
 21
50.827338129496361
 31
0.0
  0
LINE
  5
AC
  8
0
 10
128.78165109662251
 20
30.82733812949639
 30
0.0
 11
148.9816510966225
 21
30.827338129496361
 31
0.0
  0
LINE
  5
AD
  8
0
 10
245.78165109662251
 20
33.82733812949639
 30
0.0
 11
245.78165109662251
 21
47.827338129496347
 31
0.0
  0
LINE
  5
AE
  8
0
 10
242.78165109662251
 20
50.827338129496361
 30
0.0
 11
225.78165109662251
 21
50.827338129496361
 31
0.0
  0
LINE
  5
AF
  8
0
 10
225.78165109662251
 20
30.827338129496361
 30
0.0
 11
225.78165109662251
 21
51.127338129496373
 31
0.0
  0
LINE
  5
B0
  8
0
 10
221.08165109662249
 20
55.827338129496361
 30
0.0
 11
150.4816510966225
 21
55.827338129496361
 31
0.0
  0
LINE
  5
B1
  8
0
 10
145.78165109662251
 20
51.127338129496373
 30
0.0
 11
145.78165109662251
 21
30.827338129496361
 31
0.0
  0
LINE
  5
B2
  8
0
 10
221.08165109662249
 20
52.627338129496373
 30
0.0
 11
150.4816510966225
 21
52.627338129496373
 31
0.0
  0
LINE
  5
B3
  8
0
 10
222.58165109662249
 20
30.827338129496361
 30
0.0
 11
222.58165109662249
 21
51.127338129496373
 31
0.0
  0
LINE
  5
B4
  8
0
 10
148.9816510966225
 20
51.127338129496373
 30
0.0
 11
148.9816510966225
 21
30.827338129496361
 31
0.0
  0
LINE
  5
B5
  8
0
 10
222.58165109662249
 20
30.827338129496361
 30
0.0
 11
242.78165109662251
 21
30.82733812949639
 31
0.0
  0
LINE
  5
B6
  8
1
 10
235.78165109662251
 20
47.327338129496361
 30
0.0
 11
235.78165109662251
 21
34.327338129496361
 31
0.0
  0
LINE
  5
B7
  8
1
 10
229.28165109662339
 20
40.827338129496361
 30
0.0
 11
242.2816510966228
 21
40.827338129496361
 31
0.0
  0
CIRCLE
  5
B8
  8
0
 10
235.78165109662251
 20
40.827338129496333
 30
0.0
 40
3.5
  0
CIRCLE
  5
B9
  8
0
 10
135.78165109662251
 20
40.827338129496361
 30
0.0
 40
3.5
  0
LINE
  5
BA
  8
1
 10
129.28165109662331
 20
40.82733812949639
 30
0.0
 11
142.2816510966228
 21
40.82733812949639
 31
0.0
  0
LINE
  5
BB
  8
1
 10
135.78165109662251
 20
47.327338129496383
 30
0.0
 11
135.78165109662251
 21
34.32733812949639
 31
0.0
  0
ARC
  5
BC
  8
0
 10
150.4816510966225
 20
51.127338129496373
 30
0.0
 40
1.5
 50
90.000000000000057
 51
180.0
  0
ARC
  5
BD
  8
0
 10
221.08165109662249
 20
51.127338129496373
 30
0.0
 40
1.5
 50
360.0
 51
90.0
  0
ARC
  5
BE
  8
0
 10
150.4816510966225
 20
51.127338129496373
 30
0.0
 40
4.7000000000000002
 50
90.000000000000057
 51
180.0
  0
ARC
  5
BF
  8
0
 10
221.08165109662249
 20
51.127338129496373
 30
0.0
 40
4.7000000000000002
 50
360.0
 51
90.0
  0
ARC
  5
C0
  8
0
 10
128.78165109662251
 20
33.82733812949639
 30
0.0
 40
3.0
 50
180.0
 51
270.0
  0
ARC
  5
C1
  8
0
 10
128.78165109662251
 20
47.827338129496347
 30
0.0
 40
3.0
 50
90.000000000000057
 51
180.0
  0
ARC
  5
C2
  8
0
 10
242.78165109662251
 20
47.827338129496347
 30
0.0
 40
3.0
 50
360.0
 51
90.0
  0
ARC
  5
C3
  8
0
 10
242.78165109662251
 20
33.82733812949639
 30
0.0
 40
3.0
 50
270.0
 51
0.0000000000001527
  0
LINE
  5
C4
  8
1
 10
215.13165109662259
 20
47.627338129496792
 30
0.0
 11
215.13165109662259
 21
60.827338129495871
 31
0.0
  0
LINE
  5
C5
  8
1
 10
156.43165109662249
 20
47.62733812949643
 30
0.0
 11
156.43165109662249
 21
60.827338129496248
 31
0.0
  0
LINE
  5
C6
  8
1
 10
185.78165109662251
 20
65.827338129496354
 30
0.0
 11
185.78165109662251
 21
42.627338129496387
 31
0.0
  0
TEXT
  5
1D4
  8
0
 62
     3
 10
0.0
 20
0.0
 30
0.0
 40
10.0
  1
LSB70A
  7
STANDARD1
  0
ENDSEC
  0
EOF
