  0
SECTION
  2
HEADER
  9
$ACADVER
  1
AC1009
  9
$INSBASE
 10
0.0
 20
0.0
 30
0.0
  9
$EXTMIN
 10
0.0
 20
-1.4802182810368341
 30
0.0
  9
$EXTMAX
 10
63.430461969260591
 20
47.853023835202812
 30
0.0
  9
$LIMMIN
 10
0.0
 20
0.0
  9
$LIMMAX
 10
75.0
 20
54.0
  9
$ORTHOMODE
 70
     1
  9
$REGENMODE
 70
     1
  9
$FILLMODE
 70
     1
  9
$QTEXTMODE
 70
     0
  9
$MIRRTEXT
 70
     0
  9
$DRAGMODE
 70
     2
  9
$LTSCALE
 40
2.0
  9
$OSMODE
 70
  3071
  9
$ATTMODE
 70
     1
  9
$TEXTSIZE
 40
0.2
  9
$TRACEWID
 40
0.05
  9
$TEXTSTYLE
  7
STANDARD
  9
$CLAYER
  8
0
  9
$CELTYPE
  6
BYLAYER
  9
$CECOLOR
 62
   256
  9
$DIMSCALE
 40
0.2
  9
$DIMASZ
 40
3.0
  9
$DIMEXO
 40
2.0
  9
$DIMDLI
 40
10.0
  9
$DIMRND
 40
0.0
  9
$DIMDLE
 40
0.0
  9
$DIMEXE
 40
2.0
  9
$DIMTP
 40
0.0
  9
$DIMTM
 40
0.0
  9
$DIMTXT
 40
3.2000000000000002
  9
$DIMCEN
 40
0.09
  9
$DIMTSZ
 40
0.0
  9
$DIMTOL
 70
     0
  9
$DIMLIM
 70
     0
  9
$DIMTIH
 70
     0
  9
$DIMTOH
 70
     0
  9
$DIMSE1
 70
     0
  9
$DIMSE2
 70
     0
  9
$DIMTAD
 70
     1
  9
$DIMZIN
 70
     0
  9
$DIMBLK
  1

  9
$DIMASO
 70
     1
  9
$DIMSHO
 70
     0
  9
$DIMPOST
  1

  9
$DIMAPOST
  1

  9
$DIMALT
 70
     0
  9
$DIMALTD
 70
     2
  9
$DIMALTF
 40
25.399999999999999
  9
$DIMLFAC
 40
1.0
  9
$DIMTOFL
 70
     1
  9
$DIMTVP
 40
1.6000000000000001
  9
$DIMTIX
 70
     1
  9
$DIMSOXD
 70
     0
  9
$DIMSAH
 70
     0
  9
$DIMBLK1
  1

  9
$DIMBLK2
  1

  9
$DIMSTYLE
  2
STANDARD
  9
$DIMCLRD
 70
     0
  9
$DIMCLRE
 70
     0
  9
$DIMCLRT
 70
     0
  9
$DIMTFAC
 40
1.0
  9
$DIMGAP
 40
0.09
  9
$LUNITS
 70
     2
  9
$LUPREC
 70
     4
  9
$SKETCHINC
 40
0.1
  9
$FILLETRAD
 40
0.0
  9
$AUNITS
 70
     0
  9
$AUPREC
 70
     0
  9
$MENU
  1
E:\r13\win\SUPPORT\ACAD
  9
$ELEVATION
 40
0.0
  9
$PELEVATION
 40
0.0
  9
$THICKNESS
 40
0.0
  9
$LIMCHECK
 70
     0
  9
$BLIPMODE
 70
     0
  9
$CHAMFERA
 40
0.0
  9
$CHAMFERB
 40
0.0
  9
$SKPOLY
 70
     0
  9
$TDCREATE
 40
2449840.618865741
  9
$TDUPDATE
 40
2456597.6086871182
  9
$TDINDWG
 40
0.0893709606
  9
$TDUSRTIMER
 40
0.0893709606
  9
$USRTIMER
 70
     1
  9
$ANGBASE
 50
0.0
  9
$ANGDIR
 70
     0
  9
$PDMODE
 70
     0
  9
$PDSIZE
 40
0.0
  9
$PLINEWID
 40
0.0
  9
$COORDS
 70
     1
  9
$SPLFRAME
 70
     0
  9
$SPLINETYPE
 70
     6
  9
$SPLINESEGS
 70
     8
  9
$ATTDIA
 70
     0
  9
$ATTREQ
 70
     1
  9
$HANDLING
 70
     1
  9
$HANDSEED
  5
BA5
  9
$SURFTAB1
 70
     6
  9
$SURFTAB2
 70
     6
  9
$SURFTYPE
 70
     6
  9
$SURFU
 70
     6
  9
$SURFV
 70
     6
  9
$UCSNAME
  2

  9
$UCSORG
 10
0.0
 20
0.0
 30
0.0
  9
$UCSXDIR
 10
1.0
 20
0.0
 30
0.0
  9
$UCSYDIR
 10
0.0
 20
1.0
 30
0.0
  9
$PUCSNAME
  2

  9
$PUCSORG
 10
0.0
 20
0.0
 30
0.0
  9
$PUCSXDIR
 10
1.0
 20
0.0
 30
0.0
  9
$PUCSYDIR
 10
0.0
 20
1.0
 30
0.0
  9
$USERI1
 70
     0
  9
$USERI2
 70
     1
  9
$USERI3
 70
     1
  9
$USERI4
 70
     0
  9
$USERI5
 70
     0
  9
$USERR1
 40
0.0
  9
$USERR2
 40
0.0
  9
$USERR3
 40
0.0
  9
$USERR4
 40
0.0
  9
$USERR5
 40
0.0
  9
$WORLDVIEW
 70
     1
  9
$SHADEDGE
 70
     3
  9
$SHADEDIF
 70
    70
  9
$TILEMODE
 70
     1
  9
$MAXACTVP
 70
    16
  9
$PLIMCHECK
 70
     0
  9
$PEXTMIN
 10
1.0000000000000000E+020
 20
1.0000000000000000E+020
 30
1.0000000000000000E+020
  9
$PEXTMAX
 10
-1.0000000000000000E+020
 20
-1.0000000000000000E+020
 30
-1.0000000000000000E+020
  9
$PLIMMIN
 10
0.0
 20
0.0
  9
$PLIMMAX
 10
12.0
 20
9.0
  9
$UNITMODE
 70
     0
  9
$VISRETAIN
 70
     0
  9
$PLINEGEN
 70
     0
  9
$PSLTSCALE
 70
     0
  0
ENDSEC
  0
SECTION
  2
TABLES
  0
TABLE
  2
VPORT
 70
     1
  0
VPORT
  2
*ACTIVE
 70
     0
 10
0.0
 20
0.0
 11
1.0
 21
1.0
 12
37.498855678130482
 22
26.379763760371251
 13
0.0
 23
0.0
 14
2.0
 24
2.0
 15
2.0
 25
2.0
 16
0.0
 26
0.0
 36
1.0
 17
0.0
 27
0.0
 37
0.0
 40
56.358601010194953
 41
2.304913294797688
 42
50.0
 43
0.0
 44
0.0
 50
0.0
 51
0.0
 71
     0
 72
   100
 73
     1
 74
     0
 75
     0
 76
     0
 77
     0
 78
     1
  0
ENDTAB
  0
TABLE
  2
LTYPE
 70
     4
  0
LTYPE
  2
CONTINUOUS
 70
     0
  3
Solid Line
 72
    65
 73
     0
 40
0.0
  0
LTYPE
  2
CENTER
 70
     0
  3
____ _ ____ _ ____ _ ____ _ ____ _ ____ _ ____
 72
    65
 73
     4
 40
2.0
 49
1.25
 49
-0.25
 49
0.25
 49
-0.25
  0
LTYPE
  2
HIDDEN
 70
     0
  3
_ _ _ _ _ _ _ _ _ _ _ _ _ _ _ _ _ _ _ _ _ _ _
 72
    65
 73
     2
 40
0.375
 49
0.25
 49
-0.125
  0
LTYPE
  2
PHANTOM2
 70
     0
  3
___ _ _ ___ _ _ ___ _ _ ___ _ _
 72
    65
 73
     6
 40
1.25
 49
0.625
 49
-0.125
 49
0.125
 49
-0.125
 49
0.125
 49
-0.125
  0
ENDTAB
  0
TABLE
  2
LAYER
 70
     5
  0
LAYER
  2
0
 70
     0
 62
     7
  6
CONTINUOUS
  0
LAYER
  2
1
 70
     0
 62
     1
  6
CENTER
  0
LAYER
  2
2
 70
     0
 62
     2
  6
HIDDEN
  0
LAYER
  2
3
 70
     0
 62
     3
  6
CONTINUOUS
  0
LAYER
  2
DEFPOINTS
 70
     0
 62
     7
  6
CONTINUOUS
  0
ENDTAB
  0
TABLE
  2
STYLE
 70
     2
  0
STYLE
  2
STANDARD
 70
     0
 40
0.0
 41
1.0
 50
0.0
 71
     0
 42
0.2
  3
TXT
  4
BIGFONT
  0
STYLE
  2
STANDARD1
 70
     0
 40
0.0
 41
1.0
 50
0.0
 71
     0
 42
3.0
  3
txt
  4

  0
ENDTAB
  0
TABLE
  2
VIEW
 70
     1
  0
VIEW
  2
ALL
 70
     0
 40
54.0
 10
44.198318999999998
 20
27.0
 41
0.0
 11
0.0
 21
0.0
 31
1.0
 12
0.0
 22
0.0
 32
0.0
 42
0.0
 43
0.0
 44
0.0
 50
0.0
 71
     0
  0
ENDTAB
  0
TABLE
  2
UCS
 70
     0
  0
ENDTAB
  0
TABLE
  2
APPID
 70
     3
  0
APPID
  2
ACAD
 70
     0
  0
APPID
  2
ACAD_MLEADERVER
 70
     0
  0
APPID
  2
ACAD_NAV_VCDISPLAY
 70
     0
  0
ENDTAB
  0
TABLE
  2
DIMSTYLE
 70
     1
  0
DIMSTYLE
  2
STANDARD
 70
     0
  3

  4

  5

  6

  7

 40
1.0
 41
0.18
 42
0.0625
 43
0.38
 44
0.18
 45
0.0
 46
0.0
 47
0.0
 48
0.0
140
0.18
141
0.09
142
0.0
143
25.399999999999999
144
1.0
145
0.0
146
1.0
147
0.09
 71
     0
 72
     0
 73
     1
 74
     1
 75
     0
 76
     0
 77
     0
 78
     0
170
     0
171
     2
172
     0
173
     0
174
     0
175
     0
176
     0
177
     0
178
     0
  0
ENDTAB
  0
ENDSEC
  0
SECTION
  2
BLOCKS
  0
BLOCK
  8
0
  2
$MODEL_SPACE
 70
     0
 10
0.0
 20
0.0
 30
0.0
  3
$MODEL_SPACE
  1

  0
ENDBLK
  5
9A5
  8
0
  0
BLOCK
 67
     1
  8
0
  2
$PAPER_SPACE
 70
     0
 10
0.0
 20
0.0
 30
0.0
  3
$PAPER_SPACE
  1

  0
ENDBLK
  5
9A3
 67
     1
  8
0
  0
ENDSEC
  0
SECTION
  2
ENTITIES
  0
LINE
  5
88D
  8
1
 10
12.80180996926059
 20
32.215869835202838
 30
0.0
 11
12.80180996926059
 21
26.215869835202842
 31
0.0
  0
CIRCLE
  5
88E
  8
3
 10
12.80180996926059
 20
29.215869835202842
 30
0.0
 40
1.6209999999999991
  0
LINE
  5
88F
  8
1
 10
15.80180996926059
 20
29.215869835202842
 30
0.0
 11
9.8018099692605887
 21
29.215869835202842
 31
0.0
  0
LINE
  5
890
  8
0
 10
10.824437969260581
 20
28.915869835202841
 30
0.0
 11
14.779181969260589
 21
28.915869835202841
 31
0.0
  0
LINE
  5
891
  8
0
 10
10.824437969260581
 20
29.515869835202839
 30
0.0
 11
14.779181969260589
 21
29.515869835202839
 31
0.0
  0
ARC
  5
892
  8
0
 10
12.80180996926059
 20
29.215869835202842
 30
0.0
 40
2.0
 50
96.112227750953451
 51
83.887772249046549
  0
LINE
  5
8A5
  8
0
 10
13.076809969260591
 20
31.196873368768589
 30
0.0
 11
13.076809969260591
 21
30.715869835202842
 31
0.0
  0
LINE
  5
8A6
  8
0
 10
12.52680996926059
 20
31.19687383520283
 30
0.0
 11
12.52680996926059
 21
30.715869835202842
 31
0.0
  0
LINE
  5
8A7
  8
0
 10
13.076809969260591
 20
30.715869835202842
 30
0.0
 11
12.52680996926059
 21
30.715869835202842
 31
0.0
  0
LINE
  5
8A9
  8
2
 10
38.799029969260623
 20
30.715869835202831
 30
0.0
 11
31.099029969260609
 21
30.715869835202831
 31
0.0
  0
LINE
  5
8AA
  8
0
 10
39.599029969260613
 20
27.215869835202831
 30
0.0
 11
31.599029969260609
 21
27.215869835202831
 31
0.0
  0
LINE
  5
8AB
  8
3
 10
39.978029969260596
 20
27.594869835202829
 30
0.0
 11
31.220029969260619
 21
27.594869835202829
 31
0.0
  0
LINE
  5
8AC
  8
0
 10
39.599029969260599
 20
31.215869835202831
 30
0.0
 11
31.599029969260609
 21
31.215869835202831
 31
0.0
  0
LINE
  5
8AD
  8
3
 10
39.978029969260596
 20
30.83686983520283
 30
0.0
 11
31.220029969260619
 21
30.83686983520283
 31
0.0
  0
LINE
  5
8AE
  8
1
 10
30.099029969260609
 20
29.215869835202831
 30
0.0
 11
42.599029969260641
 21
29.215869835202831
 31
0.0
  0
LINE
  5
8AF
  8
2
 10
32.620029969260621
 20
31.215869835202831
 30
0.0
 11
32.620029969260621
 21
30.715869835202831
 31
0.0
  0
LINE
  5
8B0
  8
0
 10
31.599029969260609
 20
31.215869835202831
 30
0.0
 11
31.599029969260609
 21
29.515869835202832
 31
0.0
  0
LINE
  5
8B1
  8
0
 10
31.599029969260609
 20
31.215869835202831
 30
0.0
 11
31.099029969260609
 21
30.715869835202831
 31
0.0
  0
LINE
  5
8B2
  8
0
 10
31.599029969260609
 20
28.91586983520283
 30
0.0
 11
31.599029969260609
 21
27.215869835202831
 31
0.0
  0
LINE
  5
8B3
  8
0
 10
31.099029969260609
 20
28.91586983520283
 30
0.0
 11
31.099029969260609
 21
27.715869835202831
 31
0.0
  0
LINE
  5
8B4
  8
0
 10
31.099029969260609
 20
27.715869835202831
 30
0.0
 11
31.599029969260609
 21
27.215869835202831
 31
0.0
  0
LINE
  5
8B5
  8
0
 10
31.099029969260609
 20
30.715869835202831
 30
0.0
 11
31.099029969260609
 21
29.515869835202832
 31
0.0
  0
LINE
  5
8B6
  8
0
 10
31.099029969260609
 20
28.91586983520283
 30
0.0
 11
32.299029969260609
 21
28.915869835202841
 31
0.0
  0
LINE
  5
8B7
  8
0
 10
31.099029969260609
 20
29.515869835202832
 30
0.0
 11
32.299029969260609
 21
29.515869835202832
 31
0.0
  0
LINE
  5
8BC
  8
0
 10
32.620029969260621
 20
31.215869835202831
 30
0.0
 11
32.620029969260621
 21
31.315869835202829
 31
0.0
  0
LINE
  5
8BD
  8
2
 10
37.620029969260621
 20
31.215869835202831
 30
0.0
 11
37.620029969260621
 21
30.715869835202831
 31
0.0
  0
LINE
  5
8BE
  8
2
 10
38.799029969260623
 20
31.215869835202831
 30
0.0
 11
38.799029969260623
 21
30.715869835202831
 31
0.0
  0
LINE
  5
8BF
  8
0
 10
39.599029969260613
 20
31.215869835202831
 30
0.0
 11
39.599029969260613
 21
27.215869835202831
 31
0.0
  0
LINE
  5
8C0
  8
0
 10
40.099029969260613
 20
30.715869835202831
 30
0.0
 11
39.599029969260613
 21
31.215869835202831
 31
0.0
  0
LINE
  5
8C4
  8
0
 10
40.099029969260613
 20
30.715869835202831
 30
0.0
 11
40.099029969260613
 21
27.715869835202831
 31
0.0
  0
LINE
  5
8C5
  8
0
 10
40.099029969260613
 20
27.715869835202831
 30
0.0
 11
39.599029969260613
 21
27.215869835202831
 31
0.0
  0
LINE
  5
8C8
  8
0
 10
37.620029969260621
 20
31.315869835202829
 30
0.0
 11
37.620029969260621
 21
31.215869835202831
 31
0.0
  0
ARC
  5
8CA
  8
0
 10
40.6990299692606
 20
29.215869835202831
 30
0.0
 40
0.9
 50
270.0
 51
90.0
  0
LINE
  5
8CB
  8
0
 10
40.6990299692606
 20
30.11586983520283
 30
0.0
 11
40.099029969260613
 21
30.11586983520283
 31
0.0
  0
LINE
  5
8CC
  8
0
 10
40.6990299692606
 20
28.315869835202829
 30
0.0
 11
40.099029969260613
 21
28.315869835202829
 31
0.0
  0
ARC
  5
8CD
  8
2
 10
39.199029969260607
 20
29.215869835202831
 30
0.0
 40
0.9
 50
270.0
 51
90.0
  0
ARC
  5
8D1
  8
0
 10
40.6990299692606
 20
45.853023835202819
 30
0.0
 40
0.9
 50
270.0
 51
90.0
  0
ARC
  5
8D2
  8
2
 10
39.199029969260607
 20
45.853023835202819
 30
0.0
 40
0.9
 50
270.0
 51
90.0
  0
LINE
  5
8D3
  8
0
 10
31.599029969260609
 20
45.553023835202822
 30
0.0
 11
31.599029969260609
 21
43.853023835202819
 31
0.0
  0
LINE
  5
8D4
  8
0
 10
31.099029969260609
 20
47.353023835202819
 30
0.0
 11
31.099029969260609
 21
44.353023835202833
 31
0.0
  0
LINE
  5
8D5
  8
0
 10
40.099029969260613
 20
47.353023835202819
 30
0.0
 11
40.099029969260613
 21
44.353023835202833
 31
0.0
  0
LINE
  5
8D6
  8
0
 10
39.599029969260613
 20
47.853023835202812
 30
0.0
 11
39.599029969260613
 21
43.853023835202819
 31
0.0
  0
LINE
  5
8D7
  8
3
 10
39.978029969260596
 20
44.232023835202817
 30
0.0
 11
31.220029969260619
 21
44.232023835202817
 31
0.0
  0
LINE
  5
8D8
  8
0
 10
39.599029969260613
 20
43.853023835202819
 30
0.0
 11
31.599029969260609
 21
43.853023835202819
 31
0.0
  0
LINE
  5
8D9
  8
0
 10
31.099029969260609
 20
44.353023835202833
 30
0.0
 11
31.599029969260609
 21
43.853023835202819
 31
0.0
  0
LINE
  5
8DA
  8
0
 10
40.099029969260613
 20
44.353023835202833
 30
0.0
 11
39.599029969260613
 21
43.853023835202819
 31
0.0
  0
LINE
  5
8DB
  8
0
 10
40.6990299692606
 20
44.953023835202821
 30
0.0
 11
40.099029969260613
 21
44.953023835202821
 31
0.0
  0
LINE
  5
8DC
  8
1
 10
30.099029969260609
 20
45.853023835202819
 30
0.0
 11
42.599029969260641
 21
45.853023835202819
 31
0.0
  0
LINE
  5
8DE
  8
0
 10
39.599029969260599
 20
47.853023835202812
 30
0.0
 11
31.599029969260609
 21
47.853023835202812
 31
0.0
  0
LINE
  5
8DF
  8
3
 10
39.978029969260596
 20
47.474023835202829
 30
0.0
 11
31.220029969260619
 21
47.474023835202829
 31
0.0
  0
LINE
  5
8E2
  8
0
 10
31.599029969260609
 20
47.853023835202812
 30
0.0
 11
31.099029969260609
 21
47.353023835202819
 31
0.0
  0
LINE
  5
8E3
  8
0
 10
31.599029969260609
 20
47.853023835202812
 30
0.0
 11
31.599029969260609
 21
46.153023835202823
 31
0.0
  0
LINE
  5
8E4
  8
0
 10
31.099029969260609
 20
46.153023835202823
 30
0.0
 11
38.799029969260623
 21
46.153023835202823
 31
0.0
  0
LINE
  5
8E5
  8
0
 10
31.099029969260609
 20
45.553023835202822
 30
0.0
 11
38.799029969260623
 21
45.553023835202822
 31
0.0
  0
LINE
  5
8E9
  8
0
 10
40.099029969260613
 20
47.353023835202819
 30
0.0
 11
39.599029969260613
 21
47.853023835202812
 31
0.0
  0
LINE
  5
8EC
  8
0
 10
40.6990299692606
 20
46.753023835202818
 30
0.0
 11
40.099029969260613
 21
46.753023835202818
 31
0.0
  0
LINE
  5
8EE
  8
0
 10
38.799029969260623
 20
46.153023835202823
 30
0.0
 11
38.799029969260623
 21
45.553023835202822
 31
0.0
  0
LINE
  5
8EF
  8
0
 10
37.620029969260621
 20
46.153023835202823
 30
0.0
 11
37.620029969260621
 21
45.553023835202822
 31
0.0
  0
LINE
  5
8F0
  8
0
 10
32.620029969260628
 20
46.153023835202823
 30
0.0
 11
32.620029969260621
 21
45.553023835202822
 31
0.0
  0
ARC
  5
8F2
  8
0
 10
40.6990299692606
 20
12.578714835202851
 30
0.0
 40
0.9
 50
270.0
 51
90.0
  0
ARC
  5
8F3
  8
2
 10
39.199029969260607
 20
12.578714835202851
 30
0.0
 40
0.9
 50
270.0
 51
90.0
  0
LINE
  5
8F4
  8
0
 10
31.599029969260609
 20
14.578714835202851
 30
0.0
 11
31.599029969260609
 21
10.578714835202851
 31
0.0
  0
LINE
  5
8F5
  8
0
 10
31.099029969260609
 20
14.078714835202851
 30
0.0
 11
31.099029969260609
 21
11.078714835202851
 31
0.0
  0
LINE
  5
8F6
  8
0
 10
40.099029969260613
 20
14.078714835202851
 30
0.0
 11
40.099029969260613
 21
11.078714835202851
 31
0.0
  0
LINE
  5
8F7
  8
0
 10
39.599029969260613
 20
14.578714835202851
 30
0.0
 11
39.599029969260613
 21
10.578714835202851
 31
0.0
  0
LINE
  5
8F8
  8
3
 10
39.978029969260596
 20
10.95771483520285
 30
0.0
 11
31.220029969260619
 21
10.95771483520285
 31
0.0
  0
LINE
  5
8F9
  8
0
 10
39.599029969260613
 20
10.578714835202851
 30
0.0
 11
31.599029969260609
 21
10.578714835202851
 31
0.0
  0
LINE
  5
8FA
  8
0
 10
31.099029969260609
 20
11.078714835202851
 30
0.0
 11
31.599029969260609
 21
10.578714835202851
 31
0.0
  0
LINE
  5
8FB
  8
0
 10
40.099029969260613
 20
11.078714835202851
 30
0.0
 11
39.599029969260613
 21
10.578714835202851
 31
0.0
  0
LINE
  5
8FC
  8
0
 10
40.6990299692606
 20
11.67871483520285
 30
0.0
 11
40.099029969260613
 21
11.67871483520285
 31
0.0
  0
LINE
  5
8FD
  8
1
 10
30.099029969260609
 20
12.578714835202851
 30
0.0
 11
42.599029969260641
 21
12.578714835202851
 31
0.0
  0
LINE
  5
8FF
  8
0
 10
39.599029969260599
 20
14.578714835202851
 30
0.0
 11
31.599029969260609
 21
14.578714835202851
 31
0.0
  0
LINE
  5
900
  8
3
 10
39.978029969260596
 20
14.199714835202849
 30
0.0
 11
31.220029969260619
 21
14.199714835202849
 31
0.0
  0
LINE
  5
903
  8
0
 10
31.599029969260609
 20
14.578714835202851
 30
0.0
 11
31.099029969260609
 21
14.078714835202851
 31
0.0
  0
LINE
  5
90A
  8
0
 10
40.099029969260613
 20
14.078714835202851
 30
0.0
 11
39.599029969260613
 21
14.578714835202851
 31
0.0
  0
LINE
  5
90D
  8
0
 10
40.6990299692606
 20
13.478714835202849
 30
0.0
 11
40.099029969260613
 21
13.478714835202849
 31
0.0
  0
LINE
  5
910
  8
1
 10
60.430461969260591
 20
32.215869835202817
 30
0.0
 11
60.430461969260591
 21
26.215869835202831
 31
0.0
  0
CIRCLE
  5
912
  8
3
 10
60.430461969260591
 20
29.215869835202831
 30
0.0
 40
1.6209999999999991
  0
LINE
  5
913
  8
1
 10
63.430461969260591
 20
29.215869835202831
 30
0.0
 11
57.430461969260591
 21
29.215869835202831
 31
0.0
  0
CIRCLE
  5
914
  8
0
 10
60.430461969260591
 20
29.215869835202831
 30
0.0
 40
1.5
  0
CIRCLE
  5
927
  8
0
 10
60.430461969260591
 20
29.215869835202831
 30
0.0
 40
0.899999999999995
  0
CIRCLE
  5
93F
  8
0
 10
60.430461969260591
 20
29.215869835202831
 30
0.0
 40
2.0
  0
LINE
  5
955
  8
0
 10
37.620029969260621
 20
31.315869835202829
 30
0.0
 11
32.620029969260621
 21
31.315869835202822
 31
0.0
  0
POLYLINE
  5
958
  8
0
  6
CONTINUOUS
 66
     1
 10
0.0
 20
0.0
 30
0.0
 70
     8
  0
VERTEX
  5
964
  8
0
  6
CONTINUOUS
 10
12.80180996926059
 20
31.315869835202822
 30
0.0
 70
    32
1001
ACAD
1000
R13OBJECT
1002
{
1005
958
1002
}
  0
VERTEX
  5
965
  8
0
  6
CONTINUOUS
 10
12.653749374501229
 20
31.268245895052178
 30
0.0
 70
    32
1001
ACAD
1000
R13OBJECT
1002
{
1005
958
1002
}
  0
VERTEX
  5
966
  8
0
  6
CONTINUOUS
 10
12.5526969724318
 20
31.140494339103391
 30
0.0
 70
    32
1001
ACAD
1000
R13OBJECT
1002
{
1005
958
1002
}
  0
VERTEX
  5
967
  8
0
  6
CONTINUOUS
 10
12.53073618670718
 20
30.97317538372085
 30
0.0
 70
    32
1001
ACAD
1000
R13OBJECT
1002
{
1005
958
1002
}
  0
VERTEX
  5
968
  8
0
  6
CONTINUOUS
 10
12.594839411627451
 20
30.819411615019249
 30
0.0
 70
    32
1001
ACAD
1000
R13OBJECT
1002
{
1005
958
1002
}
  0
VERTEX
  5
969
  8
0
  6
CONTINUOUS
 10
12.724654326212161
 20
30.728021943118481
 30
0.0
 70
    32
1001
ACAD
1000
R13OBJECT
1002
{
1005
958
1002
}
  0
VERTEX
  5
96A
  8
0
  6
CONTINUOUS
 10
12.87896561230902
 20
30.728021943118481
 30
0.0
 70
    32
1001
ACAD
1000
R13OBJECT
1002
{
1005
958
1002
}
  0
VERTEX
  5
96B
  8
0
  6
CONTINUOUS
 10
13.00878052689373
 20
30.819411615019249
 30
0.0
 70
    32
1001
ACAD
1000
R13OBJECT
1002
{
1005
958
1002
}
  0
VERTEX
  5
96C
  8
0
  6
CONTINUOUS
 10
13.07288375181399
 20
30.97317538372085
 30
0.0
 70
    32
1001
ACAD
1000
R13OBJECT
1002
{
1005
958
1002
}
  0
VERTEX
  5
96D
  8
0
  6
CONTINUOUS
 10
13.05092296608937
 20
31.140494339103402
 30
0.0
 70
    32
1001
ACAD
1000
R13OBJECT
1002
{
1005
958
1002
}
  0
VERTEX
  5
96E
  8
0
  6
CONTINUOUS
 10
12.949870564019941
 20
31.268245895052178
 30
0.0
 70
    32
1001
ACAD
1000
R13OBJECT
1002
{
1005
958
1002
}
  0
VERTEX
  5
96F
  8
0
  6
CONTINUOUS
 10
12.80180996926058
 20
31.315869835202822
 30
0.0
 70
    32
1001
ACAD
1000
R13OBJECT
1002
{
1005
958
1002
}
  0
SEQEND
  5
970
  8
0
  6
CONTINUOUS
  0
POLYLINE
  5
963
  8
0
  6
CONTINUOUS
 66
     1
 10
0.0
 20
0.0
 30
0.0
 70
     8
  0
VERTEX
  5
971
  8
0
  6
CONTINUOUS
 10
60.643414519388671
 20
31.204500321591372
 30
0.0
 70
    32
1001
ACAD
1000
R13OBJECT
1002
{
1005
963
1002
}
  0
VERTEX
  5
972
  8
0
  6
CONTINUOUS
 10
60.510593261856087
 20
31.302740489136301
 30
0.0
 70
    32
1001
ACAD
1000
R13OBJECT
1002
{
1005
963
1002
}
  0
VERTEX
  5
973
  8
0
  6
CONTINUOUS
 10
60.350330676665102
 20
31.302740489136291
 30
0.0
 70
    32
1001
ACAD
1000
R13OBJECT
1002
{
1005
963
1002
}
  0
VERTEX
  5
974
  8
0
  6
CONTINUOUS
 10
60.217509419132519
 20
31.204500321591372
 30
0.0
 70
    32
1001
ACAD
1000
R13OBJECT
1002
{
1005
963
1002
}
  0
SEQEND
  5
975
  8
0
  6
CONTINUOUS
  0
LINE
  5
9FA
  8
0
 10
32.299029969260609
 20
29.515869835202832
 30
0.0
 11
32.299029969260609
 21
28.91586983520283
 31
0.0
  0
TEXT
  5
B16
  8
0
 62
     3
 10
0.0
 20
0.0
 30
0.0
 40
5.0
  1
LSPLL4-SUS
  7
STANDARD1
  0
ENDSEC
  0
EOF
