  0
SECTION
  2
HEADER
  9
$ACADVER
  1
AC1009
  9
$INSBASE
 10
12.8498280311357895
 20
478.7830005805823248
 30
0.0
  9
$EXTMIN
 10
0.0
 20
-2.960436562073669
 30
0.0
  9
$EXTMAX
 10
116.000000000000199
 20
168.3000000000000114
 30
0.0
  9
$LIMMIN
 10
0.0
 20
0.0
  9
$LIMMAX
 10
375.0
 20
270.0
  9
$ORTHOMODE
 70
     1
  9
$REGENMODE
 70
     1
  9
$FILLMODE
 70
     1
  9
$QTEXTMODE
 70
     0
  9
$MIRRTEXT
 70
     0
  9
$DRAGMODE
 70
     2
  9
$LTSCALE
 40
6.0
  9
$OSMODE
 70
    37
  9
$ATTMODE
 70
     1
  9
$TEXTSIZE
 40
0.2
  9
$TRACEWID
 40
0.05
  9
$TEXTSTYLE
  7
STANDARD
  9
$CLAYER
  8
0
  9
$CELTYPE
  6
BYLAYER
  9
$CECOLOR
 62
   256
  9
$DIMSCALE
 40
1.0
  9
$DIMASZ
 40
3.0
  9
$DIMEXO
 40
1.0
  9
$DIMDLI
 40
6.0
  9
$DIMRND
 40
0.0
  9
$DIMDLE
 40
0.0
  9
$DIMEXE
 40
1.0
  9
$DIMTP
 40
495.0
  9
$DIMTM
 40
0.0
  9
$DIMTXT
 40
3.0
  9
$DIMCEN
 40
0.0
  9
$DIMTSZ
 40
0.0
  9
$DIMTOL
 70
     0
  9
$DIMLIM
 70
     0
  9
$DIMTIH
 70
     0
  9
$DIMTOH
 70
     0
  9
$DIMSE1
 70
     0
  9
$DIMSE2
 70
     0
  9
$DIMTAD
 70
     1
  9
$DIMZIN
 70
     0
  9
$DIMBLK
  1

  9
$DIMASO
 70
     0
  9
$DIMSHO
 70
     0
  9
$DIMPOST
  1

  9
$DIMAPOST
  1

  9
$DIMALT
 70
     0
  9
$DIMALTD
 70
     2
  9
$DIMALTF
 40
25.3999999999999986
  9
$DIMLFAC
 40
1.0
  9
$DIMTOFL
 70
     1
  9
$DIMTVP
 40
0.0
  9
$DIMTIX
 70
     1
  9
$DIMSOXD
 70
     0
  9
$DIMSAH
 70
     0
  9
$DIMBLK1
  1

  9
$DIMBLK2
  1

  9
$DIMSTYLE
  2
STANDARD
  9
$DIMCLRD
 70
     0
  9
$DIMCLRE
 70
     0
  9
$DIMCLRT
 70
     4
  9
$DIMTFAC
 40
1.0
  9
$DIMGAP
 40
1.0
  9
$LUNITS
 70
     2
  9
$LUPREC
 70
     4
  9
$SKETCHINC
 40
0.1
  9
$FILLETRAD
 40
0.0
  9
$AUNITS
 70
     0
  9
$AUPREC
 70
     0
  9
$MENU
  1
C:\R13\WIN\SUPPORT\ACAD-I
  9
$ELEVATION
 40
0.0
  9
$PELEVATION
 40
0.0
  9
$THICKNESS
 40
0.0
  9
$LIMCHECK
 70
     0
  9
$BLIPMODE
 70
     0
  9
$CHAMFERA
 40
0.0
  9
$CHAMFERB
 40
0.0
  9
$SKPOLY
 70
     0
  9
$TDCREATE
 40
2451961.7115277778357267
  9
$TDUPDATE
 40
2460580.5714351860806346
  9
$TDINDWG
 40
0.2047368866
  9
$TDUSRTIMER
 40
2456598.1662127431482077
  9
$USRTIMER
 70
     1
  9
$ANGBASE
 50
0.0
  9
$ANGDIR
 70
     0
  9
$PDMODE
 70
     0
  9
$PDSIZE
 40
0.0
  9
$PLINEWID
 40
0.0
  9
$COORDS
 70
     1
  9
$SPLFRAME
 70
     0
  9
$SPLINETYPE
 70
     6
  9
$SPLINESEGS
 70
     8
  9
$ATTDIA
 70
     1
  9
$ATTREQ
 70
     1
  9
$HANDLING
 70
     1
  9
$HANDSEED
  5
2DA
  9
$SURFTAB1
 70
     6
  9
$SURFTAB2
 70
     6
  9
$SURFTYPE
 70
     6
  9
$SURFU
 70
     6
  9
$SURFV
 70
     6
  9
$UCSNAME
  2

  9
$UCSORG
 10
0.0
 20
0.0
 30
0.0
  9
$UCSXDIR
 10
1.0
 20
0.0
 30
0.0
  9
$UCSYDIR
 10
0.0
 20
1.0
 30
0.0
  9
$PUCSNAME
  2

  9
$PUCSORG
 10
0.0
 20
0.0
 30
0.0
  9
$PUCSXDIR
 10
1.0
 20
0.0
 30
0.0
  9
$PUCSYDIR
 10
0.0
 20
1.0
 30
0.0
  9
$USERI1
 70
     4
  9
$USERI2
 70
     1
  9
$USERI3
 70
     0
  9
$USERI4
 70
     0
  9
$USERI5
 70
     0
  9
$USERR1
 40
1.0
  9
$USERR2
 40
3.0
  9
$USERR3
 40
3.0
  9
$USERR4
 40
3.0
  9
$USERR5
 40
10.0
  9
$WORLDVIEW
 70
     1
  9
$SHADEDGE
 70
     3
  9
$SHADEDIF
 70
    70
  9
$TILEMODE
 70
     1
  9
$MAXACTVP
 70
    16
  9
$PLIMCHECK
 70
     0
  9
$PEXTMIN
 10
1.0000000000000000E+20
 20
1.0000000000000000E+20
 30
1.0000000000000000E+20
  9
$PEXTMAX
 10
-1.0000000000000000E+20
 20
-1.0000000000000000E+20
 30
-1.0000000000000000E+20
  9
$PLIMMIN
 10
0.0
 20
0.0
  9
$PLIMMAX
 10
12.0
 20
9.0
  9
$UNITMODE
 70
     0
  9
$VISRETAIN
 70
     0
  9
$PLINEGEN
 70
     0
  9
$PSLTSCALE
 70
     0
  0
ENDSEC
  0
SECTION
  2
TABLES
  0
TABLE
  2
VPORT
 70
     1
  0
VPORT
  2
*ACTIVE
 70
     0
 10
0.0
 20
0.0
 11
1.0
 21
1.0
 12
211.3669950738915873
 22
90.0
 13
0.0
 23
0.0
 14
10.0
 24
10.0
 15
10.0
 25
10.0
 16
0.0
 26
0.0
 36
1.0
 17
0.0
 27
0.0
 37
0.0
 40
180.0
 41
2.3485221674876842
 42
50.0
 43
0.0
 44
0.0
 50
0.0
 51
0.0
 71
    16
 72
   100
 73
     1
 74
     0
 75
     0
 76
     0
 77
     0
 78
     0
  0
ENDTAB
  0
TABLE
  2
LTYPE
 70
     3
  0
LTYPE
  2
CONTINUOUS
 70
     0
  3
Solid Line
 72
    65
 73
     0
 40
0.0
  0
LTYPE
  2
CENTER
 70
     0
  3
____ _ ____ _ ____ _ ____ _ ____ _ ____ _ ____
 72
    65
 73
     4
 40
2.0
 49
1.25
 49
-0.25
 49
0.25
 49
-0.25
  0
LTYPE
  2
HIDDEN
 70
     0
  3
Hidden __ __ __ __ __ __ __ __ __ __ __ __ __ __
 72
    65
 73
     2
 40
1.905
 49
1.27
 49
-0.635
  0
ENDTAB
  0
TABLE
  2
LAYER
 70
     4
  0
LAYER
  2
0
 70
     0
 62
     7
  6
CONTINUOUS
  0
LAYER
  2
1
 70
     0
 62
     1
  6
CENTER
  0
LAYER
  2
3
 70
     0
 62
     3
  6
CONTINUOUS
  0
LAYER
  2
2
 70
     0
 62
     2
  6
HIDDEN
  0
ENDTAB
  0
TABLE
  2
STYLE
 70
     2
  0
STYLE
  2
STANDARD
 70
     0
 40
0.0
 41
1.0
 50
0.0
 71
     0
 42
0.2
  3
SIMPLEX
  4
BIGFONT
  0
STYLE
  2
STANDARD1
 70
     0
 40
0.0
 41
1.0
 50
0.0
 71
     0
 42
3.0
  3
txt
  4

  0
ENDTAB
  0
TABLE
  2
VIEW
 70
     0
  0
ENDTAB
  0
TABLE
  2
UCS
 70
     0
  0
ENDTAB
  0
TABLE
  2
APPID
 70
     7
  0
APPID
  2
ACAD
 70
     0
  0
APPID
  2
ACAD_NAV_VCDISPLAY
 70
     0
  0
APPID
  2
ACAECLAYERSTANDARD
 70
     0
  0
APPID
  2
ACCMTRANSPARENCY
 70
     0
  0
APPID
  2
ACAD_TC
 70
     0
  0
APPID
  2
ACAD_EXEMPT_FROM_CAD_STANDARDS
 70
     0
  0
APPID
  2
ACAD_MLEADERVER
 70
     0
  0
ENDTAB
  0
TABLE
  2
DIMSTYLE
 70
     1
  0
DIMSTYLE
  2
STANDARD
 70
     0
  3

  4

  5

  6

  7

 40
1.0
 41
0.18
 42
0.0625
 43
0.38
 44
0.18
 45
0.0
 46
0.0
 47
0.0
 48
0.0
140
0.18
141
0.09
142
0.0
143
25.3999999999999986
144
1.0
145
0.0
146
1.0
147
0.09
 71
     0
 72
     0
 73
     1
 74
     1
 75
     0
 76
     0
 77
     0
 78
     0
170
     0
171
     2
172
     0
173
     0
174
     0
175
     0
176
     0
177
     0
178
     0
  0
ENDTAB
  0
ENDSEC
  0
SECTION
  2
BLOCKS
  0
BLOCK
  8
0
  2
$MODEL_SPACE
 70
     0
 10
0.0
 20
0.0
 30
0.0
  3
$MODEL_SPACE
  1

  0
ENDBLK
  5
F
  8
0
  0
BLOCK
 67
     1
  8
0
  2
$PAPER_SPACE
 70
     0
 10
0.0
 20
0.0
 30
0.0
  3
$PAPER_SPACE
  1

  0
ENDBLK
  5
14
 67
     1
  8
0
  0
ENDSEC
  0
SECTION
  2
ENTITIES
  0
LINE
  5
59
  8
0
 10
16.5
 20
65.4443375672973957
 30
0.0
 11
16.75
 21
65.3000000000000114
 31
0.0
  0
LINE
  5
5A
  8
0
 10
33.25
 20
65.3000000000000114
 30
0.0
 11
33.5
 21
65.4443375672973957
 31
0.0
  0
LINE
  5
5B
  8
0
 10
33.5
 20
73.155662432702627
 30
0.0
 11
33.25
 21
73.3000000000000114
 31
0.0
  0
LINE
  5
5C
  8
0
 10
16.75
 20
73.3000000000000114
 30
0.0
 11
16.5
 21
73.155662432702627
 31
0.0
  0
ARC
  5
5D
  8
0
 10
25.0
 20
43.0500000000000114
 30
0.0
 40
7.0000000000000497
 50
135.5846914028057029
 51
161.2506591529819957
  0
ARC
  5
5E
  8
0
 10
25.0
 20
43.0500000000000114
 30
0.0
 40
7.0000000000000453
 50
18.7493408470180185
 51
44.4153085971941906
  0
LINE
  5
5F
  8
0
 10
30.0
 20
97.3799999999999386
 30
0.0
 11
29.0799999999999983
 21
98.3000000000000114
 31
0.0
  0
LINE
  5
60
  8
0
 10
20.9200000000000017
 20
98.3000000000000114
 30
0.0
 11
20.0000000000000107
 21
97.3799999999999386
 31
0.0
  0
LINE
  5
61
  8
0
 10
30.0
 20
55.3000000000000114
 30
0.0
 11
30.0
 21
65.3000000000000114
 31
0.0
  0
LINE
  5
62
  8
0
 10
30.0
 20
73.3000000000000114
 30
0.0
 11
30.0
 21
97.3799999999999386
 31
0.0
  0
LINE
  5
63
  8
0
 10
20.0
 20
97.3799999999999386
 30
0.0
 11
20.0
 21
73.3000000000000114
 31
0.0
  0
LINE
  5
64
  8
0
 10
20.0
 20
65.3000000000000114
 30
0.0
 11
20.0
 21
55.3000000000000114
 31
0.0
  0
LINE
  5
65
  8
0
 10
30.0
 20
47.9489794855663192
 30
0.0
 11
30.0
 21
51.5500000000000114
 31
0.0
  0
LINE
  5
66
  8
0
 10
20.0
 20
51.5500000000000114
 30
0.0
 11
20.0
 21
47.9489794855663192
 31
0.0
  0
LINE
  5
67
  8
0
 10
41.0
 20
30.8300000000000409
 30
0.0
 11
41.0
 21
35.3000000000001322
 31
0.0
  0
LINE
  5
68
  8
0
 10
8.9999999999999964
 20
35.3000000000001322
 30
0.0
 11
8.9999999999999964
 21
30.8300000000000409
 31
0.0
  0
LINE
  5
69
  8
0
 10
8.9999999999999964
 20
30.8300000000000409
 30
0.0
 11
9.5300000000000011
 21
30.3000000000000114
 31
0.0
  0
LINE
  5
6A
  8
0
 10
40.4699999999999918
 20
30.3000000000000114
 30
0.0
 11
41.0
 21
30.8300000000000409
 31
0.0
  0
LINE
  5
6B
  8
0
 10
40.9999999999999716
 20
35.3000000000001322
 30
0.0
 11
36.2000000000000028
 21
40.3000000000000114
 31
0.0
  0
LINE
  5
6C
  8
0
 10
13.7999999999999901
 20
40.3000000000000114
 30
0.0
 11
9.0000000000000213
 21
35.3000000000001322
 31
0.0
  0
LINE
  5
6D
  8
0
 10
36.5499999999999972
 20
25.0
 30
0.0
 11
36.5499999999999972
 21
30.3000000000000114
 31
0.0
  0
LINE
  5
6E
  8
0
 10
13.4499999999999993
 20
30.3000000000000114
 30
0.0
 11
13.4499999999999993
 21
25.0
 31
0.0
  0
LINE
  5
6F
  8
0
 10
36.1999999999999886
 20
40.3000000000000114
 30
0.0
 11
35.3183650964576614
 21
45.3000000000000114
 31
0.0
  0
LINE
  5
70
  8
0
 10
14.6816349035423404
 20
45.3000000000000114
 30
0.0
 11
13.8000000000000007
 21
40.3000000000000114
 31
0.0
  0
LINE
  5
71
  8
0
 10
33.25
 20
65.3000000000000114
 30
0.0
 11
16.75
 21
65.3000000000000114
 31
0.0
  0
LINE
  5
72
  8
0
 10
25.0000000000000107
 20
72.3964730541477337
 30
0.0
 11
25.0000000000000107
 21
66.2035269458522748
 31
0.0
  0
LINE
  5
73
  8
0
 10
33.5
 20
73.155662432702627
 30
0.0
 11
33.5
 21
65.4443375672973957
 31
0.0
  0
LINE
  5
74
  8
0
 10
16.5
 20
73.155662432702627
 30
0.0
 11
16.5
 21
65.4443375672973957
 31
0.0
  0
LINE
  5
75
  8
0
 10
16.75
 20
73.3000000000000114
 30
0.0
 11
33.25
 21
73.3000000000000114
 31
0.0
  0
LINE
  5
76
  8
0
 10
25.0
 20
52.1752147823393102
 30
0.0
 11
25.0
 21
54.6747852176607125
 31
0.0
  0
LINE
  5
77
  8
0
 10
18.0
 20
51.5500000000000114
 30
0.0
 11
18.0
 21
55.3000000000000114
 31
0.0
  0
LINE
  5
78
  8
0
 10
32.0000000000000071
 20
51.5500000000000114
 30
0.0
 11
32.0000000000000071
 21
55.3000000000000114
 31
0.0
  0
LINE
  5
79
  8
0
 10
20.0
 20
47.9489794855663192
 30
0.0
 11
30.0
 21
47.9489794855663192
 31
0.0
  0
LINE
  5
7A
  8
0
 10
32.0000000000000071
 20
55.3000000000000114
 30
0.0
 11
18.0
 21
55.3000000000000114
 31
0.0
  0
LINE
  5
7B
  8
0
 10
32.0000000000000071
 20
51.5500000000000114
 30
0.0
 11
18.0
 21
51.5500000000000114
 31
0.0
  0
LINE
  5
7C
  8
0
 10
29.0799999999999983
 20
98.3000000000000114
 30
0.0
 11
20.9200000000000017
 21
98.3000000000000114
 31
0.0
  0
LINE
  5
7D
  8
0
 10
30.0
 20
97.3799999999999386
 30
0.0
 11
20.0
 21
97.3799999999999386
 31
0.0
  0
LINE
  5
7E
  8
0
 10
40.4699999999999918
 20
30.3000000000000114
 30
0.0
 11
9.5300000000000011
 21
30.3000000000000114
 31
0.0
  0
LINE
  5
7F
  8
0
 10
36.5499999999999901
 20
25.0
 30
0.0
 11
13.4500000000000099
 21
25.0
 31
0.0
  0
LINE
  5
80
  8
0
 10
35.3183650964576614
 20
45.3000000000000114
 30
0.0
 11
14.6816349035423404
 21
45.3000000000000114
 31
0.0
  0
LINE
  5
81
  8
0
 10
90.1850454237766144
 20
66.2035269458522748
 30
0.0
 11
91.7500000000002274
 21
65.3000000000000114
 31
0.0
  0
LINE
  5
82
  8
0
 10
108.250000000000199
 20
65.3000000000000114
 30
0.0
 11
109.8149545762238972
 21
66.2035269458522748
 31
0.0
  0
LINE
  5
83
  8
0
 10
109.8149545762237977
 20
72.3964730541477337
 30
0.0
 11
108.250000000000199
 21
73.3000000000000114
 31
0.0
  0
LINE
  5
84
  8
0
 10
91.7500000000002274
 20
73.3000000000000114
 30
0.0
 11
90.1850454237766144
 21
72.3964730541477337
 31
0.0
  0
ARC
  5
85
  8
0
 10
100.0000000000000995
 20
43.0500000000000114
 30
0.0
 40
7.0000000000000213
 50
135.5846914028064134
 51
161.2506591529819957
  0
ARC
  5
86
  8
0
 10
100.0000000000000995
 20
43.0500000000000114
 30
0.0
 40
7.0000000000000302
 50
18.7493408470180185
 51
44.4153085971942616
  0
LINE
  5
87
  8
0
 10
105.0000000000000995
 20
55.3000000000000114
 30
0.0
 11
105.0000000000000995
 21
65.3000000000000114
 31
0.0
  0
LINE
  5
88
  8
0
 10
105.0
 20
73.3000000000000114
 30
0.0
 11
105.0
 21
97.3799999999999386
 31
0.0
  0
LINE
  5
89
  8
0
 10
95.0
 20
97.3799999999999386
 30
0.0
 11
95.0000000000000853
 21
73.3000000000000114
 31
0.0
  0
LINE
  5
8A
  8
0
 10
95.0000000000001137
 20
65.3000000000000114
 30
0.0
 11
95.0000000000001421
 21
55.3000000000000114
 31
0.0
  0
LINE
  5
8B
  8
0
 10
105.0
 20
97.3799999999999386
 30
0.0
 11
104.0799999999999983
 21
98.3000000000000114
 31
0.0
  0
LINE
  5
8C
  8
0
 10
95.9199999999999733
 20
98.3000000000000114
 30
0.0
 11
95.0
 21
97.3799999999999386
 31
0.0
  0
LINE
  5
8D
  8
0
 10
105.0000000000000995
 20
47.9489794855663192
 30
0.0
 11
105.0000000000000995
 21
51.5500000000000114
 31
0.0
  0
LINE
  5
8E
  8
0
 10
95.0000000000001421
 20
51.5500000000000114
 30
0.0
 11
95.0000000000001705
 21
47.9489794855663192
 31
0.0
  0
LINE
  5
8F
  8
0
 10
107.0000000000000995
 20
51.5500000000000114
 30
0.0
 11
108.0829037686549015
 21
52.1752147823393102
 31
0.0
  0
LINE
  5
90
  8
0
 10
108.0829037686549015
 20
54.6747852176607125
 30
0.0
 11
107.0000000000000995
 21
55.3000000000000114
 31
0.0
  0
LINE
  5
91
  8
0
 10
91.917096231345397
 20
52.1752147823393102
 30
0.0
 11
93.0000000000001421
 21
51.5500000000000114
 31
0.0
  0
LINE
  5
92
  8
0
 10
93.0000000000001421
 20
55.3000000000000114
 30
0.0
 11
91.9170962313453686
 21
54.6747852176607125
 31
0.0
  0
LINE
  5
93
  8
0
 10
116.000000000000199
 20
30.8300000000000409
 30
0.0
 11
116.000000000000199
 21
35.3000000000000114
 31
0.0
  0
LINE
  5
94
  8
0
 10
84.0000000000001847
 20
35.2999999999998977
 30
0.0
 11
84.0000000000002274
 21
30.8299999999999308
 31
0.0
  0
LINE
  5
95
  8
0
 10
84.0000000000002274
 20
30.8299999999999308
 30
0.0
 11
84.5300000000002143
 21
30.2999999999999616
 31
0.0
  0
LINE
  5
96
  8
0
 10
115.4700000000001978
 20
30.3000000000000718
 30
0.0
 11
116.000000000000199
 21
30.8300000000000409
 31
0.0
  0
LINE
  5
97
  8
0
 10
116.000000000000199
 20
35.3000000000000114
 30
0.0
 11
111.2000000000002018
 21
40.3000000000000114
 31
0.0
  0
LINE
  5
98
  8
0
 10
88.8000000000001819
 20
40.2999999999998906
 30
0.0
 11
84.0000000000002274
 21
35.2999999999998977
 31
0.0
  0
LINE
  5
99
  8
0
 10
111.5500000000001961
 20
25.0
 30
0.0
 11
111.5500000000001961
 21
30.3000000000000718
 31
0.0
  0
LINE
  5
9A
  8
0
 10
88.450000000000216
 20
30.2999999999999616
 30
0.0
 11
88.4500000000002444
 21
24.9999999999999503
 31
0.0
  0
LINE
  5
9B
  8
0
 10
111.2000000000002018
 20
40.3000000000000114
 30
0.0
 11
110.3183650964577964
 21
45.3000000000000114
 31
0.0
  0
LINE
  5
9C
  8
0
 10
89.6816349035425162
 20
45.3000000000000114
 30
0.0
 11
88.8000000000001819
 21
40.2999999999998906
 31
0.0
  0
LINE
  5
9D
  8
0
 10
108.250000000000199
 20
65.3000000000000114
 30
0.0
 11
91.7500000000002274
 21
65.3000000000000114
 31
0.0
  0
LINE
  5
9E
  8
0
 10
109.8149545762237977
 20
72.3964730541477337
 30
0.0
 11
109.8149545762238972
 21
66.2035269458522748
 31
0.0
  0
LINE
  5
9F
  8
0
 10
104.9074772881120055
 20
72.3964730541477337
 30
0.0
 11
104.9074772881120055
 21
66.2035269458522748
 31
0.0
  0
LINE
  5
A0
  8
0
 10
91.7500000000002274
 20
73.3000000000000114
 30
0.0
 11
108.250000000000199
 21
73.3000000000000114
 31
0.0
  0
LINE
  5
A1
  8
0
 10
95.0925227118884209
 20
72.3964730541477337
 30
0.0
 11
95.0925227118884209
 21
66.2035269458522748
 31
0.0
  0
LINE
  5
A2
  8
0
 10
90.1850454237766144
 20
72.3964730541477337
 30
0.0
 11
90.1850454237766144
 21
66.2035269458522748
 31
0.0
  0
LINE
  5
A3
  8
0
 10
108.0829037686549015
 20
52.1752147823393102
 30
0.0
 11
108.0829037686549015
 21
54.6747852176607125
 31
0.0
  0
LINE
  5
A4
  8
0
 10
104.0414518843275005
 20
52.1752147823393102
 30
0.0
 11
104.0414518843275005
 21
54.6747852176607125
 31
0.0
  0
LINE
  5
A5
  8
0
 10
95.0000000000001705
 20
47.9489794855663192
 30
0.0
 11
105.0000000000000995
 21
47.9489794855663192
 31
0.0
  0
LINE
  5
A6
  8
0
 10
95.9585481156727553
 20
52.1752147823393102
 30
0.0
 11
95.9585481156727553
 21
54.6747852176607125
 31
0.0
  0
LINE
  5
A7
  8
0
 10
91.917096231345397
 20
52.1752147823393102
 30
0.0
 11
91.9170962313453686
 21
54.6747852176607125
 31
0.0
  0
LINE
  5
A8
  8
0
 10
105.0
 20
97.3799999999999386
 30
0.0
 11
95.0
 21
97.3799999999999386
 31
0.0
  0
LINE
  5
A9
  8
0
 10
104.0799999999999983
 20
98.3000000000000114
 30
0.0
 11
95.9199999999999733
 21
98.3000000000000114
 31
0.0
  0
LINE
  5
AA
  8
0
 10
107.0000000000000995
 20
51.5500000000000114
 30
0.0
 11
93.0000000000001421
 21
51.5500000000000114
 31
0.0
  0
LINE
  5
AB
  8
0
 10
107.0000000000000995
 20
55.3000000000000114
 30
0.0
 11
93.0000000000001421
 21
55.3000000000000114
 31
0.0
  0
LINE
  5
AC
  8
0
 10
115.4700000000001978
 20
30.3000000000000718
 30
0.0
 11
84.5300000000002143
 21
30.2999999999999616
 31
0.0
  0
LINE
  5
AD
  8
0
 10
111.5500000000001961
 20
25.0
 30
0.0
 11
88.4500000000002444
 21
24.9999999999999503
 31
0.0
  0
LINE
  5
AE
  8
0
 10
110.3183650964577964
 20
45.3000000000000114
 30
0.0
 11
89.6816349035425162
 21
45.3000000000000114
 31
0.0
  0
CIRCLE
  5
AF
  8
0
 10
25.0
 20
149.3000000000000966
 30
0.0
 40
8.25
  0
CIRCLE
  5
B6
  8
0
 10
25.0
 20
149.2999999999998124
 30
0.0
 40
5.0
  0
CIRCLE
  5
B7
  8
0
 10
25.0
 20
149.3000000000000114
 30
0.0
 40
10.3183650964576703
  0
CIRCLE
  5
B8
  8
0
 10
25.0
 20
149.3000000000000114
 30
0.0
 40
11.1999999999999904
  0
CIRCLE
  5
B9
  8
0
 10
25.0
 20
149.3000000000000114
 30
0.0
 40
16.0
  0
TEXT
  5
BA
  8
0
 62
     3
 10
0.0
 20
0.0
 30
0.0
 40
10.0
  1
LSVA32-M10X43
  7
STANDARD1
  0
LINE
  5
BC
  8
1
 10
24.9999999999999005
 20
22.0000000000000604
 30
0.0
 11
25.0
 21
101.2999999999999972
 31
0.0
  0
LINE
  5
C1
  8
2
 10
32.6499999999999133
 20
25.0
 30
0.0
 11
32.6499999999999133
 21
30.3000000000000114
 31
0.0
  0
LINE
  5
C6
  8
2
 10
17.3499999999999091
 20
25.0
 30
0.0
 11
17.3499999999999091
 21
30.3000000000000114
 31
0.0
  0
LINE
  5
C7
  8
2
 10
107.6500000000002046
 20
24.9999999999999503
 30
0.0
 11
107.6500000000002046
 21
30.2999999999999616
 31
0.0
  0
LINE
  5
C8
  8
2
 10
92.3500000000002643
 20
24.9999999999999503
 30
0.0
 11
92.3500000000002643
 21
30.2999999999999616
 31
0.0
  0
LINE
  5
C9
  8
1
 10
44.0
 20
149.2999999999996135
 30
0.0
 11
5.9999999999999956
 21
149.2999999999996135
 31
0.0
  0
LINE
  5
CA
  8
1
 10
25.0
 20
168.3000000000000114
 30
0.0
 11
25.0
 21
130.3000000000000114
 31
0.0
  0
CIRCLE
  5
CB
  8
3
 10
25.0
 20
149.2999999999996135
 30
0.0
 40
4.1879999999999971
  0
LINE
  5
CF
  8
3
 10
20.8119999999998804
 20
73.3000000000000114
 30
0.0
 11
20.811999999999891
 21
98.1919999999999504
 31
0.0
  0
LINE
  5
D0
  8
3
 10
29.1880000000000415
 20
73.3000000000001251
 30
0.0
 11
29.1880000000000415
 21
98.1919999999999504
 31
0.0
  0
LINE
  5
D1
  8
3
 10
29.1880000000000983
 20
57.300000000000118
 30
0.0
 11
30.0
 21
55.8935747442543018
 31
0.0
  0
LINE
  5
D2
  8
3
 10
20.8119999999999195
 20
57.300000000000118
 30
0.0
 11
19.9999999999999893
 21
55.8935747442543018
 31
0.0
  0
LINE
  5
D3
  8
0
 10
19.9999999999999893
 20
57.300000000000118
 30
0.0
 11
30.0000000000000213
 21
57.3000000000000114
 31
0.0
  0
LINE
  5
D4
  8
3
 10
20.8119999999999514
 20
57.300000000000118
 30
0.0
 11
20.8119999999999514
 21
65.3000000000000114
 31
0.0
  0
LINE
  5
D5
  8
3
 10
29.1880000000001303
 20
57.3000000000000114
 30
0.0
 11
29.1880000000001516
 21
65.3000000000000114
 31
0.0
  0
LINE
  5
D6
  8
0
 10
41.0
 20
35.3000000000001322
 30
0.0
 11
9.0000000000000213
 21
35.3000000000001322
 31
0.0
  0
LINE
  5
D7
  8
0
 10
13.8000000000000007
 20
40.3000000000000114
 30
0.0
 11
36.1999999999999886
 21
40.3000000000000114
 31
0.0
  0
ARC
  5
D8
  8
0
 10
21.4999999999999716
 20
45.190759238962471
 30
0.0
 40
10.1092407610375403
 50
69.7438419995834522
 51
110.2561580004165052
  0
ARC
  5
D9
  8
0
 10
28.5000000000000107
 20
45.1907592389622366
 30
0.0
 40
10.1092407610377695
 50
69.7438419995837364
 51
110.2561580004163062
  0
ARC
  5
DA
  8
0
 10
28.5000000000000107
 20
61.6592407610378928
 30
0.0
 40
10.1092407610378707
 50
249.7438419995837933
 51
290.2561580004161215
  0
ARC
  5
DB
  8
0
 10
21.5000000000001101
 20
61.6592407610384612
 30
0.0
 40
10.1092407610384498
 50
249.7438419995843049
 51
290.2561580004140751
  0
ARC
  5
DC
  8
0
 10
20.7500000000000107
 20
77.7218355317382361
 30
0.0
 40
12.2773748285085098
 50
249.7470594287503047
 51
290.2529405712494963
  0
ARC
  5
DD
  8
0
 10
29.2500000000000107
 20
77.7218355317380087
 30
0.0
 40
12.2773748285082895
 50
249.747059428750191
 51
290.2529405712498942
  0
ARC
  5
DE
  8
0
 10
29.2500000000052793
 20
60.8781644682914589
 30
0.0
 40
12.2773748284788393
 50
69.7470594287263168
 51
110.2529405709625934
  0
ARC
  5
DF
  8
0
 10
20.7499999999947384
 20
60.8781644682912315
 30
0.0
 40
12.2773748284790596
 50
69.747059428673893
 51
110.252940571273399
  0
LINE
  5
E0
  8
1
 10
99.9999999999998863
 20
22.0000000000000604
 30
0.0
 11
100.0
 21
101.2999999999999972
 31
0.0
  0
LINE
  5
E1
  8
3
 10
95.8119999999998555
 20
73.3000000000000114
 30
0.0
 11
95.8119999999998555
 21
98.1919999999999504
 31
0.0
  0
LINE
  5
E2
  8
3
 10
104.1880000000000024
 20
73.3000000000001251
 30
0.0
 11
104.1880000000000024
 21
98.1919999999999504
 31
0.0
  0
LINE
  5
E3
  8
3
 10
104.1880000000001019
 20
57.300000000000118
 30
0.0
 11
105.0
 21
55.8935747442543018
 31
0.0
  0
LINE
  5
E4
  8
3
 10
95.8119999999998981
 20
57.300000000000118
 30
0.0
 11
94.9999999999999858
 21
55.8935747442543018
 31
0.0
  0
LINE
  5
E5
  8
0
 10
94.9999999999999858
 20
57.300000000000118
 30
0.0
 11
105.0
 21
57.3000000000000114
 31
0.0
  0
LINE
  5
E6
  8
3
 10
95.8119999999999266
 20
57.300000000000118
 30
0.0
 11
95.8119999999999266
 21
65.3000000000000114
 31
0.0
  0
LINE
  5
E7
  8
3
 10
104.1880000000001019
 20
57.3000000000000114
 30
0.0
 11
104.1880000000001019
 21
65.3000000000000114
 31
0.0
  0
LINE
  5
E8
  8
0
 10
111.2000000000002018
 20
40.3000000000000114
 30
0.0
 11
88.8000000000001819
 21
40.2999999999998906
 31
0.0
  0
LINE
  5
E9
  8
0
 10
84.0000000000002274
 20
35.2999999999998977
 30
0.0
 11
116.000000000000199
 21
35.3000000000000114
 31
0.0
  0
ARC
  5
EA
  8
0
 10
92.6387840678325176
 20
68.8100591121018965
 30
0.0
 40
4.3454802147788181
 50
55.6209994696048966
 51
115.6209994696049961
  0
ARC
  5
EB
  8
0
 10
100.000000000000199
 20
56.9041246648628771
 30
0.0
 40
16.2510366422671915
 50
72.4234743875149576
 51
107.5765256124850993
  0
ARC
  5
EC
  8
0
 10
107.361215932167994
 20
68.8100591121021239
 30
0.0
 40
4.3454802147785738
 50
64.3790005303910533
 51
124.3790005303955013
  0
ARC
  5
ED
  8
0
 10
107.361215932167994
 20
69.7899408878982399
 30
0.0
 40
4.3454802147788962
 50
235.6209994696054082
 51
295.6209994696073977
  0
ARC
  5
EE
  8
0
 10
100.0000000000002984
 20
81.6967656029084281
 30
0.0
 40
16.2518853496396716
 50
252.42442218764279
 51
287.5755778123569257
  0
ARC
  5
EF
  8
0
 10
92.6387840678326597
 20
69.7899408878974441
 30
0.0
 40
4.3454802147781271
 50
244.379000530365488
 51
304.3790005303986845
  0
ARC
  5
F0
  8
0
 10
93.9378221735090335
 20
51.721848152207663
 30
0.0
 40
3.578151847792348
 50
55.6157525319564385
 51
115.6157525319565025
  0
ARC
  5
F1
  8
0
 10
93.9378221735090619
 20
55.1281518477922532
 30
0.0
 40
3.5781518477922458
 50
244.3842474680429007
 51
304.3842474680441796
  0
ARC
  5
F2
  8
0
 10
100.0000000000000995
 20
41.9252147823396513
 30
0.0
 40
13.3747852176603601
 50
72.4120462260056144
 51
107.5879537739943004
  0
ARC
  5
F3
  8
0
 10
100.0000000000000995
 20
64.9247852176602578
 30
0.0
 40
13.3747852176602393
 50
252.4120462260054865
 51
287.5879537739943999
  0
ARC
  5
F4
  8
0
 10
106.0621778264910944
 20
51.7218481522078832
 30
0.0
 40
3.578151847792348
 50
64.3842474680457428
 51
124.3842474680457002
  0
ARC
  5
F5
  8
0
 10
106.0621778264908954
 20
55.1281518477924806
 30
0.0
 40
3.5781518477922458
 50
235.6157525319597994
 51
295.6157525319600268
  0
POLYLINE
  5
130
  8
0
 66
     1
 10
0.0
 20
0.0
 30
0.0
  0
VERTEX
  5
19C
  8
0
 10
16.5
 20
144.3925227118882049
 30
0.0
  0
VERTEX
  5
19D
  8
0
 10
16.6571227503567414
 20
144.3018078496739065
 30
0.0
  0
VERTEX
  5
19E
  8
0
 10
16.8143064039578611
 20
144.2110578249551054
 30
0.0
  0
VERTEX
  5
19F
  8
0
 10
16.9716118640476701
 20
144.1202374752272988
 30
0.0
  0
VERTEX
  5
1A0
  8
0
 10
17.1291000338705715
 20
144.0293116379858134
 30
0.0
  0
VERTEX
  5
1A1
  8
0
 10
17.28683181667094
 20
143.9382451507262886
 30
0.0
  0
VERTEX
  5
1A2
  8
0
 10
17.4448681156930903
 20
143.8470028509441079
 30
0.0
  0
VERTEX
  5
1A3
  8
0
 10
17.6032698341813898
 20
143.755549576134797
 30
0.0
  0
VERTEX
  5
1A4
  8
0
 10
17.7620842672767196
 20
143.6638580204360096
 30
0.0
  0
VERTEX
  5
1A5
  8
0
 10
17.9213022521881307
 20
143.571933473987599
 30
0.0
  0
VERTEX
  5
1A6
  8
0
 10
18.0808999865605493
 20
143.4797896790855987
 30
0.0
  0
VERTEX
  5
1A7
  8
0
 10
18.2408536680133899
 20
143.3874403780409068
 30
0.0
  0
VERTEX
  5
1A8
  8
0
 10
18.4011394941660491
 20
143.2948993131643931
 30
0.0
  0
VERTEX
  5
1A9
  8
0
 10
18.5617336626379803
 20
143.2021802267668988
 30
0.0
  0
VERTEX
  5
1AA
  8
0
 10
18.7226123710486014
 20
143.1092968611590948
 30
0.0
  0
VERTEX
  5
1AB
  8
0
 10
18.8837530403373606
 20
143.0162622523677953
 30
0.0
  0
VERTEX
  5
1AC
  8
0
 10
19.0451383245247712
 20
142.923086415098993
 30
0.0
  0
VERTEX
  5
1AD
  8
0
 10
19.2067522766692207
 20
142.8297785563235891
 30
0.0
  0
VERTEX
  5
1AE
  8
0
 10
19.3685789498436485
 20
142.7363478830042993
 30
0.0
  0
VERTEX
  5
1AF
  8
0
 10
19.5306023971210685
 20
142.6428036021036974
 30
0.0
  0
VERTEX
  5
1B0
  8
0
 10
19.6928066715744592
 20
142.5491549205843
 30
0.0
  0
VERTEX
  5
1B1
  8
0
 10
19.8551758262768203
 20
142.4554110454087947
 30
0.0
  0
VERTEX
  5
1B2
  8
0
 10
20.0176928437603614
 20
142.3615818016168078
 30
0.0
  0
VERTEX
  5
1B3
  8
0
 10
20.1803330587134795
 20
142.2676814297325905
 30
0.0
  0
VERTEX
  5
1B4
  8
0
 10
20.3430684787291511
 20
142.1737260911799012
 30
0.0
  0
VERTEX
  5
1B5
  8
0
 10
20.5058710977475087
 20
142.0797319552648901
 30
0.0
  0
VERTEX
  5
1B6
  8
0
 10
20.66871290970861
 20
141.9857151912937923
 30
0.0
  0
VERTEX
  5
1B7
  8
0
 10
20.8315659085525589
 20
141.8916919685728999
 30
0.0
  0
VERTEX
  5
1B8
  8
0
 10
20.9944020882194593
 20
141.7976784564083914
 30
0.0
  0
VERTEX
  5
1B9
  8
0
 10
21.1571936095696209
 20
141.703690727734994
 30
0.0
  0
VERTEX
  5
1BA
  8
0
 10
21.3199147356804417
 20
141.6097436417720985
 30
0.0
  0
VERTEX
  5
1BB
  8
0
 10
21.4825411668869108
 20
141.5158512279377021
 30
0.0
  0
VERTEX
  5
1BC
  8
0
 10
21.6450486313946193
 20
141.4220274995589079
 30
0.0
  0
VERTEX
  5
1BD
  8
0
 10
21.8074128574092185
 20
141.3282864699625918
 30
0.0
  0
VERTEX
  5
1BE
  8
0
 10
21.9696095731362711
 20
141.2346421524759137
 30
0.0
  0
VERTEX
  5
1BF
  8
0
 10
22.1316148274933084
 20
141.1411083752626894
 30
0.0
  0
VERTEX
  5
1C0
  8
0
 10
22.2934108313232286
 20
141.0476954088977095
 30
0.0
  0
VERTEX
  5
1C1
  8
0
 10
22.4549853498432697
 20
140.954410317135995
 30
0.0
  0
VERTEX
  5
1C2
  8
0
 10
22.616326347061829
 20
140.8612600489605029
 30
0.0
  0
VERTEX
  5
1C3
  8
0
 10
22.777421786987329
 20
140.768251553354304
 30
0.0
  0
VERTEX
  5
1C4
  8
0
 10
22.9382596336281814
 20
140.6753917793002984
 30
0.0
  0
VERTEX
  5
1C5
  8
0
 10
23.0988276823779586
 20
140.5826877731313971
 30
0.0
  0
VERTEX
  5
1C6
  8
0
 10
23.2591083120422404
 20
140.4901497084489108
 30
0.0
  0
VERTEX
  5
1C7
  8
0
 10
23.4190774607789685
 20
140.397791477363711
 30
0.0
  0
VERTEX
  5
1C8
  8
0
 10
23.5787106913921605
 20
140.3056271886975139
 30
0.0
  0
VERTEX
  5
1C9
  8
0
 10
23.7379835666858696
 20
140.2136709512720927
 30
0.0
  0
VERTEX
  5
1CA
  8
0
 10
23.8968716494642095
 20
140.121936873908993
 30
0.0
  0
VERTEX
  5
1CB
  8
0
 10
24.055350662479789
 20
140.0304389730835055
 30
0.0
  0
VERTEX
  5
1CC
  8
0
 10
24.2134237584375391
 20
139.939175428580711
 30
0.0
  0
VERTEX
  5
1CD
  8
0
 10
24.3711523781929102
 20
139.8481107675060002
 30
0.0
  0
VERTEX
  5
1CE
  8
0
 10
24.5286054169863483
 20
139.7572052131739042
 30
0.0
  0
VERTEX
  5
1CF
  8
0
 10
24.685851770058381
 20
139.6664189888986982
 30
0.0
  0
VERTEX
  5
1D0
  8
0
 10
24.8429603326494295
 20
139.5757123179947996
 30
0.0
  0
VERTEX
  5
1D1
  8
0
 10
25.0
 20
139.4850454237765121
 30
0.0
  0
SEQEND
  5
1D2
  8
0
  0
POLYLINE
  5
131
  8
0
 66
     1
 10
0.0
 20
0.0
 30
0.0
  0
VERTEX
  5
1D3
  8
0
 10
33.5
 20
144.3925227118882049
 30
0.0
  0
VERTEX
  5
1D4
  8
0
 10
33.3428772496432728
 20
144.3018078496739065
 30
0.0
  0
VERTEX
  5
1D5
  8
0
 10
33.1856935960421424
 20
144.2110578249551054
 30
0.0
  0
VERTEX
  5
1D6
  8
0
 10
33.0283881359523335
 20
144.1202374752272988
 30
0.0
  0
VERTEX
  5
1D7
  8
0
 10
32.8708999661294001
 20
144.0293116379858134
 30
0.0
  0
VERTEX
  5
1D8
  8
0
 10
32.71316818332906
 20
143.9382451507262886
 30
0.0
  0
VERTEX
  5
1D9
  8
0
 10
32.5551318843069168
 20
143.8470028509441079
 30
0.0
  0
VERTEX
  5
1DA
  8
0
 10
32.3967301658185818
 20
143.755549576134797
 30
0.0
  0
VERTEX
  5
1DB
  8
0
 10
32.2379157327232519
 20
143.6638580204360096
 30
0.0
  0
VERTEX
  5
1DC
  8
0
 10
32.0786977478118516
 20
143.571933473987599
 30
0.0
  0
VERTEX
  5
1DD
  8
0
 10
31.9191000134394187
 20
143.4797896790857124
 30
0.0
  0
VERTEX
  5
1DE
  8
0
 10
31.7591463319866207
 20
143.3874403780409921
 30
0.0
  0
VERTEX
  5
1DF
  8
0
 10
31.5988605058339296
 20
143.2948993131645068
 30
0.0
  0
VERTEX
  5
1E0
  8
0
 10
31.4382663373619984
 20
143.2021802267668988
 30
0.0
  0
VERTEX
  5
1E1
  8
0
 10
31.2773876289514092
 20
143.1092968611592084
 30
0.0
  0
VERTEX
  5
1E2
  8
0
 10
31.1162469596626501
 20
143.016262252367909
 30
0.0
  0
VERTEX
  5
1E3
  8
0
 10
30.9548616754752395
 20
142.9230864150991067
 30
0.0
  0
VERTEX
  5
1E4
  8
0
 10
30.7932477233307793
 20
142.8297785563237028
 30
0.0
  0
VERTEX
  5
1E5
  8
0
 10
30.6314210501563515
 20
142.7363478830042993
 30
0.0
  0
VERTEX
  5
1E6
  8
0
 10
30.4693976028789315
 20
142.6428036021036974
 30
0.0
  0
VERTEX
  5
1E7
  8
0
 10
30.3071933284255515
 20
142.5491549205843
 30
0.0
  0
VERTEX
  5
1E8
  8
0
 10
30.1448241737231903
 20
142.4554110454087947
 30
0.0
  0
VERTEX
  5
1E9
  8
0
 10
29.9823071562396493
 20
142.3615818016168078
 30
0.0
  0
VERTEX
  5
1EA
  8
0
 10
29.8196669412865312
 20
142.2676814297325905
 30
0.0
  0
VERTEX
  5
1EB
  8
0
 10
29.6569315212708489
 20
142.1737260911797875
 30
0.0
  0
VERTEX
  5
1EC
  8
0
 10
29.4941289022524984
 20
142.0797319552648048
 30
0.0
  0
VERTEX
  5
1ED
  8
0
 10
29.3312870902914007
 20
141.985715191293707
 30
0.0
  0
VERTEX
  5
1EE
  8
0
 10
29.1684340914474411
 20
141.8916919685727862
 30
0.0
  0
VERTEX
  5
1EF
  8
0
 10
29.0055979117805407
 20
141.7976784564083914
 30
0.0
  0
VERTEX
  5
1F0
  8
0
 10
28.8428063904303897
 20
141.703690727734994
 30
0.0
  0
VERTEX
  5
1F1
  8
0
 10
28.6800852643195583
 20
141.6097436417720985
 30
0.0
  0
VERTEX
  5
1F2
  8
0
 10
28.5174588331130998
 20
141.5158512279377021
 30
0.0
  0
VERTEX
  5
1F3
  8
0
 10
28.3549513686053913
 20
141.4220274995589079
 30
0.0
  0
VERTEX
  5
1F4
  8
0
 10
28.1925871425907886
 20
141.3282864699625918
 30
0.0
  0
VERTEX
  5
1F5
  8
0
 10
28.0303904268637289
 20
141.2346421524759137
 30
0.0
  0
VERTEX
  5
1F6
  8
0
 10
27.8683851725066702
 20
141.1411083752626894
 30
0.0
  0
VERTEX
  5
1F7
  8
0
 10
27.70658916867675
 20
141.0476954088977095
 30
0.0
  0
VERTEX
  5
1F8
  8
0
 10
27.545014650156709
 20
140.954410317135995
 30
0.0
  0
VERTEX
  5
1F9
  8
0
 10
27.3836736529381497
 20
140.8612600489605029
 30
0.0
  0
VERTEX
  5
1FA
  8
0
 10
27.2225782130126213
 20
140.768251553354304
 30
0.0
  0
VERTEX
  5
1FB
  8
0
 10
27.0617403663717688
 20
140.6753917793002984
 30
0.0
  0
VERTEX
  5
1FC
  8
0
 10
26.9011723176220201
 20
140.5826877731313971
 30
0.0
  0
VERTEX
  5
1FD
  8
0
 10
26.740891687957749
 20
140.4901497084489108
 30
0.0
  0
VERTEX
  5
1FE
  8
0
 10
26.5809225392210386
 20
140.397791477363711
 30
0.0
  0
VERTEX
  5
1FF
  8
0
 10
26.4212893086078395
 20
140.3056271886975139
 30
0.0
  0
VERTEX
  5
200
  8
0
 10
26.2620164333141091
 20
140.2136709512720927
 30
0.0
  0
VERTEX
  5
201
  8
0
 10
26.1031283505358012
 20
140.121936873908993
 30
0.0
  0
VERTEX
  5
202
  8
0
 10
25.94464933752025
 20
140.0304389730835055
 30
0.0
  0
VERTEX
  5
203
  8
0
 10
25.7865762415624999
 20
139.939175428580711
 30
0.0
  0
VERTEX
  5
204
  8
0
 10
25.6288476218071288
 20
139.8481107675060002
 30
0.0
  0
VERTEX
  5
205
  8
0
 10
25.4713945830136801
 20
139.7572052131739042
 30
0.0
  0
VERTEX
  5
206
  8
0
 10
25.31414822994169
 20
139.6664189888986982
 30
0.0
  0
VERTEX
  5
207
  8
0
 10
25.1570396673506096
 20
139.5757123179947996
 30
0.0
  0
VERTEX
  5
208
  8
0
 10
25.0000000000000284
 20
139.4850454237765121
 30
0.0
  0
SEQEND
  5
209
  8
0
  0
POLYLINE
  5
132
  8
0
 66
     1
 10
0.0
 20
0.0
 30
0.0
  0
VERTEX
  5
20A
  8
0
 10
33.5
 20
144.3925227118882049
 30
0.0
  0
VERTEX
  5
20B
  8
0
 10
33.5
 20
144.5970256942457866
 30
0.0
  0
VERTEX
  5
20C
  8
0
 10
33.5
 20
144.8016384518473103
 30
0.0
  0
VERTEX
  5
20D
  8
0
 10
33.5
 20
145.0064707599370024
 30
0.0
  0
VERTEX
  5
20E
  8
0
 10
33.5
 20
145.2116323937588049
 30
0.0
  0
VERTEX
  5
20F
  8
0
 10
33.5
 20
145.4172331285568021
 30
0.0
  0
VERTEX
  5
210
  8
0
 10
33.5
 20
145.6233823704866097
 30
0.0
  0
VERTEX
  5
211
  8
0
 10
33.5
 20
145.8301424018902139
 30
0.0
  0
VERTEX
  5
212
  8
0
 10
33.5
 20
146.0374826274502027
 30
0.0
  0
VERTEX
  5
213
  8
0
 10
33.5
 20
146.2453615890559036
 30
0.0
  0
VERTEX
  5
214
  8
0
 10
33.5
 20
146.453737828596303
 30
0.0
  0
VERTEX
  5
215
  8
0
 10
33.5
 20
146.6625698879605864
 30
0.0
  0
VERTEX
  5
216
  8
0
 10
33.5
 20
146.8718164802475883
 30
0.0
  0
VERTEX
  5
217
  8
0
 10
33.5
 20
147.0814448489828976
 30
0.0
  0
VERTEX
  5
218
  8
0
 10
33.5
 20
147.2914345449628968
 30
0.0
  0
VERTEX
  5
219
  8
0
 10
33.5
 20
147.5017660775222055
 30
0.0
  0
VERTEX
  5
21A
  8
0
 10
33.5
 20
147.7124199559956992
 30
0.0
  0
VERTEX
  5
21B
  8
0
 10
33.5
 20
147.9233766897183102
 30
0.0
  0
VERTEX
  5
21C
  8
0
 10
33.5
 20
148.134616263230896
 30
0.0
  0
VERTEX
  5
21D
  8
0
 10
33.5
 20
148.3461052060245038
 30
0.0
  0
VERTEX
  5
21E
  8
0
 10
33.5
 20
148.5577957750456903
 30
0.0
  0
VERTEX
  5
21F
  8
0
 10
33.5
 20
148.7696395387702921
 30
0.0
  0
VERTEX
  5
220
  8
0
 10
33.5
 20
148.9815880656740035
 30
0.0
  0
VERTEX
  5
221
  8
0
 10
33.5
 20
149.193592924232604
 30
0.0
  0
VERTEX
  5
222
  8
0
 10
33.5
 20
149.405605933587708
 30
0.0
  0
VERTEX
  5
223
  8
0
 10
33.5
 20
149.6175863350264876
 30
0.0
  0
VERTEX
  5
224
  8
0
 10
33.5
 20
149.8295018489814083
 30
0.0
  0
VERTEX
  5
225
  8
0
 10
33.5
 20
150.0413206591263133
 30
0.0
  0
VERTEX
  5
226
  8
0
 10
33.5
 20
150.253010949135188
 30
0.0
  0
VERTEX
  5
227
  8
0
 10
33.5
 20
150.4645409026817902
 30
0.0
  0
VERTEX
  5
228
  8
0
 10
33.5
 20
150.6758785022134077
 30
0.0
  0
VERTEX
  5
229
  8
0
 10
33.5
 20
150.8869847815807077
 30
0.0
  0
VERTEX
  5
22A
  8
0
 10
33.5
 20
151.0978122235974865
 30
0.0
  0
VERTEX
  5
22B
  8
0
 10
33.5
 20
151.3083127850298979
 30
0.0
  0
VERTEX
  5
22C
  8
0
 10
33.5
 20
151.5184384226444081
 30
0.0
  0
VERTEX
  5
22D
  8
0
 10
33.5
 20
151.7281410932073129
 30
0.0
  0
VERTEX
  5
22E
  8
0
 10
33.5
 20
151.9373727534849081
 30
0.0
  0
VERTEX
  5
22F
  8
0
 10
33.5
 20
152.1460853602436032
 30
0.0
  0
VERTEX
  5
230
  8
0
 10
33.5
 20
152.3542308702496086
 30
0.0
  0
VERTEX
  5
231
  8
0
 10
33.5
 20
152.5617698347006126
 30
0.0
  0
VERTEX
  5
232
  8
0
 10
33.5
 20
152.7687362833304121
 30
0.0
  0
VERTEX
  5
233
  8
0
 10
33.5
 20
152.9752015251787896
 30
0.0
  0
VERTEX
  5
234
  8
0
 10
33.5
 20
153.1812371612145967
 30
0.0
  0
VERTEX
  5
235
  8
0
 10
33.5
 20
153.3869147924067136
 30
0.0
  0
VERTEX
  5
236
  8
0
 10
33.5
 20
153.5923060197237078
 30
0.0
  0
VERTEX
  5
237
  8
0
 10
33.5
 20
153.7974824441344026
 30
0.0
  0
VERTEX
  5
238
  8
0
 10
33.5
 20
154.0025156666075929
 30
0.0
  0
VERTEX
  5
239
  8
0
 10
33.5
 20
154.2074772881119884
 30
0.0
  0
SEQEND
  5
23A
  8
0
  0
POLYLINE
  5
133
  8
0
 66
     1
 10
0.0
 20
0.0
 30
0.0
  0
VERTEX
  5
23B
  8
0
 10
33.5
 20
154.2074772881119884
 30
0.0
  0
VERTEX
  5
23C
  8
0
 10
33.3428772496432728
 20
154.2981921503262015
 30
0.0
  0
VERTEX
  5
23D
  8
0
 10
33.1856935960421424
 20
154.3889421750450026
 30
0.0
  0
VERTEX
  5
23E
  8
0
 10
33.0283881359523335
 20
154.4797625247728092
 30
0.0
  0
VERTEX
  5
23F
  8
0
 10
32.8708999661294001
 20
154.5706883620142946
 30
0.0
  0
VERTEX
  5
240
  8
0
 10
32.71316818332906
 20
154.661754849273791
 30
0.0
  0
VERTEX
  5
241
  8
0
 10
32.5551318843068884
 20
154.7529971490558864
 30
0.0
  0
VERTEX
  5
242
  8
0
 10
32.3967301658185818
 20
154.844450423865311
 30
0.0
  0
VERTEX
  5
243
  8
0
 10
32.2379157327232519
 20
154.9361419795640984
 30
0.0
  0
VERTEX
  5
244
  8
0
 10
32.0786977478118516
 20
155.028066526012509
 30
0.0
  0
VERTEX
  5
245
  8
0
 10
31.9191000134394187
 20
155.1202103209145093
 30
0.0
  0
VERTEX
  5
246
  8
0
 10
31.7591463319865888
 20
155.2125596219590875
 30
0.0
  0
VERTEX
  5
247
  8
0
 10
31.5988605058339296
 20
155.3051006868356865
 30
0.0
  0
VERTEX
  5
248
  8
0
 10
31.4382663373619984
 20
155.3978197732332092
 30
0.0
  0
VERTEX
  5
249
  8
0
 10
31.2773876289513808
 20
155.4907031388410132
 30
0.0
  0
VERTEX
  5
24A
  8
0
 10
31.1162469596626501
 20
155.583737747632199
 30
0.0
  0
VERTEX
  5
24B
  8
0
 10
30.9548616754752395
 20
155.6769135849010866
 30
0.0
  0
VERTEX
  5
24C
  8
0
 10
30.7932477233308113
 20
155.7702214436764052
 30
0.0
  0
VERTEX
  5
24D
  8
0
 10
30.6314210501563799
 20
155.863652116995695
 30
0.0
  0
VERTEX
  5
24E
  8
0
 10
30.4693976028789599
 20
155.9571963978964106
 30
0.0
  0
VERTEX
  5
24F
  8
0
 10
30.3071933284255692
 20
156.050845079415808
 30
0.0
  0
VERTEX
  5
250
  8
0
 10
30.1448241737232117
 20
156.1445889545913133
 30
0.0
  0
VERTEX
  5
251
  8
0
 10
29.9823071562396493
 20
156.2384181983833003
 30
0.0
  0
VERTEX
  5
252
  8
0
 10
29.8196669412865312
 20
156.3323185702674891
 30
0.0
  0
VERTEX
  5
253
  8
0
 10
29.6569315212708489
 20
156.426273908820292
 30
0.0
  0
VERTEX
  5
254
  8
0
 10
29.4941289022524984
 20
156.5202680447353032
 30
0.0
  0
VERTEX
  5
255
  8
0
 10
29.3312870902914007
 20
156.614284808706401
 30
0.0
  0
VERTEX
  5
256
  8
0
 10
29.1684340914474411
 20
156.7083080314272934
 30
0.0
  0
VERTEX
  5
257
  8
0
 10
29.0055979117805407
 20
156.8023215435918019
 30
0.0
  0
VERTEX
  5
258
  8
0
 10
28.8428063904303897
 20
156.896309272265114
 30
0.0
  0
VERTEX
  5
259
  8
0
 10
28.6800852643195583
 20
156.9902563582280948
 30
0.0
  0
VERTEX
  5
25A
  8
0
 10
28.5174588331130998
 20
157.0841487720624059
 30
0.0
  0
VERTEX
  5
25B
  8
0
 10
28.3549513686053913
 20
157.1779725004413137
 30
0.0
  0
VERTEX
  5
25C
  8
0
 10
28.1925871425907886
 20
157.2717135300376015
 30
0.0
  0
VERTEX
  5
25D
  8
0
 10
28.0303904268637289
 20
157.365357847524308
 30
0.0
  0
VERTEX
  5
25E
  8
0
 10
27.8683851725066987
 20
157.4588916247375039
 30
0.0
  0
VERTEX
  5
25F
  8
0
 10
27.7065891686767785
 20
157.5523045911025122
 30
0.0
  0
VERTEX
  5
260
  8
0
 10
27.5450146501567303
 20
157.6455896828641983
 30
0.0
  0
VERTEX
  5
261
  8
0
 10
27.3836736529381817
 20
157.7387399510396904
 30
0.0
  0
VERTEX
  5
262
  8
0
 10
27.222578213012671
 20
157.8317484466458893
 30
0.0
  0
VERTEX
  5
263
  8
0
 10
27.0617403663718292
 20
157.9246082206998096
 30
0.0
  0
VERTEX
  5
264
  8
0
 10
26.9011723176220485
 20
158.0173122268687962
 30
0.0
  0
VERTEX
  5
265
  8
0
 10
26.7408916879577809
 20
158.1098502915513109
 30
0.0
  0
VERTEX
  5
266
  8
0
 10
26.5809225392210386
 20
158.2022085226365107
 30
0.0
  0
VERTEX
  5
267
  8
0
 10
26.4212893086078395
 20
158.2943728113025941
 30
0.0
  0
VERTEX
  5
268
  8
0
 10
26.2620164333141091
 20
158.3863290487279869
 30
0.0
  0
VERTEX
  5
269
  8
0
 10
26.1031283505358012
 20
158.4780631260910866
 30
0.0
  0
VERTEX
  5
26A
  8
0
 10
25.9446493375202216
 20
158.5695610269166025
 30
0.0
  0
VERTEX
  5
26B
  8
0
 10
25.7865762415624786
 20
158.660824571419397
 30
0.0
  0
VERTEX
  5
26C
  8
0
 10
25.6288476218071004
 20
158.7518892324941078
 30
0.0
  0
VERTEX
  5
26D
  8
0
 10
25.4713945830136517
 20
158.8427947868262891
 30
0.0
  0
VERTEX
  5
26E
  8
0
 10
25.3141482299416296
 20
158.9335810111014951
 30
0.0
  0
VERTEX
  5
26F
  8
0
 10
25.1570396673505812
 20
159.0242876820053937
 30
0.0
  0
VERTEX
  5
270
  8
0
 10
24.9999999999999787
 20
159.1149545762237096
 30
0.0
  0
SEQEND
  5
271
  8
0
  0
POLYLINE
  5
134
  8
0
 66
     1
 10
0.0
 20
0.0
 30
0.0
  0
VERTEX
  5
272
  8
0
 10
16.5
 20
154.2074772881119884
 30
0.0
  0
VERTEX
  5
273
  8
0
 10
16.6571227503567414
 20
154.2981921503262015
 30
0.0
  0
VERTEX
  5
274
  8
0
 10
16.8143064039578611
 20
154.3889421750450026
 30
0.0
  0
VERTEX
  5
275
  8
0
 10
16.9716118640476701
 20
154.4797625247728092
 30
0.0
  0
VERTEX
  5
276
  8
0
 10
17.1291000338705715
 20
154.5706883620142946
 30
0.0
  0
VERTEX
  5
277
  8
0
 10
17.28683181667094
 20
154.661754849273791
 30
0.0
  0
VERTEX
  5
278
  8
0
 10
17.4448681156930903
 20
154.7529971490558864
 30
0.0
  0
VERTEX
  5
279
  8
0
 10
17.6032698341813898
 20
154.844450423865311
 30
0.0
  0
VERTEX
  5
27A
  8
0
 10
17.7620842672766912
 20
154.9361419795640984
 30
0.0
  0
VERTEX
  5
27B
  8
0
 10
17.9213022521880987
 20
155.028066526012509
 30
0.0
  0
VERTEX
  5
27C
  8
0
 10
18.0808999865605209
 20
155.1202103209145093
 30
0.0
  0
VERTEX
  5
27D
  8
0
 10
18.2408536680133615
 20
155.2125596219590875
 30
0.0
  0
VERTEX
  5
27E
  8
0
 10
18.4011394941660207
 20
155.3051006868356865
 30
0.0
  0
VERTEX
  5
27F
  8
0
 10
18.5617336626379483
 20
155.3978197732332092
 30
0.0
  0
VERTEX
  5
280
  8
0
 10
18.7226123710485695
 20
155.4907031388410132
 30
0.0
  0
VERTEX
  5
281
  8
0
 10
18.8837530403373286
 20
155.5837377476323127
 30
0.0
  0
VERTEX
  5
282
  8
0
 10
19.0451383245247392
 20
155.6769135849010866
 30
0.0
  0
VERTEX
  5
283
  8
0
 10
19.2067522766691887
 20
155.7702214436764905
 30
0.0
  0
VERTEX
  5
284
  8
0
 10
19.3685789498436307
 20
155.8636521169958087
 30
0.0
  0
VERTEX
  5
285
  8
0
 10
19.5306023971210507
 20
155.9571963978964959
 30
0.0
  0
VERTEX
  5
286
  8
0
 10
19.6928066715744308
 20
156.0508450794158932
 30
0.0
  0
VERTEX
  5
287
  8
0
 10
19.8551758262767883
 20
156.1445889545913985
 30
0.0
  0
VERTEX
  5
288
  8
0
 10
20.0176928437603614
 20
156.2384181983834139
 30
0.0
  0
VERTEX
  5
289
  8
0
 10
20.1803330587134795
 20
156.3323185702676028
 30
0.0
  0
VERTEX
  5
28A
  8
0
 10
20.3430684787291511
 20
156.4262739088204057
 30
0.0
  0
VERTEX
  5
28B
  8
0
 10
20.5058710977475087
 20
156.5202680447353885
 30
0.0
  0
VERTEX
  5
28C
  8
0
 10
20.66871290970861
 20
156.614284808706401
 30
0.0
  0
VERTEX
  5
28D
  8
0
 10
20.8315659085525589
 20
156.7083080314272934
 30
0.0
  0
VERTEX
  5
28E
  8
0
 10
20.9944020882194593
 20
156.8023215435918019
 30
0.0
  0
VERTEX
  5
28F
  8
0
 10
21.1571936095696209
 20
156.896309272265114
 30
0.0
  0
VERTEX
  5
290
  8
0
 10
21.3199147356804417
 20
156.9902563582280948
 30
0.0
  0
VERTEX
  5
291
  8
0
 10
21.4825411668869108
 20
157.0841487720624912
 30
0.0
  0
VERTEX
  5
292
  8
0
 10
21.6450486313946193
 20
157.1779725004413137
 30
0.0
  0
VERTEX
  5
293
  8
0
 10
21.8074128574092185
 20
157.2717135300376015
 30
0.0
  0
VERTEX
  5
294
  8
0
 10
21.9696095731362711
 20
157.365357847524308
 30
0.0
  0
VERTEX
  5
295
  8
0
 10
22.1316148274933084
 20
157.4588916247375039
 30
0.0
  0
VERTEX
  5
296
  8
0
 10
22.2934108313232286
 20
157.5523045911025122
 30
0.0
  0
VERTEX
  5
297
  8
0
 10
22.4549853498432697
 20
157.6455896828641983
 30
0.0
  0
VERTEX
  5
298
  8
0
 10
22.616326347061829
 20
157.7387399510396904
 30
0.0
  0
VERTEX
  5
299
  8
0
 10
22.777421786987329
 20
157.8317484466458893
 30
0.0
  0
VERTEX
  5
29A
  8
0
 10
22.9382596336281814
 20
157.9246082206998096
 30
0.0
  0
VERTEX
  5
29B
  8
0
 10
23.0988276823779586
 20
158.0173122268687962
 30
0.0
  0
VERTEX
  5
29C
  8
0
 10
23.2591083120422404
 20
158.1098502915513109
 30
0.0
  0
VERTEX
  5
29D
  8
0
 10
23.4190774607789685
 20
158.2022085226365107
 30
0.0
  0
VERTEX
  5
29E
  8
0
 10
23.5787106913921605
 20
158.2943728113025941
 30
0.0
  0
VERTEX
  5
29F
  8
0
 10
23.7379835666859016
 20
158.3863290487279869
 30
0.0
  0
VERTEX
  5
2A0
  8
0
 10
23.8968716494642095
 20
158.4780631260910866
 30
0.0
  0
VERTEX
  5
2A1
  8
0
 10
24.055350662479789
 20
158.5695610269166025
 30
0.0
  0
VERTEX
  5
2A2
  8
0
 10
24.2134237584375391
 20
158.660824571419397
 30
0.0
  0
VERTEX
  5
2A3
  8
0
 10
24.3711523781929102
 20
158.7518892324941078
 30
0.0
  0
VERTEX
  5
2A4
  8
0
 10
24.5286054169863483
 20
158.8427947868262891
 30
0.0
  0
VERTEX
  5
2A5
  8
0
 10
24.685851770058381
 20
158.9335810111014951
 30
0.0
  0
VERTEX
  5
2A6
  8
0
 10
24.8429603326494295
 20
159.0242876820053937
 30
0.0
  0
VERTEX
  5
2A7
  8
0
 10
25.0000000000000284
 20
159.1149545762237096
 30
0.0
  0
SEQEND
  5
2A8
  8
0
  0
POLYLINE
  5
135
  8
0
 66
     1
 10
0.0
 20
0.0
 30
0.0
  0
VERTEX
  5
2A9
  8
0
 10
16.5
 20
144.3925227118882049
 30
0.0
  0
VERTEX
  5
2AA
  8
0
 10
16.5
 20
144.5970256942457866
 30
0.0
  0
VERTEX
  5
2AB
  8
0
 10
16.5
 20
144.8016384518473103
 30
0.0
  0
VERTEX
  5
2AC
  8
0
 10
16.5
 20
145.0064707599370024
 30
0.0
  0
VERTEX
  5
2AD
  8
0
 10
16.5
 20
145.2116323937588049
 30
0.0
  0
VERTEX
  5
2AE
  8
0
 10
16.5
 20
145.4172331285568021
 30
0.0
  0
VERTEX
  5
2AF
  8
0
 10
16.5
 20
145.6233823704866097
 30
0.0
  0
VERTEX
  5
2B0
  8
0
 10
16.5
 20
145.8301424018902139
 30
0.0
  0
VERTEX
  5
2B1
  8
0
 10
16.5
 20
146.0374826274502027
 30
0.0
  0
VERTEX
  5
2B2
  8
0
 10
16.5
 20
146.2453615890559036
 30
0.0
  0
VERTEX
  5
2B3
  8
0
 10
16.5
 20
146.453737828596303
 30
0.0
  0
VERTEX
  5
2B4
  8
0
 10
16.5
 20
146.6625698879605864
 30
0.0
  0
VERTEX
  5
2B5
  8
0
 10
16.5
 20
146.8718164802475883
 30
0.0
  0
VERTEX
  5
2B6
  8
0
 10
16.5
 20
147.0814448489828976
 30
0.0
  0
VERTEX
  5
2B7
  8
0
 10
16.5
 20
147.2914345449628968
 30
0.0
  0
VERTEX
  5
2B8
  8
0
 10
16.5
 20
147.5017660775222055
 30
0.0
  0
VERTEX
  5
2B9
  8
0
 10
16.5
 20
147.7124199559956992
 30
0.0
  0
VERTEX
  5
2BA
  8
0
 10
16.5
 20
147.9233766897183102
 30
0.0
  0
VERTEX
  5
2BB
  8
0
 10
16.5
 20
148.134616263230896
 30
0.0
  0
VERTEX
  5
2BC
  8
0
 10
16.5
 20
148.3461052060245038
 30
0.0
  0
VERTEX
  5
2BD
  8
0
 10
16.5
 20
148.5577957750456903
 30
0.0
  0
VERTEX
  5
2BE
  8
0
 10
16.5
 20
148.7696395387702921
 30
0.0
  0
VERTEX
  5
2BF
  8
0
 10
16.5
 20
148.9815880656740035
 30
0.0
  0
VERTEX
  5
2C0
  8
0
 10
16.5
 20
149.193592924232604
 30
0.0
  0
VERTEX
  5
2C1
  8
0
 10
16.5
 20
149.405605933587708
 30
0.0
  0
VERTEX
  5
2C2
  8
0
 10
16.5
 20
149.6175863350264876
 30
0.0
  0
VERTEX
  5
2C3
  8
0
 10
16.5
 20
149.8295018489814083
 30
0.0
  0
VERTEX
  5
2C4
  8
0
 10
16.5
 20
150.0413206591263133
 30
0.0
  0
VERTEX
  5
2C5
  8
0
 10
16.5
 20
150.253010949135188
 30
0.0
  0
VERTEX
  5
2C6
  8
0
 10
16.5
 20
150.4645409026817902
 30
0.0
  0
VERTEX
  5
2C7
  8
0
 10
16.5
 20
150.6758785022134077
 30
0.0
  0
VERTEX
  5
2C8
  8
0
 10
16.5
 20
150.8869847815807077
 30
0.0
  0
VERTEX
  5
2C9
  8
0
 10
16.5
 20
151.0978122235974865
 30
0.0
  0
VERTEX
  5
2CA
  8
0
 10
16.5
 20
151.3083127850298979
 30
0.0
  0
VERTEX
  5
2CB
  8
0
 10
16.5
 20
151.5184384226444081
 30
0.0
  0
VERTEX
  5
2CC
  8
0
 10
16.5
 20
151.7281410932073129
 30
0.0
  0
VERTEX
  5
2CD
  8
0
 10
16.5
 20
151.9373727534849081
 30
0.0
  0
VERTEX
  5
2CE
  8
0
 10
16.5
 20
152.1460853602436032
 30
0.0
  0
VERTEX
  5
2CF
  8
0
 10
16.5
 20
152.3542308702496086
 30
0.0
  0
VERTEX
  5
2D0
  8
0
 10
16.5
 20
152.5617698347006126
 30
0.0
  0
VERTEX
  5
2D1
  8
0
 10
16.5
 20
152.7687362833304121
 30
0.0
  0
VERTEX
  5
2D2
  8
0
 10
16.5
 20
152.9752015251787896
 30
0.0
  0
VERTEX
  5
2D3
  8
0
 10
16.5
 20
153.1812371612145967
 30
0.0
  0
VERTEX
  5
2D4
  8
0
 10
16.5
 20
153.3869147924067136
 30
0.0
  0
VERTEX
  5
2D5
  8
0
 10
16.5
 20
153.5923060197237078
 30
0.0
  0
VERTEX
  5
2D6
  8
0
 10
16.5
 20
153.7974824441344026
 30
0.0
  0
VERTEX
  5
2D7
  8
0
 10
16.5
 20
154.0025156666075929
 30
0.0
  0
VERTEX
  5
2D8
  8
0
 10
16.5
 20
154.2074772881119884
 30
0.0
  0
SEQEND
  5
2D9
  8
0
  0
ENDSEC
  0
EOF
