  0
SECTION
  2
HEADER
  9
$ACADVER
  1
AC1009
  9
$INSBASE
 10
0.0
 20
0.0
 30
0.0
  9
$EXTMIN
 10
0.0
 20
-2.960436562073669
 30
0.0
  9
$EXTMAX
 10
141.3233287858116967
 20
218.2999999999996987
 30
0.0
  9
$LIMMIN
 10
0.0
 20
0.0
  9
$LIMMAX
 10
375.0
 20
270.0
  9
$ORTHOMODE
 70
     1
  9
$REGENMODE
 70
     1
  9
$FILLMODE
 70
     1
  9
$QTEXTMODE
 70
     0
  9
$MIRRTEXT
 70
     0
  9
$DRAGMODE
 70
     2
  9
$LTSCALE
 40
6.0
  9
$OSMODE
 70
    37
  9
$ATTMODE
 70
     1
  9
$TEXTSIZE
 40
0.2
  9
$TRACEWID
 40
0.05
  9
$TEXTSTYLE
  7
STANDARD
  9
$CLAYER
  8
0
  9
$CELTYPE
  6
BYLAYER
  9
$CECOLOR
 62
   256
  9
$DIMSCALE
 40
1.0
  9
$DIMASZ
 40
3.0
  9
$DIMEXO
 40
1.0
  9
$DIMDLI
 40
6.0
  9
$DIMRND
 40
0.0
  9
$DIMDLE
 40
0.0
  9
$DIMEXE
 40
1.0
  9
$DIMTP
 40
495.0
  9
$DIMTM
 40
0.0
  9
$DIMTXT
 40
3.0
  9
$DIMCEN
 40
0.0
  9
$DIMTSZ
 40
0.0
  9
$DIMTOL
 70
     0
  9
$DIMLIM
 70
     0
  9
$DIMTIH
 70
     0
  9
$DIMTOH
 70
     0
  9
$DIMSE1
 70
     0
  9
$DIMSE2
 70
     0
  9
$DIMTAD
 70
     1
  9
$DIMZIN
 70
     0
  9
$DIMBLK
  1

  9
$DIMASO
 70
     0
  9
$DIMSHO
 70
     0
  9
$DIMPOST
  1

  9
$DIMAPOST
  1

  9
$DIMALT
 70
     0
  9
$DIMALTD
 70
     2
  9
$DIMALTF
 40
25.3999999999999986
  9
$DIMLFAC
 40
1.0
  9
$DIMTOFL
 70
     1
  9
$DIMTVP
 40
0.0
  9
$DIMTIX
 70
     1
  9
$DIMSOXD
 70
     0
  9
$DIMSAH
 70
     0
  9
$DIMBLK1
  1

  9
$DIMBLK2
  1

  9
$DIMSTYLE
  2
STANDARD
  9
$DIMCLRD
 70
     0
  9
$DIMCLRE
 70
     0
  9
$DIMCLRT
 70
     4
  9
$DIMTFAC
 40
1.0
  9
$DIMGAP
 40
1.0
  9
$LUNITS
 70
     2
  9
$LUPREC
 70
     4
  9
$SKETCHINC
 40
0.1
  9
$FILLETRAD
 40
0.0
  9
$AUNITS
 70
     0
  9
$AUPREC
 70
     0
  9
$MENU
  1
C:\R13\WIN\SUPPORT\ACAD-I
  9
$ELEVATION
 40
0.0
  9
$PELEVATION
 40
0.0
  9
$THICKNESS
 40
0.0
  9
$LIMCHECK
 70
     0
  9
$BLIPMODE
 70
     0
  9
$CHAMFERA
 40
0.0
  9
$CHAMFERB
 40
0.0
  9
$SKPOLY
 70
     0
  9
$TDCREATE
 40
2451961.7115277778357267
  9
$TDUPDATE
 40
2460580.5714930561371148
  9
$TDINDWG
 40
0.2258132755
  9
$TDUSRTIMER
 40
2456598.1872891318053007
  9
$USRTIMER
 70
     1
  9
$ANGBASE
 50
0.0
  9
$ANGDIR
 70
     0
  9
$PDMODE
 70
     0
  9
$PDSIZE
 40
0.0
  9
$PLINEWID
 40
0.0
  9
$COORDS
 70
     1
  9
$SPLFRAME
 70
     0
  9
$SPLINETYPE
 70
     6
  9
$SPLINESEGS
 70
     8
  9
$ATTDIA
 70
     1
  9
$ATTREQ
 70
     1
  9
$HANDLING
 70
     1
  9
$HANDSEED
  5
310
  9
$SURFTAB1
 70
     6
  9
$SURFTAB2
 70
     6
  9
$SURFTYPE
 70
     6
  9
$SURFU
 70
     6
  9
$SURFV
 70
     6
  9
$UCSNAME
  2

  9
$UCSORG
 10
0.0
 20
0.0
 30
0.0
  9
$UCSXDIR
 10
1.0
 20
0.0
 30
0.0
  9
$UCSYDIR
 10
0.0
 20
1.0
 30
0.0
  9
$PUCSNAME
  2

  9
$PUCSORG
 10
0.0
 20
0.0
 30
0.0
  9
$PUCSXDIR
 10
1.0
 20
0.0
 30
0.0
  9
$PUCSYDIR
 10
0.0
 20
1.0
 30
0.0
  9
$USERI1
 70
     4
  9
$USERI2
 70
     1
  9
$USERI3
 70
     0
  9
$USERI4
 70
     0
  9
$USERI5
 70
     0
  9
$USERR1
 40
1.0
  9
$USERR2
 40
3.0
  9
$USERR3
 40
3.0
  9
$USERR4
 40
3.0
  9
$USERR5
 40
10.0
  9
$WORLDVIEW
 70
     1
  9
$SHADEDGE
 70
     3
  9
$SHADEDIF
 70
    70
  9
$TILEMODE
 70
     1
  9
$MAXACTVP
 70
    16
  9
$PLIMCHECK
 70
     0
  9
$PEXTMIN
 10
1.0000000000000000E+20
 20
1.0000000000000000E+20
 30
1.0000000000000000E+20
  9
$PEXTMAX
 10
-1.0000000000000000E+20
 20
-1.0000000000000000E+20
 30
-1.0000000000000000E+20
  9
$PLIMMIN
 10
0.0
 20
0.0
  9
$PLIMMAX
 10
12.0
 20
9.0
  9
$UNITMODE
 70
     0
  9
$VISRETAIN
 70
     0
  9
$PLINEGEN
 70
     0
  9
$PSLTSCALE
 70
     0
  0
ENDSEC
  0
SECTION
  2
TABLES
  0
TABLE
  2
VPORT
 70
     1
  0
VPORT
  2
*ACTIVE
 70
     0
 10
0.0
 20
0.0
 11
1.0
 21
1.0
 12
270.0800492610836727
 22
115.0
 13
0.0
 23
0.0
 14
10.0
 24
10.0
 15
10.0
 25
10.0
 16
0.0
 26
0.0
 36
1.0
 17
0.0
 27
0.0
 37
0.0
 40
230.0
 41
2.3485221674876842
 42
50.0
 43
0.0
 44
0.0
 50
0.0
 51
0.0
 71
    16
 72
   100
 73
     1
 74
     0
 75
     0
 76
     0
 77
     0
 78
     0
  0
ENDTAB
  0
TABLE
  2
LTYPE
 70
     3
  0
LTYPE
  2
CONTINUOUS
 70
     0
  3
Solid Line
 72
    65
 73
     0
 40
0.0
  0
LTYPE
  2
CENTER
 70
     0
  3
____ _ ____ _ ____ _ ____ _ ____ _ ____ _ ____
 72
    65
 73
     4
 40
2.0
 49
1.25
 49
-0.25
 49
0.25
 49
-0.25
  0
LTYPE
  2
HIDDEN
 70
     0
  3
Hidden __ __ __ __ __ __ __ __ __ __ __ __ __ __
 72
    65
 73
     2
 40
1.905
 49
1.27
 49
-0.635
  0
ENDTAB
  0
TABLE
  2
LAYER
 70
     4
  0
LAYER
  2
0
 70
     0
 62
     7
  6
CONTINUOUS
  0
LAYER
  2
1
 70
     0
 62
     1
  6
CENTER
  0
LAYER
  2
3
 70
     0
 62
     3
  6
CONTINUOUS
  0
LAYER
  2
2
 70
     0
 62
     2
  6
HIDDEN
  0
ENDTAB
  0
TABLE
  2
STYLE
 70
     2
  0
STYLE
  2
STANDARD
 70
     0
 40
0.0
 41
1.0
 50
0.0
 71
     0
 42
0.2
  3
SIMPLEX
  4
BIGFONT
  0
STYLE
  2
STANDARD1
 70
     0
 40
0.0
 41
1.0
 50
0.0
 71
     0
 42
3.0
  3
txt
  4

  0
ENDTAB
  0
TABLE
  2
VIEW
 70
     0
  0
ENDTAB
  0
TABLE
  2
UCS
 70
     0
  0
ENDTAB
  0
TABLE
  2
APPID
 70
     8
  0
APPID
  2
ACAD
 70
     0
  0
APPID
  2
ACAD_NAV_VCDISPLAY
 70
     0
  0
APPID
  2
ACAECLAYERSTANDARD
 70
     0
  0
APPID
  2
ACCMTRANSPARENCY
 70
     0
  0
APPID
  2
ACAD_TC
 70
     0
  0
APPID
  2
ACAD_EXEMPT_FROM_CAD_STANDARDS
 70
     0
  0
APPID
  2
ACAD_DSTYLE_DIMRADIAL_EXTENSION
 70
     0
  0
APPID
  2
ACAD_MLEADERVER
 70
     0
  0
ENDTAB
  0
TABLE
  2
DIMSTYLE
 70
     1
  0
DIMSTYLE
  2
STANDARD
 70
     0
  3

  4

  5

  6

  7

 40
1.0
 41
0.18
 42
0.0625
 43
0.38
 44
0.18
 45
0.0
 46
0.0
 47
0.0
 48
0.0
140
0.18
141
0.09
142
0.0
143
25.3999999999999986
144
1.0
145
0.0
146
1.0
147
0.09
 71
     0
 72
     0
 73
     1
 74
     1
 75
     0
 76
     0
 77
     0
 78
     0
170
     0
171
     2
172
     0
173
     0
174
     0
175
     0
176
     0
177
     0
178
     0
  0
ENDTAB
  0
ENDSEC
  0
SECTION
  2
BLOCKS
  0
BLOCK
  8
0
  2
$MODEL_SPACE
 70
     0
 10
0.0
 20
0.0
 30
0.0
  3
$MODEL_SPACE
  1

  0
ENDBLK
  5
F
  8
0
  0
BLOCK
 67
     1
  8
0
  2
$PAPER_SPACE
 70
     0
 10
0.0
 20
0.0
 30
0.0
  3
$PAPER_SPACE
  1

  0
ENDBLK
  5
14
 67
     1
  8
0
  0
ENDSEC
  0
SECTION
  2
ENTITIES
  0
LINE
  5
5B
  8
0
 10
28.7600578202777584
 20
65.5886751345945953
 30
0.0
 11
29.2600578202777584
 21
65.2999999999999545
 31
0.0
  0
LINE
  5
5C
  8
0
 10
47.2600578202777513
 20
65.2999999999999545
 30
0.0
 11
47.7600578202777513
 21
65.5886751345945953
 31
0.0
  0
LINE
  5
5D
  8
0
 10
47.7600578202777513
 20
75.0113248654050722
 30
0.0
 11
47.2600578202777513
 21
75.2999999999999545
 31
0.0
  0
LINE
  5
5E
  8
0
 10
29.2600578202777584
 20
75.2999999999999545
 30
0.0
 11
28.7600578202777584
 21
75.0113248654050722
 31
0.0
  0
ARC
  5
5F
  8
0
 10
38.2600578202777513
 20
43.0499999999999474
 30
0.0
 40
6.9999999999999947
 50
143.130102354155099
 51
161.2506591529819957
  0
ARC
  5
60
  8
0
 10
38.2600578202777513
 20
43.0499999999999474
 30
0.0
 40
7.0000000000000009
 50
18.7493408470180185
 51
36.8698976458449224
  0
LINE
  5
61
  8
0
 10
44.2600578202777371
 20
152.226499999999902
 30
0.0
 11
43.1865578202777414
 21
153.2999999999998977
 31
0.0
  0
LINE
  5
62
  8
0
 10
33.3335578202777469
 20
153.2999999999998977
 30
0.0
 11
32.2600578202777513
 21
152.226499999999902
 31
0.0
  0
LINE
  5
63
  8
0
 10
44.2600578202777371
 20
55.2999999999999474
 30
0.0
 11
44.2600578202777371
 21
65.2999999999999545
 31
0.0
  0
LINE
  5
64
  8
0
 10
44.2600578202777371
 20
75.2999999999999545
 30
0.0
 11
44.2600578202777371
 21
152.226499999999902
 31
0.0
  0
LINE
  5
65
  8
0
 10
32.2600578202777513
 20
152.226499999999902
 30
0.0
 11
32.2600578202777513
 21
75.2999999999999545
 31
0.0
  0
LINE
  5
66
  8
0
 10
32.2600578202777513
 20
65.2999999999999545
 30
0.0
 11
32.2600578202777513
 21
55.2999999999999474
 31
0.0
  0
LINE
  5
67
  8
0
 10
44.2600578202777371
 20
47.2499999999998792
 30
0.0
 11
44.2600578202777371
 21
51.5499999999998408
 31
0.0
  0
LINE
  5
68
  8
0
 10
32.2600578202777513
 20
51.5499999999998408
 30
0.0
 11
32.2600578202777513
 21
47.2499999999998792
 31
0.0
  0
LINE
  5
69
  8
0
 10
54.2600578202777513
 20
30.8299999999999308
 30
0.0
 11
54.2600578202777513
 21
35.2999999999999616
 31
0.0
  0
LINE
  5
6A
  8
0
 10
22.2600578202777406
 20
35.2999999999999616
 30
0.0
 11
22.2600578202777406
 21
30.8299999999999308
 31
0.0
  0
LINE
  5
6B
  8
0
 10
22.2600578202777406
 20
30.8299999999999308
 30
0.0
 11
22.7900578202777488
 21
30.2999999999998408
 31
0.0
  0
LINE
  5
6C
  8
0
 10
53.7300578202777501
 20
30.2999999999998408
 30
0.0
 11
54.2600578202777513
 21
30.8299999999999308
 31
0.0
  0
LINE
  5
6D
  8
0
 10
54.2600578202777228
 20
35.2999999999999616
 30
0.0
 11
49.460057820277747
 21
40.2999999999998408
 31
0.0
  0
LINE
  5
6E
  8
0
 10
27.0600578202777307
 20
40.2999999999998408
 30
0.0
 11
22.260057820277769
 21
35.2999999999999616
 31
0.0
  0
LINE
  5
6F
  8
0
 10
49.8100578202777484
 20
25.0
 30
0.0
 11
49.8100578202777484
 21
30.2999999999998408
 31
0.0
  0
LINE
  5
70
  8
0
 10
26.7100578202777506
 20
30.2999999999998408
 30
0.0
 11
26.7100578202777506
 21
25.0
 31
0.0
  0
LINE
  5
71
  8
0
 10
49.460057820277747
 20
40.2999999999998408
 30
0.0
 11
48.5784229167353914
 21
45.2999999999999474
 31
0.0
  0
LINE
  5
72
  8
0
 10
27.9416927238201112
 20
45.2999999999999474
 30
0.0
 11
27.0600578202777307
 21
40.2999999999998408
 31
0.0
  0
LINE
  5
73
  8
0
 10
47.2600578202777513
 20
65.2999999999999545
 30
0.0
 11
29.2600578202777584
 21
65.2999999999999545
 31
0.0
  0
LINE
  5
74
  8
0
 10
38.2600578202777726
 20
74.1628190893732153
 30
0.0
 11
38.2600578202777726
 21
66.43718091062658
 31
0.0
  0
LINE
  5
75
  8
0
 10
28.7600578202777584
 20
75.0113248654051858
 30
0.0
 11
28.7600578202777584
 21
65.5886751345945953
 31
0.0
  0
LINE
  5
76
  8
0
 10
47.7600578202777513
 20
75.0113248654051858
 30
0.0
 11
47.7600578202777513
 21
65.5886751345945953
 31
0.0
  0
LINE
  5
77
  8
0
 10
29.2600578202777584
 20
75.2999999999999545
 30
0.0
 11
47.2600578202777513
 21
75.2999999999999545
 31
0.0
  0
LINE
  5
78
  8
0
 10
45.2600578202777513
 20
51.5499999999998408
 30
0.0
 11
45.2600578202777513
 21
55.2999999999999474
 31
0.0
  0
LINE
  5
79
  8
0
 10
38.2600578202777513
 20
52.1752147823391397
 30
0.0
 11
38.2600578202777513
 21
54.674785217660542
 31
0.0
  0
LINE
  5
7A
  8
0
 10
31.2600578202777513
 20
51.5499999999998408
 30
0.0
 11
31.2600578202777513
 21
55.2999999999999474
 31
0.0
  0
LINE
  5
7B
  8
0
 10
45.2600578202777513
 20
55.2999999999999474
 30
0.0
 11
31.2600578202777513
 21
55.2999999999999474
 31
0.0
  0
LINE
  5
7C
  8
0
 10
45.2600578202777513
 20
51.5499999999998408
 30
0.0
 11
31.2600578202777513
 21
51.5499999999998408
 31
0.0
  0
LINE
  5
7D
  8
0
 10
43.1865578202777414
 20
153.2999999999998977
 30
0.0
 11
33.3335578202777469
 21
153.2999999999998977
 31
0.0
  0
LINE
  5
7E
  8
0
 10
44.2600578202777371
 20
152.226499999999902
 30
0.0
 11
32.2600578202777513
 21
152.226499999999902
 31
0.0
  0
LINE
  5
7F
  8
0
 10
44.2600578202777371
 20
47.2499999999998792
 30
0.0
 11
32.2600578202777513
 21
47.2499999999998792
 31
0.0
  0
LINE
  5
80
  8
0
 10
53.7300578202777501
 20
30.2999999999998408
 30
0.0
 11
22.7900578202777488
 21
30.2999999999998408
 31
0.0
  0
LINE
  5
81
  8
0
 10
49.8100578202777271
 20
25.0
 30
0.0
 11
26.7100578202777612
 21
25.0
 31
0.0
  0
LINE
  5
82
  8
0
 10
48.5784229167353914
 20
45.2999999999999474
 30
0.0
 11
27.9416927238201112
 21
45.2999999999999474
 31
0.0
  0
LINE
  5
83
  8
0
 10
102.290402705674893
 20
66.4371809106266937
 30
0.0
 11
104.2600578202776944
 21
65.3000000000000682
 31
0.0
  0
LINE
  5
84
  8
0
 10
122.2600578202776944
 20
65.3000000000000682
 30
0.0
 11
124.2297129348805953
 21
66.4371809106266937
 31
0.0
  0
LINE
  5
85
  8
0
 10
124.2297129348805953
 20
74.162819089373329
 30
0.0
 11
122.2600578202776944
 21
75.3000000000000682
 31
0.0
  0
LINE
  5
86
  8
0
 10
104.2600578202776944
 20
75.3000000000000682
 30
0.0
 11
102.290402705674893
 21
74.162819089373329
 31
0.0
  0
ARC
  5
87
  8
0
 10
113.2600578202776944
 20
43.0500000000000611
 30
0.0
 40
7.0000000000000151
 50
143.130102354155099
 51
161.2506591529819957
  0
ARC
  5
88
  8
0
 10
113.2600578202776944
 20
43.0500000000000611
 30
0.0
 40
6.9999999999999876
 50
18.7493408470180185
 51
36.8698976458449224
  0
LINE
  5
89
  8
0
 10
119.2600578202775949
 20
55.3000000000000682
 30
0.0
 11
119.2600578202775949
 21
65.3000000000000682
 31
0.0
  0
LINE
  5
8A
  8
0
 10
119.2600578202774955
 20
75.3000000000000682
 30
0.0
 11
119.2600578202774955
 21
152.2264999999999873
 31
0.0
  0
LINE
  5
8B
  8
0
 10
107.2600578202774955
 20
152.2264999999999873
 30
0.0
 11
107.2600578202774955
 21
75.3000000000000682
 31
0.0
  0
LINE
  5
8C
  8
0
 10
107.2600578202775949
 20
65.3000000000000682
 30
0.0
 11
107.2600578202775949
 21
55.3000000000000682
 31
0.0
  0
LINE
  5
8D
  8
0
 10
119.2600578202775949
 20
47.25
 30
0.0
 11
119.2600578202775949
 21
51.5499999999999474
 31
0.0
  0
LINE
  5
8E
  8
0
 10
107.2600578202775949
 20
51.5499999999999474
 30
0.0
 11
107.2600578202775949
 21
47.25
 31
0.0
  0
LINE
  5
8F
  8
0
 10
119.2600578202774955
 20
152.2264999999999873
 30
0.0
 11
118.1865578202774998
 21
153.3000000000000966
 31
0.0
  0
LINE
  5
90
  8
0
 10
108.3335578202774059
 20
153.2999999999998977
 30
0.0
 11
107.2600578202774955
 21
152.2264999999999873
 31
0.0
  0
LINE
  5
91
  8
0
 10
121.3429615889323969
 20
54.6747852176607694
 30
0.0
 11
120.2600578202775949
 21
55.3000000000000682
 31
0.0
  0
LINE
  5
92
  8
0
 10
120.2600578202775949
 20
51.5499999999999474
 30
0.0
 11
121.3429615889323969
 21
52.175214782339367
 31
0.0
  0
LINE
  5
93
  8
0
 10
105.1771540516229066
 20
52.1752147823392534
 30
0.0
 11
106.2600578202775949
 21
51.5499999999999474
 31
0.0
  0
LINE
  5
94
  8
0
 10
106.2600578202775949
 20
55.3000000000000682
 30
0.0
 11
105.1771540516229066
 21
54.6747852176606486
 31
0.0
  0
LINE
  5
95
  8
0
 10
129.2600578202776944
 20
30.8300000000000409
 30
0.0
 11
129.2600578202776944
 21
35.2999999999999616
 31
0.0
  0
LINE
  5
96
  8
0
 10
97.2600578202777086
 20
35.2999999999999616
 30
0.0
 11
97.2600578202777228
 21
30.8299999999999308
 31
0.0
  0
LINE
  5
97
  8
0
 10
97.2600578202777228
 20
30.8299999999999308
 30
0.0
 11
97.790057820277724
 21
30.2999999999999616
 31
0.0
  0
LINE
  5
98
  8
0
 10
128.7300578202776933
 20
30.2999999999999616
 30
0.0
 11
129.2600578202776944
 21
30.8300000000000409
 31
0.0
  0
LINE
  5
99
  8
0
 10
129.2600578202776944
 20
35.2999999999999616
 30
0.0
 11
124.4600578202776973
 21
40.3000000000000682
 31
0.0
  0
LINE
  5
9A
  8
0
 10
102.0600578202777058
 20
40.3000000000000682
 30
0.0
 11
97.2600578202777371
 21
35.2999999999999616
 31
0.0
  0
LINE
  5
9B
  8
0
 10
124.8100578202777058
 20
25.0000000000001101
 30
0.0
 11
124.8100578202777058
 21
30.2999999999999616
 31
0.0
  0
LINE
  5
9C
  8
0
 10
101.7100578202776973
 20
30.2999999999999616
 30
0.0
 11
101.7100578202776973
 21
24.9999999999998899
 31
0.0
  0
LINE
  5
9D
  8
0
 10
124.4600578202776973
 20
40.3000000000000682
 30
0.0
 11
123.5784229167353061
 21
45.3000000000000682
 31
0.0
  0
LINE
  5
9E
  8
0
 10
102.9416927238199975
 20
45.3000000000000682
 30
0.0
 11
102.0600578202777058
 21
40.3000000000000682
 31
0.0
  0
LINE
  5
9F
  8
0
 10
122.2600578202776944
 20
65.3000000000000682
 30
0.0
 11
104.2600578202776944
 21
65.3000000000000682
 31
0.0
  0
LINE
  5
A0
  8
0
 10
124.2297129348805953
 20
74.162819089373329
 30
0.0
 11
124.2297129348805953
 21
66.4371809106266937
 31
0.0
  0
LINE
  5
A1
  8
0
 10
118.7448853775791946
 20
74.162819089373329
 30
0.0
 11
118.7448853775791946
 21
66.4371809106266937
 31
0.0
  0
LINE
  5
A2
  8
0
 10
113.2600578202776944
 20
75.3000000000000682
 30
0.0
 11
122.2600578202776944
 21
75.3000000000000682
 31
0.0
  0
LINE
  5
A3
  8
0
 10
104.2600578202776944
 20
75.3000000000000682
 30
0.0
 11
113.2600578202776944
 21
75.3000000000000682
 31
0.0
  0
LINE
  5
A4
  8
0
 10
107.7752302629762937
 20
74.162819089373329
 30
0.0
 11
107.7752302629762937
 21
66.4371809106266937
 31
0.0
  0
LINE
  5
A5
  8
0
 10
102.290402705674893
 20
74.162819089373329
 30
0.0
 11
102.290402705674893
 21
66.4371809106266937
 31
0.0
  0
LINE
  5
A6
  8
0
 10
121.3429615889323969
 20
52.175214782339367
 30
0.0
 11
121.3429615889323969
 21
54.6747852176606486
 31
0.0
  0
LINE
  5
A7
  8
0
 10
117.3015097046049959
 20
52.175214782339367
 30
0.0
 11
117.3015097046049959
 21
54.6747852176606486
 31
0.0
  0
LINE
  5
A8
  8
0
 10
109.218605935950194
 20
52.1752147823392534
 30
0.0
 11
109.218605935950194
 21
54.6747852176606486
 31
0.0
  0
LINE
  5
A9
  8
0
 10
105.1771540516229066
 20
52.1752147823392534
 30
0.0
 11
105.1771540516229066
 21
54.6747852176606486
 31
0.0
  0
LINE
  5
AA
  8
0
 10
119.2600578202774955
 20
152.2264999999999873
 30
0.0
 11
107.2600578202774955
 21
152.2264999999999873
 31
0.0
  0
LINE
  5
AB
  8
0
 10
119.2600578202775949
 20
47.25
 30
0.0
 11
107.2600578202775949
 21
47.25
 31
0.0
  0
LINE
  5
AC
  8
0
 10
118.1865578202774998
 20
153.3000000000000966
 30
0.0
 11
108.3335578202774059
 21
153.2999999999998977
 31
0.0
  0
LINE
  5
AD
  8
0
 10
120.2600578202775949
 20
51.5499999999999474
 30
0.0
 11
106.2600578202775949
 21
51.5499999999999474
 31
0.0
  0
LINE
  5
AE
  8
0
 10
120.2600578202775949
 20
55.3000000000000682
 30
0.0
 11
106.2600578202775949
 21
55.3000000000000682
 31
0.0
  0
LINE
  5
AF
  8
0
 10
128.7300578202776933
 20
30.2999999999999616
 30
0.0
 11
97.790057820277724
 21
30.2999999999999616
 31
0.0
  0
LINE
  5
B0
  8
0
 10
124.8100578202777058
 20
25.0000000000001101
 30
0.0
 11
101.7100578202776973
 21
24.9999999999998899
 31
0.0
  0
LINE
  5
B1
  8
0
 10
123.5784229167353061
 20
45.3000000000000682
 30
0.0
 11
102.9416927238199975
 21
45.3000000000000682
 31
0.0
  0
CIRCLE
  5
B2
  8
0
 10
38.2600578202777371
 20
199.2999999999998977
 30
0.0
 40
9.0
  0
CIRCLE
  5
B9
  8
0
 10
38.2600578202777371
 20
199.2999999999996987
 30
0.0
 40
6.0
  0
CIRCLE
  5
BA
  8
0
 10
38.2600578202777371
 20
199.2999999999998977
 30
0.0
 40
11.2000000000000099
  0
CIRCLE
  5
BB
  8
0
 10
38.2600578202777371
 20
199.2999999999998977
 30
0.0
 40
16.0
  0
TEXT
  5
BC
  8
0
 62
     3
 10
0.0
 20
0.0
 30
0.0
 40
10.0
  1
LSVA32-M12X98-SUS
  7
STANDARD1
  0
LINE
  5
BE
  8
1
 10
38.2600578202776518
 20
22.0
 30
0.0
 11
38.2600578202777513
 21
156.2999999999998977
 31
0.0
  0
LINE
  5
C3
  8
2
 10
45.9100578202776575
 20
25.0
 30
0.0
 11
45.9100578202776575
 21
30.2999999999999616
 31
0.0
  0
LINE
  5
C8
  8
2
 10
30.6100578202776603
 20
25.0
 30
0.0
 11
30.6100578202776603
 21
30.2999999999999616
 31
0.0
  0
LINE
  5
C9
  8
3
 10
43.3130578202778622
 20
57.2999999999999474
 30
0.0
 11
43.3130578202778622
 21
65.2999999999999545
 31
0.0
  0
LINE
  5
CD
  8
3
 10
33.2070578202778108
 20
57.2999999999999474
 30
0.0
 11
33.2070578202777966
 21
65.2999999999998408
 31
0.0
  0
LINE
  5
CE
  8
0
 10
44.2600578202778081
 20
57.2999999999999474
 30
0.0
 11
32.2600578202778081
 21
57.2999999999999474
 31
0.0
  0
LINE
  5
CF
  8
3
 10
33.2070578202778108
 20
57.2999999999999474
 30
0.0
 11
32.2600578202778081
 21
55.6597478852322567
 31
0.0
  0
LINE
  5
D0
  8
3
 10
43.3130578202777983
 20
57.2999999999999474
 30
0.0
 11
44.2600578202778081
 21
55.6597478852322567
 31
0.0
  0
LINE
  5
D1
  8
3
 10
43.3130578202777627
 20
75.2999999999999545
 30
0.0
 11
43.3130578202777627
 21
153.173499999999791
 31
0.0
  0
LINE
  5
D2
  8
3
 10
33.2070578202777114
 20
75.2999999999999545
 30
0.0
 11
33.2070578202777114
 21
153.17349999999999
 31
0.0
  0
LINE
  5
D3
  8
1
 10
113.260057820277396
 20
22.0000000000001101
 30
0.0
 11
113.2600578202774955
 21
156.3000000000000114
 31
0.0
  0
LINE
  5
D4
  8
3
 10
118.3130578202776064
 20
57.3000000000000682
 30
0.0
 11
118.3130578202776064
 21
65.3000000000000682
 31
0.0
  0
LINE
  5
D5
  8
3
 10
108.2070578202774982
 20
57.3000000000000682
 30
0.0
 11
108.2070578202774982
 21
65.2999999999999545
 31
0.0
  0
LINE
  5
D6
  8
0
 10
119.2600578202774955
 20
57.3000000000000682
 30
0.0
 11
107.2600578202774955
 21
57.3000000000000682
 31
0.0
  0
LINE
  5
D7
  8
3
 10
108.2070578202774982
 20
57.3000000000000682
 30
0.0
 11
107.2600578202774955
 21
55.6597478852323775
 31
0.0
  0
LINE
  5
D8
  8
3
 10
118.3130578202775069
 20
57.3000000000000682
 30
0.0
 11
119.2600578202774955
 21
55.6597478852323775
 31
0.0
  0
LINE
  5
D9
  8
3
 10
118.3130578202775069
 20
75.3000000000000682
 30
0.0
 11
118.3130578202775069
 21
153.17349999999999
 31
0.0
  0
LINE
  5
DA
  8
3
 10
108.2070578202773987
 20
75.3000000000000682
 30
0.0
 11
108.2070578202773987
 21
153.1735000000001037
 31
0.0
  0
LINE
  5
DB
  8
0
 10
54.2600578202777228
 20
35.2999999999999616
 30
0.0
 11
22.2600578202777406
 21
35.2999999999999616
 31
0.0
  0
LINE
  5
DC
  8
0
 10
27.0600578202777307
 20
40.2999999999998408
 30
0.0
 11
49.460057820277747
 21
40.2999999999998408
 31
0.0
  0
ARC
  5
DD
  8
0
 10
38.2600578202777371
 20
199.2999999999996987
 30
0.0
 40
10.3183650964576401
 50
337.0269431882675235
 51
22.9730568116900784
  0
ARC
  5
DE
  8
0
 10
38.2600578202777371
 20
199.2999999999996987
 30
0.0
 40
10.3183650964576401
 50
37.0269431883143199
 51
82.9730568116841312
  0
ARC
  5
DF
  8
0
 10
38.2600578202777371
 20
199.2999999999996987
 30
0.0
 40
10.3183650964576401
 50
97.0269431883144904
 51
142.9730568116856944
  0
ARC
  5
E0
  8
0
 10
38.2600578202777371
 20
199.2999999999996987
 30
0.0
 40
10.3183650964576401
 50
157.0269431883102982
 51
202.9730568116899008
  0
ARC
  5
E1
  8
0
 10
38.2600578202777371
 20
199.2999999999996987
 30
0.0
 40
10.3183650964576401
 50
217.0269431883062055
 51
262.973056811696722
  0
ARC
  5
E2
  8
0
 10
38.2600578202777371
 20
199.2999999999996987
 30
0.0
 40
10.3183650964576401
 50
277.0269431883048128
 51
322.9730568133264228
  0
CIRCLE
  5
E3
  8
3
 10
38.2600578202777371
 20
199.2999999999996987
 30
0.0
 40
5.052999999999999
  0
LINE
  5
E4
  8
1
 10
57.2600578202776873
 20
199.2999999999996987
 30
0.0
 11
19.260057820277801
 21
199.2999999999996987
 31
0.0
  0
LINE
  5
E5
  8
1
 10
38.2600578202777371
 20
218.2999999999996987
 30
0.0
 11
38.2600578202777371
 21
180.2999999999998124
 31
0.0
  0
ARC
  5
E6
  8
0
 10
34.7600578202777513
 20
61.6592407610376085
 30
0.0
 40
10.1092407610377606
 50
249.7438419995824859
 51
290.256158000417372
  0
ARC
  5
E7
  8
0
 10
41.7600578202779005
 20
61.6592407610383972
 30
0.0
 40
10.1092407610385706
 50
249.7438419995831964
 51
290.2561580004150983
  0
ARC
  5
E8
  8
0
 10
41.7600578202777086
 20
45.1907592389637784
 30
0.0
 40
10.1092407610361796
 50
69.7438419995794447
 51
110.2561580004203989
  0
ARC
  5
E9
  8
0
 10
34.7600578202777086
 20
45.1907592389642332
 30
0.0
 40
10.1092407610357302
 50
69.7438419995789758
 51
110.2561580004208963
  0
ARC
  5
EA
  8
0
 10
33.5100578202777228
 20
79.3105848406274845
 30
0.0
 40
13.7217720701433201
 50
249.7470597414894939
 51
290.2529402585105913
  0
ARC
  5
EB
  8
0
 10
43.0100578202777086
 20
79.3105848406274845
 30
0.0
 40
13.7217720701433397
 50
249.7470597414892097
 51
290.2529402585108187
  0
ARC
  5
EC
  8
0
 10
43.0100578202775878
 20
61.289415159373327
 30
0.0
 40
13.72177207014232
 50
69.7470597414874192
 51
110.2529402585114013
  0
ARC
  5
ED
  8
0
 10
33.5100578202778934
 20
61.289415159373327
 30
0.0
 40
13.7217720701423094
 50
69.7470597414886981
 51
110.2529402585124956
  0
ARC
  5
EE
  8
0
 10
105.0328164843257071
 20
70.1544740192687186
 30
0.0
 40
4.8567132439917344
 50
55.6209999762337191
 51
115.6209999762498057
  0
ARC
  5
EF
  8
0
 10
113.2600578202776944
 20
56.8477600170600681
 30
0.0
 40
18.1630009638008616
 50
72.4235519873332265
 51
107.5764480126668019
  0
ARC
  5
F0
  8
0
 10
105.0328164843257071
 20
70.4455259807309631
 30
0.0
 40
4.85671324399142
 50
244.3790000237486026
 51
304.3790000237672757
  0
ARC
  5
F1
  8
0
 10
113.2600578202776944
 20
83.7523091316448927
 30
0.0
 40
18.1630668843021716
 50
252.4236178581228955
 51
287.5763821418768202
  0
ARC
  5
F2
  8
0
 10
121.487299156229497
 20
70.1544740192691734
 30
0.0
 40
4.8567132439917344
 50
64.3790000237531075
 51
124.3790000237725053
  0
ARC
  5
F3
  8
0
 10
121.4872991562293976
 20
70.4455259807314178
 30
0.0
 40
4.85671324399142
 50
235.620999976234998
 51
295.6209999762568827
  0
ARC
  5
F4
  8
0
 10
107.1978799937866
 20
51.7218481522083877
 30
0.0
 40
3.5781518477917
 50
55.6157525319499015
 51
115.6157525319607942
  0
ARC
  5
F5
  8
0
 10
107.1978799937866
 20
55.1281518477922035
 30
0.0
 40
3.5781518477922458
 50
244.3842474680376995
 51
304.3842474680420764
  0
ARC
  5
F6
  8
0
 10
113.2600578202778934
 20
41.9252147823403902
 30
0.0
 40
13.3747852176596798
 50
72.4120462260062254
 51
107.5879537739972989
  0
ARC
  5
F7
  8
0
 10
113.260057820277396
 20
64.9247852176592914
 30
0.0
 40
13.3747852176593405
 50
252.4120462260061117
 51
287.5879537739974126
  0
ARC
  5
F8
  8
0
 10
119.3222356467685046
 20
51.7218481522086222
 30
0.0
 40
3.5781518477917
 50
64.3842474680413517
 51
124.3842474680518961
  0
ARC
  5
F9
  8
0
 10
119.3222356467684051
 20
55.1281518477924166
 30
0.0
 40
3.5781518477922458
 50
235.6157525319597994
 51
295.6157525319674164
  0
LINE
  5
FA
  8
0
 10
124.4600578202776973
 20
40.3000000000000682
 30
0.0
 11
102.0600578202777058
 21
40.3000000000000682
 31
0.0
  0
LINE
  5
FB
  8
0
 10
97.2600578202777086
 20
35.2999999999999616
 30
0.0
 11
129.2600578202776944
 21
35.2999999999999616
 31
0.0
  0
LINE
  5
FC
  8
2
 10
120.9100578202777001
 20
25.0000000000001101
 30
0.0
 11
120.9100578202777001
 21
30.3000000000000718
 31
0.0
  0
LINE
  5
FD
  8
2
 10
105.6100578202777029
 20
25.0000000000001101
 30
0.0
 11
105.6100578202777029
 21
30.3000000000000718
 31
0.0
  0
POLYLINE
  5
121
  8
0
 66
     1
 10
0.0
 20
0.0
 30
0.0
  0
VERTEX
  5
1C6
  8
0
 10
28.7600578202777513
 20
193.815172442698497
 30
0.0
  0
VERTEX
  5
1C7
  8
0
 10
28.9356656028533017
 20
193.7137852421568027
 30
0.0
  0
VERTEX
  5
1C8
  8
0
 10
29.1113414535195716
 20
193.6123587424845027
 30
0.0
  0
VERTEX
  5
1C9
  8
0
 10
29.2871534403672307
 20
193.5108536445511902
 30
0.0
  0
VERTEX
  5
1CA
  8
0
 10
29.4631696314869984
 20
193.4092306492264868
 30
0.0
  0
VERTEX
  5
1CB
  8
0
 10
29.6394580949695587
 20
193.3074504573797867
 30
0.0
  0
VERTEX
  5
1CC
  8
0
 10
29.8160868989056596
 20
193.205473769880598
 30
0.0
  0
VERTEX
  5
1CD
  8
0
 10
29.9931241113859492
 20
193.103261287598599
 30
0.0
  0
VERTEX
  5
1CE
  8
0
 10
30.1706225926025908
 20
193.0007824916874029
 30
0.0
  0
VERTEX
  5
1CF
  8
0
 10
30.3485721029247202
 20
192.8980432940007859
 30
0.0
  0
VERTEX
  5
1D0
  8
0
 10
30.5269460397236116
 20
192.7950590535735103
 30
0.0
  0
VERTEX
  5
1D1
  8
0
 10
30.7057178003419615
 20
192.6918451294569934
 30
0.0
  0
VERTEX
  5
1D2
  8
0
 10
30.8848607821224093
 20
192.5884168807025958
 30
0.0
  0
VERTEX
  5
1D3
  8
0
 10
31.0643483824076085
 20
192.4847896663617917
 30
0.0
  0
VERTEX
  5
1D4
  8
0
 10
31.2441539985402095
 20
192.3809788454857994
 30
0.0
  0
VERTEX
  5
1D5
  8
0
 10
31.4242523948813606
 20
192.2769989878775903
 30
0.0
  0
VERTEX
  5
1D6
  8
0
 10
31.6046241844326516
 20
192.1728612866259027
 30
0.0
  0
VERTEX
  5
1D7
  8
0
 10
31.785251544026881
 20
192.0685760319412054
 30
0.0
  0
VERTEX
  5
1D8
  8
0
 10
31.966116650513321
 20
191.9641535140241899
 30
0.0
  0
VERTEX
  5
1D9
  8
0
 10
32.1472016807413112
 20
191.8596040230758888
 30
0.0
  0
VERTEX
  5
1DA
  8
0
 10
32.3284888115600992
 20
191.7549378492971073
 30
0.0
  0
VERTEX
  5
1DB
  8
0
 10
32.5099602198189928
 20
191.6501652828885938
 30
0.0
  0
VERTEX
  5
1DC
  8
0
 10
32.6915968862144766
 20
191.5452973046504042
 30
0.0
  0
VERTEX
  5
1DD
  8
0
 10
32.873371244206993
 20
191.4403498301315949
 30
0.0
  0
VERTEX
  5
1DE
  8
0
 10
33.0552520081121131
 20
191.3353409221305981
 30
0.0
  0
VERTEX
  5
1DF
  8
0
 10
33.2372078769683128
 20
191.2302886522658127
 30
0.0
  0
VERTEX
  5
1E0
  8
0
 10
33.4192075498140113
 20
191.1252110921558938
 30
0.0
  0
VERTEX
  5
1E1
  8
0
 10
33.6012197256877272
 20
191.020126313419496
 30
0.0
  0
VERTEX
  5
1E2
  8
0
 10
33.7832131036278724
 20
190.9150523876749901
 30
0.0
  0
VERTEX
  5
1E3
  8
0
 10
33.9651565691534927
 20
190.8100072788764976
 30
0.0
  0
VERTEX
  5
1E4
  8
0
 10
34.1470213572279704
 20
190.7050075945255969
 30
0.0
  0
VERTEX
  5
1E5
  8
0
 10
34.3287803095275805
 20
190.6000690144877865
 30
0.0
  0
VERTEX
  5
1E6
  8
0
 10
34.5104062989063465
 20
190.4952072006281014
 30
0.0
  0
VERTEX
  5
1E7
  8
0
 10
34.6918721982182419
 20
190.3904378148116905
 30
0.0
  0
VERTEX
  5
1E8
  8
0
 10
34.87315088031729
 20
190.2857765189035035
 30
0.0
  0
VERTEX
  5
1E9
  8
0
 10
35.0542155763474668
 20
190.1812387679098038
 30
0.0
  0
VERTEX
  5
1EA
  8
0
 10
35.2350464036667219
 20
190.07683604107919
 30
0.0
  0
VERTEX
  5
1EB
  8
0
 10
35.4156296881200987
 20
189.972576233188903
 30
0.0
  0
VERTEX
  5
1EC
  8
0
 10
35.5959519778410822
 20
189.8684671106776136
 30
0.0
  0
VERTEX
  5
1ED
  8
0
 10
35.7759998209630794
 20
189.7645164399841065
 30
0.0
  0
VERTEX
  5
1EE
  8
0
 10
35.9557597656194829
 20
189.6607319875471944
 30
0.0
  0
VERTEX
  5
1EF
  8
0
 10
36.1352181715575611
 20
189.5571216285705134
 30
0.0
  0
VERTEX
  5
1F0
  8
0
 10
36.3143553450960823
 20
189.4536967332061863
 30
0.0
  0
VERTEX
  5
1F1
  8
0
 10
36.4931443936860092
 20
189.3504728278747109
 30
0.0
  0
VERTEX
  5
1F2
  8
0
 10
36.6715580051452434
 20
189.2474656812715921
 30
0.0
  0
VERTEX
  5
1F3
  8
0
 10
36.8495688672917581
 20
189.1446910620925905
 30
0.0
  0
VERTEX
  5
1F4
  8
0
 10
37.0271496679435685
 20
189.0421647390332964
 30
0.0
  0
VERTEX
  5
1F5
  8
0
 10
37.2042732736212471
 20
188.9399023776155957
 30
0.0
  0
VERTEX
  5
1F6
  8
0
 10
37.3809432062013727
 20
188.8379019444826952
 30
0.0
  0
VERTEX
  5
1F7
  8
0
 10
37.5572281343429495
 20
188.7361237937660974
 30
0.0
  0
VERTEX
  5
1F8
  8
0
 10
37.7332050589336632
 20
188.6345234689825077
 30
0.0
  0
VERTEX
  5
1F9
  8
0
 10
37.9089509808612135
 20
188.533056513648603
 30
0.0
  0
VERTEX
  5
1FA
  8
0
 10
38.0845429010133429
 20
188.4316784712812023
 30
0.0
  0
VERTEX
  5
1FB
  8
0
 10
38.2600578202777726
 20
188.33034488539721
 30
0.0
  0
SEQEND
  5
1FC
  8
0
  0
POLYLINE
  5
122
  8
0
 66
     1
 10
0.0
 20
0.0
 30
0.0
  0
VERTEX
  5
1FD
  8
0
 10
47.7600578202777371
 20
193.815172442698497
 30
0.0
  0
VERTEX
  5
1FE
  8
0
 10
47.5844500377021831
 20
193.7137852421568027
 30
0.0
  0
VERTEX
  5
1FF
  8
0
 10
47.4087741870359167
 20
193.6123587424845027
 30
0.0
  0
VERTEX
  5
200
  8
0
 10
47.2329622001882612
 20
193.5108536445511902
 30
0.0
  0
VERTEX
  5
201
  8
0
 10
47.0569460090684828
 20
193.4092306492264868
 30
0.0
  0
VERTEX
  5
202
  8
0
 10
46.8806575455858905
 20
193.3074504573797867
 30
0.0
  0
VERTEX
  5
203
  8
0
 10
46.7040287416498288
 20
193.205473769880598
 30
0.0
  0
VERTEX
  5
204
  8
0
 10
46.5269915291695071
 20
193.103261287598599
 30
0.0
  0
VERTEX
  5
205
  8
0
 10
46.3494930479528975
 20
193.0007824916874029
 30
0.0
  0
VERTEX
  5
206
  8
0
 10
46.1715435376307681
 20
192.8980432940007859
 30
0.0
  0
VERTEX
  5
207
  8
0
 10
45.9931696008318767
 20
192.7950590535735103
 30
0.0
  0
VERTEX
  5
208
  8
0
 10
45.8143978402135232
 20
192.6918451294569934
 30
0.0
  0
VERTEX
  5
209
  8
0
 10
45.6352548584330791
 20
192.5884168807025958
 30
0.0
  0
VERTEX
  5
20A
  8
0
 10
45.4557672581478798
 20
192.4847896663617917
 30
0.0
  0
VERTEX
  5
20B
  8
0
 10
45.2759616420152824
 20
192.3809788454857994
 30
0.0
  0
VERTEX
  5
20C
  8
0
 10
45.0958632456741029
 20
192.2769989878775903
 30
0.0
  0
VERTEX
  5
20D
  8
0
 10
44.9154914561228082
 20
192.1728612866259027
 30
0.0
  0
VERTEX
  5
20E
  8
0
 10
44.7348640965285682
 20
192.0685760319412054
 30
0.0
  0
VERTEX
  5
20F
  8
0
 10
44.5539989900421389
 20
191.9641535140241899
 30
0.0
  0
VERTEX
  5
210
  8
0
 10
44.3729139598141415
 20
191.8596040230758888
 30
0.0
  0
VERTEX
  5
211
  8
0
 10
44.1916268289953607
 20
191.7549378492971073
 30
0.0
  0
VERTEX
  5
212
  8
0
 10
44.0101554207364671
 20
191.6501652828885938
 30
0.0
  0
VERTEX
  5
213
  8
0
 10
43.8285187543410117
 20
191.5452973046504042
 30
0.0
  0
VERTEX
  5
214
  8
0
 10
43.6467443963485024
 20
191.4403498301315949
 30
0.0
  0
VERTEX
  5
215
  8
0
 10
43.4648636324433681
 20
191.3353409221305981
 30
0.0
  0
VERTEX
  5
216
  8
0
 10
43.2829077635871826
 20
191.2302886522658127
 30
0.0
  0
VERTEX
  5
217
  8
0
 10
43.1009080907414486
 20
191.1252110921558938
 30
0.0
  0
VERTEX
  5
218
  8
0
 10
42.9188959148677469
 20
191.020126313419496
 30
0.0
  0
VERTEX
  5
219
  8
0
 10
42.7369025369275874
 20
190.9150523876749901
 30
0.0
  0
VERTEX
  5
21A
  8
0
 10
42.5549590714019672
 20
190.8100072788764976
 30
0.0
  0
VERTEX
  5
21B
  8
0
 10
42.3730942833275321
 20
190.7050075945255969
 30
0.0
  0
VERTEX
  5
21C
  8
0
 10
42.1913353310278723
 20
190.6000690144877865
 30
0.0
  0
VERTEX
  5
21D
  8
0
 10
42.0097093416491276
 20
190.4952072006281014
 30
0.0
  0
VERTEX
  5
21E
  8
0
 10
41.8282434423372109
 20
190.3904378148116905
 30
0.0
  0
VERTEX
  5
21F
  8
0
 10
41.6469647602381912
 20
190.2857765189035035
 30
0.0
  0
VERTEX
  5
220
  8
0
 10
41.4659000642080429
 20
190.1812387679098038
 30
0.0
  0
VERTEX
  5
221
  8
0
 10
41.2850692368887877
 20
190.0768360410793036
 30
0.0
  0
VERTEX
  5
222
  8
0
 10
41.104485952435418
 20
189.972576233188903
 30
0.0
  0
VERTEX
  5
223
  8
0
 10
40.9241636627144416
 20
189.8684671106776136
 30
0.0
  0
VERTEX
  5
224
  8
0
 10
40.7441158195924373
 20
189.7645164399841065
 30
0.0
  0
VERTEX
  5
225
  8
0
 10
40.5643558749360622
 20
189.6607319875473081
 30
0.0
  0
VERTEX
  5
226
  8
0
 10
40.3848974689979201
 20
189.5571216285705134
 30
0.0
  0
VERTEX
  5
227
  8
0
 10
40.2057602954593989
 20
189.4536967332061863
 30
0.0
  0
VERTEX
  5
228
  8
0
 10
40.0269712468694934
 20
189.3504728278747109
 30
0.0
  0
VERTEX
  5
229
  8
0
 10
39.848557635410252
 20
189.2474656812715921
 30
0.0
  0
VERTEX
  5
22A
  8
0
 10
39.6705467732637302
 20
189.1446910620925905
 30
0.0
  0
VERTEX
  5
22B
  8
0
 10
39.4929659726119198
 20
189.0421647390332964
 30
0.0
  0
VERTEX
  5
22C
  8
0
 10
39.3158423669342412
 20
188.9399023776155957
 30
0.0
  0
VERTEX
  5
22D
  8
0
 10
39.1391724343541227
 20
188.8379019444826952
 30
0.0
  0
VERTEX
  5
22E
  8
0
 10
38.962887506212553
 20
188.7361237937660974
 30
0.0
  0
VERTEX
  5
22F
  8
0
 10
38.7869105816218607
 20
188.6345234689825077
 30
0.0
  0
VERTEX
  5
230
  8
0
 10
38.6111646596943103
 20
188.533056513648603
 30
0.0
  0
VERTEX
  5
231
  8
0
 10
38.4355727395421809
 20
188.4316784712812023
 30
0.0
  0
VERTEX
  5
232
  8
0
 10
38.2600578202777726
 20
188.33034488539721
 30
0.0
  0
SEQEND
  5
233
  8
0
  0
POLYLINE
  5
123
  8
0
 66
     1
 10
0.0
 20
0.0
 30
0.0
  0
VERTEX
  5
234
  8
0
 10
47.7600578202777371
 20
193.815172442698497
 30
0.0
  0
VERTEX
  5
235
  8
0
 10
47.7600578202777371
 20
194.0178755462449942
 30
0.0
  0
VERTEX
  5
236
  8
0
 10
47.7600578202777371
 20
194.2206636415959053
 30
0.0
  0
VERTEX
  5
237
  8
0
 10
47.7600578202777371
 20
194.4236217205553885
 30
0.0
  0
VERTEX
  5
238
  8
0
 10
47.7600578202777371
 20
194.6268347749281133
 30
0.0
  0
VERTEX
  5
239
  8
0
 10
47.7600578202777371
 20
194.8303877965182096
 30
0.0
  0
VERTEX
  5
23A
  8
0
 10
47.7600578202777371
 20
195.0343657771302048
 30
0.0
  0
VERTEX
  5
23B
  8
0
 10
47.7600578202777371
 20
195.2388517191982089
 30
0.0
  0
VERTEX
  5
23C
  8
0
 10
47.7600578202777371
 20
195.4438748990442889
 30
0.0
  0
VERTEX
  5
23D
  8
0
 10
47.7600578202777371
 20
195.6494060260644119
 30
0.0
  0
VERTEX
  5
23E
  8
0
 10
47.7600578202777371
 20
195.8554128498614944
 30
0.0
  0
VERTEX
  5
23F
  8
0
 10
47.7600578202777371
 20
196.0618631200387938
 30
0.0
  0
VERTEX
  5
240
  8
0
 10
47.7600578202777371
 20
196.2687245861993972
 30
0.0
  0
VERTEX
  5
241
  8
0
 10
47.7600578202777371
 20
196.4759649979465053
 30
0.0
  0
VERTEX
  5
242
  8
0
 10
47.7600578202777371
 20
196.6835536672747082
 30
0.0
  0
VERTEX
  5
243
  8
0
 10
47.7600578202777371
 20
196.8914702685196119
 30
0.0
  0
VERTEX
  5
244
  8
0
 10
47.7600578202777371
 20
197.0996986942548119
 30
0.0
  0
VERTEX
  5
245
  8
0
 10
47.7600578202777371
 20
197.3082228493520915
 30
0.0
  0
VERTEX
  5
246
  8
0
 10
47.7600578202777371
 20
197.5170266386832054
 30
0.0
  0
VERTEX
  5
247
  8
0
 10
47.7600578202777371
 20
197.7260939671197946
 30
0.0
  0
VERTEX
  5
248
  8
0
 10
47.7600578202777371
 20
197.9354087135394025
 30
0.0
  0
VERTEX
  5
249
  8
0
 10
47.7600578202777371
 20
198.1449494447334132
 30
0.0
  0
VERTEX
  5
24A
  8
0
 10
47.7600578202777371
 20
198.3546829716397895
 30
0.0
  0
VERTEX
  5
24B
  8
0
 10
47.7600578202777371
 20
198.5645745293429911
 30
0.0
  0
VERTEX
  5
24C
  8
0
 10
47.7600578202777371
 20
198.7745893529269949
 30
0.0
  0
VERTEX
  5
24D
  8
0
 10
47.7600578202777371
 20
198.9846926774760902
 30
0.0
  0
VERTEX
  5
24E
  8
0
 10
47.7600578202777371
 20
199.1948497380745948
 30
0.0
  0
VERTEX
  5
24F
  8
0
 10
47.7600578202777371
 20
199.4050257555053918
 30
0.0
  0
VERTEX
  5
250
  8
0
 10
47.7600578202777371
 20
199.6151854188927075
 30
0.0
  0
VERTEX
  5
251
  8
0
 10
47.7600578202777371
 20
199.8252927404541026
 30
0.0
  0
VERTEX
  5
252
  8
0
 10
47.7600578202777371
 20
200.0353116885241036
 30
0.0
  0
VERTEX
  5
253
  8
0
 10
47.7600578202777371
 20
200.2452062314374928
 30
0.0
  0
VERTEX
  5
254
  8
0
 10
47.7600578202777371
 20
200.4549403375287966
 30
0.0
  0
VERTEX
  5
255
  8
0
 10
47.7600578202777371
 20
200.6644779751327974
 30
0.0
  0
VERTEX
  5
256
  8
0
 10
47.7600578202777371
 20
200.8737840771993888
 30
0.0
  0
VERTEX
  5
257
  8
0
 10
47.7600578202777371
 20
201.0828373268946052
 30
0.0
  0
VERTEX
  5
258
  8
0
 10
47.7600578202777371
 20
201.2916266533943883
 30
0.0
  0
VERTEX
  5
259
  8
0
 10
47.7600578202777371
 20
201.5001412305830115
 30
0.0
  0
VERTEX
  5
25A
  8
0
 10
47.7600578202777371
 20
201.7083702323444925
 30
0.0
  0
VERTEX
  5
25B
  8
0
 10
47.7600578202777371
 20
201.916299976639209
 30
0.0
  0
VERTEX
  5
25C
  8
0
 10
47.7600578202777371
 20
202.1238905387698139
 30
0.0
  0
VERTEX
  5
25D
  8
0
 10
47.7600578202777371
 20
202.331087871167
 30
0.0
  0
VERTEX
  5
25E
  8
0
 10
47.7600578202777371
 20
202.5378377900333078
 30
0.0
  0
VERTEX
  5
25F
  8
0
 10
47.7600578202777371
 20
202.7440861115713915
 30
0.0
  0
VERTEX
  5
260
  8
0
 10
47.7600578202777371
 20
202.9497902491536934
 30
0.0
  0
VERTEX
  5
261
  8
0
 10
47.7600578202777371
 20
203.1549796927170064
 30
0.0
  0
VERTEX
  5
262
  8
0
 10
47.7600578202777371
 20
203.3597115800480992
 30
0.0
  0
VERTEX
  5
263
  8
0
 10
47.7600578202777371
 20
203.5640431056760065
 30
0.0
  0
VERTEX
  5
264
  8
0
 10
47.7600578202777371
 20
203.7680314641297059
 30
0.0
  0
VERTEX
  5
265
  8
0
 10
47.7600578202777371
 20
203.971733849938289
 30
0.0
  0
VERTEX
  5
266
  8
0
 10
47.7600578202777371
 20
204.1752074576307052
 30
0.0
  0
VERTEX
  5
267
  8
0
 10
47.7600578202777371
 20
204.3785094817359891
 30
0.0
  0
VERTEX
  5
268
  8
0
 10
47.7600578202777371
 20
204.5816971167832889
 30
0.0
  0
VERTEX
  5
269
  8
0
 10
47.7600578202777371
 20
204.7848275573014973
 30
0.0
  0
SEQEND
  5
26A
  8
0
  0
POLYLINE
  5
124
  8
0
 66
     1
 10
0.0
 20
0.0
 30
0.0
  0
VERTEX
  5
26B
  8
0
 10
47.7600578202777371
 20
204.7848275573014973
 30
0.0
  0
VERTEX
  5
26C
  8
0
 10
47.5844500377021831
 20
204.8862147578431916
 30
0.0
  0
VERTEX
  5
26D
  8
0
 10
47.4087741870359167
 20
204.9876412575156053
 30
0.0
  0
VERTEX
  5
26E
  8
0
 10
47.2329622001882612
 20
205.0891463554488041
 30
0.0
  0
VERTEX
  5
26F
  8
0
 10
47.0569460090684828
 20
205.1907693507735928
 30
0.0
  0
VERTEX
  5
270
  8
0
 10
46.8806575455858905
 20
205.2925495426202076
 30
0.0
  0
VERTEX
  5
271
  8
0
 10
46.7040287416498288
 20
205.3945262301193111
 30
0.0
  0
VERTEX
  5
272
  8
0
 10
46.5269915291695071
 20
205.4967387124013953
 30
0.0
  0
VERTEX
  5
273
  8
0
 10
46.3494930479528975
 20
205.5992175083125915
 30
0.0
  0
VERTEX
  5
274
  8
0
 10
46.1715435376307681
 20
205.7019567059992085
 30
0.0
  0
VERTEX
  5
275
  8
0
 10
45.9931696008318767
 20
205.8049409464263988
 30
0.0
  0
VERTEX
  5
276
  8
0
 10
45.8143978402135232
 20
205.9081548705428872
 30
0.0
  0
VERTEX
  5
277
  8
0
 10
45.6352548584330791
 20
206.0115831192973133
 30
0.0
  0
VERTEX
  5
278
  8
0
 10
45.4557672581478798
 20
206.1152103336382027
 30
0.0
  0
VERTEX
  5
279
  8
0
 10
45.2759616420152824
 20
206.2190211545141949
 30
0.0
  0
VERTEX
  5
27A
  8
0
 10
45.0958632456741029
 20
206.3230010121222904
 30
0.0
  0
VERTEX
  5
27B
  8
0
 10
44.9154914561228082
 20
206.4271387133740063
 30
0.0
  0
VERTEX
  5
27C
  8
0
 10
44.7348640965285682
 20
206.5314239680587889
 30
0.0
  0
VERTEX
  5
27D
  8
0
 10
44.5539989900421389
 20
206.6358464859756907
 30
0.0
  0
VERTEX
  5
27E
  8
0
 10
44.3729139598141415
 20
206.7403959769241055
 30
0.0
  0
VERTEX
  5
27F
  8
0
 10
44.1916268289953607
 20
206.845062150702887
 30
0.0
  0
VERTEX
  5
280
  8
0
 10
44.0101554207364671
 20
206.9498347171114006
 30
0.0
  0
VERTEX
  5
281
  8
0
 10
43.8285187543410117
 20
207.0547026953495902
 30
0.0
  0
VERTEX
  5
282
  8
0
 10
43.6467443963485024
 20
207.1596501698683142
 30
0.0
  0
VERTEX
  5
283
  8
0
 10
43.4648636324433681
 20
207.264659077869311
 30
0.0
  0
VERTEX
  5
284
  8
0
 10
43.2829077635871826
 20
207.3697113477340963
 30
0.0
  0
VERTEX
  5
285
  8
0
 10
43.1009080907414486
 20
207.4747889078439869
 30
0.0
  0
VERTEX
  5
286
  8
0
 10
42.9188959148677469
 20
207.5798736865804983
 30
0.0
  0
VERTEX
  5
287
  8
0
 10
42.7369025369275874
 20
207.6849476123248905
 30
0.0
  0
VERTEX
  5
288
  8
0
 10
42.5549590714019672
 20
207.7899927211234967
 30
0.0
  0
VERTEX
  5
289
  8
0
 10
42.3730942833274895
 20
207.8949924054743121
 30
0.0
  0
VERTEX
  5
28A
  8
0
 10
42.1913353310278723
 20
207.9999309855122078
 30
0.0
  0
VERTEX
  5
28B
  8
0
 10
42.0097093416491276
 20
208.1047927993718929
 30
0.0
  0
VERTEX
  5
28C
  8
0
 10
41.8282434423372109
 20
208.2095621851883891
 30
0.0
  0
VERTEX
  5
28D
  8
0
 10
41.6469647602381912
 20
208.3142234810966045
 30
0.0
  0
VERTEX
  5
28E
  8
0
 10
41.4659000642080215
 20
208.4187612320903042
 30
0.0
  0
VERTEX
  5
28F
  8
0
 10
41.2850692368887735
 20
208.5231639589208044
 30
0.0
  0
VERTEX
  5
290
  8
0
 10
41.1044859524353825
 20
208.6274237668110914
 30
0.0
  0
VERTEX
  5
291
  8
0
 10
40.9241636627144132
 20
208.7315328893224091
 30
0.0
  0
VERTEX
  5
292
  8
0
 10
40.7441158195924231
 20
208.8354835600158879
 30
0.0
  0
VERTEX
  5
293
  8
0
 10
40.5643558749359983
 20
208.9392680124527999
 30
0.0
  0
VERTEX
  5
294
  8
0
 10
40.3848974689979201
 20
209.0428783714295093
 30
0.0
  0
VERTEX
  5
295
  8
0
 10
40.2057602954593989
 20
209.146303266793808
 30
0.0
  0
VERTEX
  5
296
  8
0
 10
40.0269712468694934
 20
209.2495271721253971
 30
0.0
  0
VERTEX
  5
297
  8
0
 10
39.848557635410252
 20
209.3525343187284875
 30
0.0
  0
VERTEX
  5
298
  8
0
 10
39.6705467732637018
 20
209.4553089379074891
 30
0.0
  0
VERTEX
  5
299
  8
0
 10
39.4929659726119198
 20
209.5578352609666979
 30
0.0
  0
VERTEX
  5
29A
  8
0
 10
39.3158423669342412
 20
209.6600976223845123
 30
0.0
  0
VERTEX
  5
29B
  8
0
 10
39.1391724343541227
 20
209.7620980555172991
 30
0.0
  0
VERTEX
  5
29C
  8
0
 10
38.962887506212553
 20
209.8638762062340106
 30
0.0
  0
VERTEX
  5
29D
  8
0
 10
38.7869105816218607
 20
209.9654765310174866
 30
0.0
  0
VERTEX
  5
29E
  8
0
 10
38.6111646596943103
 20
210.0669434863513914
 30
0.0
  0
VERTEX
  5
29F
  8
0
 10
38.4355727395421809
 20
210.168321528718792
 30
0.0
  0
VERTEX
  5
2A0
  8
0
 10
38.2600578202777726
 20
210.269655114602898
 30
0.0
  0
SEQEND
  5
2A1
  8
0
  0
POLYLINE
  5
125
  8
0
 66
     1
 10
0.0
 20
0.0
 30
0.0
  0
VERTEX
  5
2A2
  8
0
 10
28.7600578202777513
 20
204.7848275573014973
 30
0.0
  0
VERTEX
  5
2A3
  8
0
 10
28.9356656028533017
 20
204.8862147578431916
 30
0.0
  0
VERTEX
  5
2A4
  8
0
 10
29.1113414535195716
 20
204.9876412575156053
 30
0.0
  0
VERTEX
  5
2A5
  8
0
 10
29.2871534403672591
 20
205.0891463554488041
 30
0.0
  0
VERTEX
  5
2A6
  8
0
 10
29.4631696314870304
 20
205.1907693507735928
 30
0.0
  0
VERTEX
  5
2A7
  8
0
 10
29.6394580949695907
 20
205.2925495426202076
 30
0.0
  0
VERTEX
  5
2A8
  8
0
 10
29.8160868989056596
 20
205.3945262301193964
 30
0.0
  0
VERTEX
  5
2A9
  8
0
 10
29.9931241113859492
 20
205.4967387124013953
 30
0.0
  0
VERTEX
  5
2AA
  8
0
 10
30.1706225926025908
 20
205.5992175083125915
 30
0.0
  0
VERTEX
  5
2AB
  8
0
 10
30.3485721029247202
 20
205.7019567059992085
 30
0.0
  0
VERTEX
  5
2AC
  8
0
 10
30.5269460397236116
 20
205.8049409464265125
 30
0.0
  0
VERTEX
  5
2AD
  8
0
 10
30.7057178003419615
 20
205.9081548705430009
 30
0.0
  0
VERTEX
  5
2AE
  8
0
 10
30.8848607821224093
 20
206.0115831192973985
 30
0.0
  0
VERTEX
  5
2AF
  8
0
 10
31.0643483824076085
 20
206.1152103336382027
 30
0.0
  0
VERTEX
  5
2B0
  8
0
 10
31.2441539985402095
 20
206.2190211545141949
 30
0.0
  0
VERTEX
  5
2B1
  8
0
 10
31.4242523948813606
 20
206.3230010121224041
 30
0.0
  0
VERTEX
  5
2B2
  8
0
 10
31.6046241844326516
 20
206.4271387133740916
 30
0.0
  0
VERTEX
  5
2B3
  8
0
 10
31.785251544026881
 20
206.5314239680587889
 30
0.0
  0
VERTEX
  5
2B4
  8
0
 10
31.966116650513321
 20
206.6358464859756907
 30
0.0
  0
VERTEX
  5
2B5
  8
0
 10
32.1472016807413112
 20
206.7403959769241055
 30
0.0
  0
VERTEX
  5
2B6
  8
0
 10
32.3284888115600992
 20
206.845062150702887
 30
0.0
  0
VERTEX
  5
2B7
  8
0
 10
32.5099602198189928
 20
206.9498347171114006
 30
0.0
  0
VERTEX
  5
2B8
  8
0
 10
32.6915968862144766
 20
207.0547026953495902
 30
0.0
  0
VERTEX
  5
2B9
  8
0
 10
32.873371244206993
 20
207.1596501698683142
 30
0.0
  0
VERTEX
  5
2BA
  8
0
 10
33.0552520081121131
 20
207.2646590778693962
 30
0.0
  0
VERTEX
  5
2BB
  8
0
 10
33.2372078769683128
 20
207.3697113477340963
 30
0.0
  0
VERTEX
  5
2BC
  8
0
 10
33.4192075498140113
 20
207.4747889078439869
 30
0.0
  0
VERTEX
  5
2BD
  8
0
 10
33.6012197256877272
 20
207.5798736865804983
 30
0.0
  0
VERTEX
  5
2BE
  8
0
 10
33.7832131036278724
 20
207.6849476123248905
 30
0.0
  0
VERTEX
  5
2BF
  8
0
 10
33.9651565691534927
 20
207.7899927211234967
 30
0.0
  0
VERTEX
  5
2C0
  8
0
 10
34.1470213572279704
 20
207.8949924054743121
 30
0.0
  0
VERTEX
  5
2C1
  8
0
 10
34.3287803095275805
 20
207.9999309855122078
 30
0.0
  0
VERTEX
  5
2C2
  8
0
 10
34.5104062989063465
 20
208.1047927993718929
 30
0.0
  0
VERTEX
  5
2C3
  8
0
 10
34.6918721982182419
 20
208.2095621851883891
 30
0.0
  0
VERTEX
  5
2C4
  8
0
 10
34.87315088031729
 20
208.3142234810966045
 30
0.0
  0
VERTEX
  5
2C5
  8
0
 10
35.0542155763474668
 20
208.4187612320903042
 30
0.0
  0
VERTEX
  5
2C6
  8
0
 10
35.2350464036667219
 20
208.5231639589208044
 30
0.0
  0
VERTEX
  5
2C7
  8
0
 10
35.4156296881200987
 20
208.6274237668110914
 30
0.0
  0
VERTEX
  5
2C8
  8
0
 10
35.5959519778410822
 20
208.7315328893224091
 30
0.0
  0
VERTEX
  5
2C9
  8
0
 10
35.7759998209630794
 20
208.8354835600158879
 30
0.0
  0
VERTEX
  5
2CA
  8
0
 10
35.9557597656194829
 20
208.9392680124527999
 30
0.0
  0
VERTEX
  5
2CB
  8
0
 10
36.1352181715575611
 20
209.0428783714295093
 30
0.0
  0
VERTEX
  5
2CC
  8
0
 10
36.3143553450960823
 20
209.146303266793808
 30
0.0
  0
VERTEX
  5
2CD
  8
0
 10
36.4931443936860092
 20
209.2495271721253971
 30
0.0
  0
VERTEX
  5
2CE
  8
0
 10
36.6715580051452434
 20
209.3525343187284875
 30
0.0
  0
VERTEX
  5
2CF
  8
0
 10
36.8495688672917581
 20
209.4553089379074891
 30
0.0
  0
VERTEX
  5
2D0
  8
0
 10
37.0271496679435685
 20
209.5578352609666979
 30
0.0
  0
VERTEX
  5
2D1
  8
0
 10
37.2042732736212471
 20
209.6600976223845123
 30
0.0
  0
VERTEX
  5
2D2
  8
0
 10
37.3809432062013727
 20
209.7620980555172991
 30
0.0
  0
VERTEX
  5
2D3
  8
0
 10
37.5572281343429495
 20
209.8638762062340106
 30
0.0
  0
VERTEX
  5
2D4
  8
0
 10
37.7332050589336276
 20
209.9654765310174866
 30
0.0
  0
VERTEX
  5
2D5
  8
0
 10
37.9089509808611922
 20
210.0669434863513914
 30
0.0
  0
VERTEX
  5
2D6
  8
0
 10
38.0845429010133216
 20
210.168321528718792
 30
0.0
  0
VERTEX
  5
2D7
  8
0
 10
38.2600578202777371
 20
210.269655114602898
 30
0.0
  0
SEQEND
  5
2D8
  8
0
  0
POLYLINE
  5
126
  8
0
 66
     1
 10
0.0
 20
0.0
 30
0.0
  0
VERTEX
  5
2D9
  8
0
 10
28.7600578202777513
 20
193.815172442698497
 30
0.0
  0
VERTEX
  5
2DA
  8
0
 10
28.7600578202777513
 20
194.0178755462449942
 30
0.0
  0
VERTEX
  5
2DB
  8
0
 10
28.7600578202777513
 20
194.2206636415959053
 30
0.0
  0
VERTEX
  5
2DC
  8
0
 10
28.7600578202777513
 20
194.4236217205553885
 30
0.0
  0
VERTEX
  5
2DD
  8
0
 10
28.7600578202777513
 20
194.6268347749281133
 30
0.0
  0
VERTEX
  5
2DE
  8
0
 10
28.7600578202777513
 20
194.8303877965182096
 30
0.0
  0
VERTEX
  5
2DF
  8
0
 10
28.7600578202777513
 20
195.0343657771302048
 30
0.0
  0
VERTEX
  5
2E0
  8
0
 10
28.7600578202777513
 20
195.2388517191982089
 30
0.0
  0
VERTEX
  5
2E1
  8
0
 10
28.7600578202777513
 20
195.4438748990442889
 30
0.0
  0
VERTEX
  5
2E2
  8
0
 10
28.7600578202777513
 20
195.6494060260644119
 30
0.0
  0
VERTEX
  5
2E3
  8
0
 10
28.7600578202777513
 20
195.8554128498614944
 30
0.0
  0
VERTEX
  5
2E4
  8
0
 10
28.7600578202777513
 20
196.0618631200387938
 30
0.0
  0
VERTEX
  5
2E5
  8
0
 10
28.7600578202777513
 20
196.2687245861993972
 30
0.0
  0
VERTEX
  5
2E6
  8
0
 10
28.7600578202777513
 20
196.4759649979465053
 30
0.0
  0
VERTEX
  5
2E7
  8
0
 10
28.7600578202777513
 20
196.6835536672747082
 30
0.0
  0
VERTEX
  5
2E8
  8
0
 10
28.7600578202777513
 20
196.8914702685196119
 30
0.0
  0
VERTEX
  5
2E9
  8
0
 10
28.7600578202777513
 20
197.0996986942548119
 30
0.0
  0
VERTEX
  5
2EA
  8
0
 10
28.7600578202777513
 20
197.3082228493520915
 30
0.0
  0
VERTEX
  5
2EB
  8
0
 10
28.7600578202777513
 20
197.5170266386832054
 30
0.0
  0
VERTEX
  5
2EC
  8
0
 10
28.7600578202777513
 20
197.7260939671197946
 30
0.0
  0
VERTEX
  5
2ED
  8
0
 10
28.7600578202777513
 20
197.9354087135394025
 30
0.0
  0
VERTEX
  5
2EE
  8
0
 10
28.7600578202777513
 20
198.1449494447334132
 30
0.0
  0
VERTEX
  5
2EF
  8
0
 10
28.7600578202777513
 20
198.3546829716397895
 30
0.0
  0
VERTEX
  5
2F0
  8
0
 10
28.7600578202777513
 20
198.5645745293429911
 30
0.0
  0
VERTEX
  5
2F1
  8
0
 10
28.7600578202777513
 20
198.7745893529269949
 30
0.0
  0
VERTEX
  5
2F2
  8
0
 10
28.7600578202777513
 20
198.9846926774760902
 30
0.0
  0
VERTEX
  5
2F3
  8
0
 10
28.7600578202777513
 20
199.1948497380745948
 30
0.0
  0
VERTEX
  5
2F4
  8
0
 10
28.7600578202777513
 20
199.4050257555053918
 30
0.0
  0
VERTEX
  5
2F5
  8
0
 10
28.7600578202777513
 20
199.6151854188927075
 30
0.0
  0
VERTEX
  5
2F6
  8
0
 10
28.7600578202777513
 20
199.8252927404541026
 30
0.0
  0
VERTEX
  5
2F7
  8
0
 10
28.7600578202777513
 20
200.0353116885241036
 30
0.0
  0
VERTEX
  5
2F8
  8
0
 10
28.7600578202777513
 20
200.2452062314374928
 30
0.0
  0
VERTEX
  5
2F9
  8
0
 10
28.7600578202777513
 20
200.4549403375287966
 30
0.0
  0
VERTEX
  5
2FA
  8
0
 10
28.7600578202777513
 20
200.6644779751327974
 30
0.0
  0
VERTEX
  5
2FB
  8
0
 10
28.7600578202777513
 20
200.8737840771993888
 30
0.0
  0
VERTEX
  5
2FC
  8
0
 10
28.7600578202777513
 20
201.0828373268946052
 30
0.0
  0
VERTEX
  5
2FD
  8
0
 10
28.7600578202777513
 20
201.2916266533943883
 30
0.0
  0
VERTEX
  5
2FE
  8
0
 10
28.7600578202777513
 20
201.5001412305830115
 30
0.0
  0
VERTEX
  5
2FF
  8
0
 10
28.7600578202777513
 20
201.7083702323444925
 30
0.0
  0
VERTEX
  5
300
  8
0
 10
28.7600578202777513
 20
201.916299976639209
 30
0.0
  0
VERTEX
  5
301
  8
0
 10
28.7600578202777513
 20
202.1238905387698139
 30
0.0
  0
VERTEX
  5
302
  8
0
 10
28.7600578202777513
 20
202.331087871167
 30
0.0
  0
VERTEX
  5
303
  8
0
 10
28.7600578202777513
 20
202.5378377900333078
 30
0.0
  0
VERTEX
  5
304
  8
0
 10
28.7600578202777513
 20
202.7440861115713915
 30
0.0
  0
VERTEX
  5
305
  8
0
 10
28.7600578202777513
 20
202.9497902491536934
 30
0.0
  0
VERTEX
  5
306
  8
0
 10
28.7600578202777513
 20
203.1549796927170064
 30
0.0
  0
VERTEX
  5
307
  8
0
 10
28.7600578202777513
 20
203.3597115800480992
 30
0.0
  0
VERTEX
  5
308
  8
0
 10
28.7600578202777513
 20
203.5640431056760065
 30
0.0
  0
VERTEX
  5
309
  8
0
 10
28.7600578202777513
 20
203.7680314641297059
 30
0.0
  0
VERTEX
  5
30A
  8
0
 10
28.7600578202777513
 20
203.971733849938289
 30
0.0
  0
VERTEX
  5
30B
  8
0
 10
28.7600578202777513
 20
204.1752074576307052
 30
0.0
  0
VERTEX
  5
30C
  8
0
 10
28.7600578202777513
 20
204.3785094817359891
 30
0.0
  0
VERTEX
  5
30D
  8
0
 10
28.7600578202777513
 20
204.5816971167832889
 30
0.0
  0
VERTEX
  5
30E
  8
0
 10
28.7600578202777513
 20
204.7848275573014973
 30
0.0
  0
SEQEND
  5
30F
  8
0
  0
ENDSEC
  0
EOF
