  0
SECTION
  2
HEADER
  9
$ACADVER
  1
AC1009
  9
$INSBASE
 10
0.0
 20
0.0
 30
0.0
  9
$EXTMIN
 10
0.0
 20
-2.960436562073669
 30
0.0
  9
$EXTMAX
 10
149.0927694406547914
 20
288.2999999999996135
 30
0.0
  9
$LIMMIN
 10
0.0
 20
0.0
  9
$LIMMAX
 10
375.0
 20
270.0
  9
$ORTHOMODE
 70
     1
  9
$REGENMODE
 70
     1
  9
$FILLMODE
 70
     1
  9
$QTEXTMODE
 70
     0
  9
$MIRRTEXT
 70
     0
  9
$DRAGMODE
 70
     2
  9
$LTSCALE
 40
6.0
  9
$OSMODE
 70
    37
  9
$ATTMODE
 70
     1
  9
$TEXTSIZE
 40
0.2
  9
$TRACEWID
 40
0.05
  9
$TEXTSTYLE
  7
STANDARD
  9
$CLAYER
  8
0
  9
$CELTYPE
  6
BYLAYER
  9
$CECOLOR
 62
   256
  9
$DIMSCALE
 40
1.0
  9
$DIMASZ
 40
3.0
  9
$DIMEXO
 40
1.0
  9
$DIMDLI
 40
6.0
  9
$DIMRND
 40
0.0
  9
$DIMDLE
 40
0.0
  9
$DIMEXE
 40
1.0
  9
$DIMTP
 40
495.0
  9
$DIMTM
 40
0.0
  9
$DIMTXT
 40
3.0
  9
$DIMCEN
 40
0.0
  9
$DIMTSZ
 40
0.0
  9
$DIMTOL
 70
     0
  9
$DIMLIM
 70
     0
  9
$DIMTIH
 70
     0
  9
$DIMTOH
 70
     0
  9
$DIMSE1
 70
     0
  9
$DIMSE2
 70
     0
  9
$DIMTAD
 70
     1
  9
$DIMZIN
 70
     0
  9
$DIMBLK
  1

  9
$DIMASO
 70
     0
  9
$DIMSHO
 70
     0
  9
$DIMPOST
  1

  9
$DIMAPOST
  1

  9
$DIMALT
 70
     0
  9
$DIMALTD
 70
     2
  9
$DIMALTF
 40
25.3999999999999986
  9
$DIMLFAC
 40
1.0
  9
$DIMTOFL
 70
     1
  9
$DIMTVP
 40
0.0
  9
$DIMTIX
 70
     1
  9
$DIMSOXD
 70
     0
  9
$DIMSAH
 70
     0
  9
$DIMBLK1
  1

  9
$DIMBLK2
  1

  9
$DIMSTYLE
  2
STANDARD
  9
$DIMCLRD
 70
     0
  9
$DIMCLRE
 70
     0
  9
$DIMCLRT
 70
     4
  9
$DIMTFAC
 40
1.0
  9
$DIMGAP
 40
1.0
  9
$LUNITS
 70
     2
  9
$LUPREC
 70
     4
  9
$SKETCHINC
 40
0.1
  9
$FILLETRAD
 40
0.0
  9
$AUNITS
 70
     0
  9
$AUPREC
 70
     0
  9
$MENU
  1
C:\R13\WIN\SUPPORT\ACAD-I
  9
$ELEVATION
 40
0.0
  9
$PELEVATION
 40
0.0
  9
$THICKNESS
 40
0.0
  9
$LIMCHECK
 70
     0
  9
$BLIPMODE
 70
     0
  9
$CHAMFERA
 40
0.0
  9
$CHAMFERB
 40
0.0
  9
$SKPOLY
 70
     0
  9
$TDCREATE
 40
2451961.7115277778357267
  9
$TDUPDATE
 40
2460580.5715162041597068
  9
$TDINDWG
 40
0.2117160532
  9
$TDUSRTIMER
 40
2456598.1731919101439416
  9
$USRTIMER
 70
     1
  9
$ANGBASE
 50
0.0
  9
$ANGDIR
 70
     0
  9
$PDMODE
 70
     0
  9
$PDSIZE
 40
0.0
  9
$PLINEWID
 40
0.0
  9
$COORDS
 70
     1
  9
$SPLFRAME
 70
     0
  9
$SPLINETYPE
 70
     6
  9
$SPLINESEGS
 70
     8
  9
$ATTDIA
 70
     1
  9
$ATTREQ
 70
     1
  9
$HANDLING
 70
     1
  9
$HANDSEED
  5
39C
  9
$SURFTAB1
 70
     6
  9
$SURFTAB2
 70
     6
  9
$SURFTYPE
 70
     6
  9
$SURFU
 70
     6
  9
$SURFV
 70
     6
  9
$UCSNAME
  2

  9
$UCSORG
 10
0.0
 20
0.0
 30
0.0
  9
$UCSXDIR
 10
1.0
 20
0.0
 30
0.0
  9
$UCSYDIR
 10
0.0
 20
1.0
 30
0.0
  9
$PUCSNAME
  2

  9
$PUCSORG
 10
0.0
 20
0.0
 30
0.0
  9
$PUCSXDIR
 10
1.0
 20
0.0
 30
0.0
  9
$PUCSYDIR
 10
0.0
 20
1.0
 30
0.0
  9
$USERI1
 70
     4
  9
$USERI2
 70
     1
  9
$USERI3
 70
     0
  9
$USERI4
 70
     0
  9
$USERI5
 70
     0
  9
$USERR1
 40
1.0
  9
$USERR2
 40
3.0
  9
$USERR3
 40
3.0
  9
$USERR4
 40
3.0
  9
$USERR5
 40
10.0
  9
$WORLDVIEW
 70
     1
  9
$SHADEDGE
 70
     3
  9
$SHADEDIF
 70
    70
  9
$TILEMODE
 70
     1
  9
$MAXACTVP
 70
    16
  9
$PLIMCHECK
 70
     0
  9
$PEXTMIN
 10
1.0000000000000000E+20
 20
1.0000000000000000E+20
 30
1.0000000000000000E+20
  9
$PEXTMAX
 10
-1.0000000000000000E+20
 20
-1.0000000000000000E+20
 30
-1.0000000000000000E+20
  9
$PLIMMIN
 10
0.0
 20
0.0
  9
$PLIMMAX
 10
12.0
 20
9.0
  9
$UNITMODE
 70
     0
  9
$VISRETAIN
 70
     0
  9
$PLINEGEN
 70
     0
  9
$PSLTSCALE
 70
     0
  0
ENDSEC
  0
SECTION
  2
TABLES
  0
TABLE
  2
VPORT
 70
     1
  0
VPORT
  2
*ACTIVE
 70
     0
 10
0.0
 20
0.0
 11
1.0
 21
1.0
 12
352.2783251231526833
 22
150.0
 13
0.0
 23
0.0
 14
10.0
 24
10.0
 15
10.0
 25
10.0
 16
0.0
 26
0.0
 36
1.0
 17
0.0
 27
0.0
 37
0.0
 40
300.0
 41
2.3485221674876842
 42
50.0
 43
0.0
 44
0.0
 50
0.0
 51
0.0
 71
    16
 72
   100
 73
     1
 74
     0
 75
     0
 76
     0
 77
     0
 78
     0
  0
ENDTAB
  0
TABLE
  2
LTYPE
 70
     3
  0
LTYPE
  2
CONTINUOUS
 70
     0
  3
Solid Line
 72
    65
 73
     0
 40
0.0
  0
LTYPE
  2
CENTER
 70
     0
  3
____ _ ____ _ ____ _ ____ _ ____ _ ____ _ ____
 72
    65
 73
     4
 40
2.0
 49
1.25
 49
-0.25
 49
0.25
 49
-0.25
  0
LTYPE
  2
HIDDEN
 70
     0
  3
Hidden __ __ __ __ __ __ __ __ __ __ __ __ __ __
 72
    65
 73
     2
 40
1.905
 49
1.27
 49
-0.635
  0
ENDTAB
  0
TABLE
  2
LAYER
 70
     4
  0
LAYER
  2
0
 70
     0
 62
     7
  6
CONTINUOUS
  0
LAYER
  2
1
 70
     0
 62
     1
  6
CENTER
  0
LAYER
  2
3
 70
     0
 62
     3
  6
CONTINUOUS
  0
LAYER
  2
2
 70
     0
 62
     2
  6
HIDDEN
  0
ENDTAB
  0
TABLE
  2
STYLE
 70
     2
  0
STYLE
  2
STANDARD
 70
     0
 40
0.0
 41
1.0
 50
0.0
 71
     0
 42
0.2
  3
SIMPLEX
  4
BIGFONT
  0
STYLE
  2
STANDARD1
 70
     0
 40
0.0
 41
1.0
 50
0.0
 71
     0
 42
3.0
  3
txt
  4

  0
ENDTAB
  0
TABLE
  2
VIEW
 70
     0
  0
ENDTAB
  0
TABLE
  2
UCS
 70
     0
  0
ENDTAB
  0
TABLE
  2
APPID
 70
     7
  0
APPID
  2
ACAD
 70
     0
  0
APPID
  2
ACAD_NAV_VCDISPLAY
 70
     0
  0
APPID
  2
ACAECLAYERSTANDARD
 70
     0
  0
APPID
  2
ACCMTRANSPARENCY
 70
     0
  0
APPID
  2
ACAD_TC
 70
     0
  0
APPID
  2
ACAD_EXEMPT_FROM_CAD_STANDARDS
 70
     0
  0
APPID
  2
ACAD_MLEADERVER
 70
     0
  0
ENDTAB
  0
TABLE
  2
DIMSTYLE
 70
     1
  0
DIMSTYLE
  2
STANDARD
 70
     0
  3

  4

  5

  6

  7

 40
1.0
 41
0.18
 42
0.0625
 43
0.38
 44
0.18
 45
0.0
 46
0.0
 47
0.0
 48
0.0
140
0.18
141
0.09
142
0.0
143
25.3999999999999986
144
1.0
145
0.0
146
1.0
147
0.09
 71
     0
 72
     0
 73
     1
 74
     1
 75
     0
 76
     0
 77
     0
 78
     0
170
     0
171
     2
172
     0
173
     0
174
     0
175
     0
176
     0
177
     0
178
     0
  0
ENDTAB
  0
ENDSEC
  0
SECTION
  2
BLOCKS
  0
BLOCK
  8
0
  2
$MODEL_SPACE
 70
     0
 10
0.0
 20
0.0
 30
0.0
  3
$MODEL_SPACE
  1

  0
ENDBLK
  5
F
  8
0
  0
BLOCK
 67
     1
  8
0
  2
$PAPER_SPACE
 70
     0
 10
0.0
 20
0.0
 30
0.0
  3
$PAPER_SPACE
  1

  0
ENDBLK
  5
14
 67
     1
  8
0
  0
ENDSEC
  0
SECTION
  2
ENTITIES
  0
LINE
  5
5B
  8
0
 10
12.9999999999999893
 20
65.5886751345948369
 30
0.0
 11
13.4999999999999893
 21
65.2999999999998408
 31
0.0
  0
LINE
  5
5C
  8
0
 10
36.4999999999999929
 20
65.2999999999998408
 30
0.0
 11
36.9999999999999929
 21
65.5886751345948369
 31
0.0
  0
LINE
  5
5D
  8
0
 10
36.9999999999999929
 20
78.0113248654052995
 30
0.0
 11
36.4999999999999929
 21
78.2999999999998408
 31
0.0
  0
LINE
  5
5E
  8
0
 10
13.4999999999999893
 20
78.2999999999998408
 30
0.0
 11
12.9999999999999893
 21
78.0113248654052995
 31
0.0
  0
LINE
  5
5F
  8
0
 10
32.9999999999999929
 20
222.0730000000000075
 30
0.0
 11
31.7729999999999997
 21
223.3000000000000114
 31
0.0
  0
LINE
  5
60
  8
0
 10
18.2270000000000003
 20
223.3000000000000114
 30
0.0
 11
17.0000000000000107
 21
222.0730000000000075
 31
0.0
  0
LINE
  5
61
  8
0
 10
33.0
 20
50.2999999999999474
 30
0.0
 11
33.0
 21
65.2999999999998408
 31
0.0
  0
LINE
  5
62
  8
0
 10
33.0
 20
78.2999999999998408
 30
0.0
 11
33.0
 21
222.0730000000000075
 31
0.0
  0
LINE
  5
63
  8
0
 10
17.0
 20
222.0730000000000075
 30
0.0
 11
17.0
 21
78.2999999999998408
 31
0.0
  0
LINE
  5
64
  8
0
 10
17.0
 20
65.2999999999998408
 30
0.0
 11
17.0
 21
50.2999999999999474
 31
0.0
  0
ARC
  5
65
  8
0
 10
25.0
 20
42.75
 30
0.0
 40
6.949999999999994
 50
142.3134351266945998
 51
158.4750423903614092
  0
ARC
  5
66
  8
0
 10
25.0
 20
42.75
 30
0.0
 40
6.949999999999994
 50
21.5249576096386086
 51
37.6865648733053504
  0
LINE
  5
67
  8
0
 10
30.5
 20
46.9988233665333084
 30
0.0
 11
30.5
 21
50.2999999999999474
 31
0.0
  0
LINE
  5
68
  8
0
 10
19.5
 20
50.2999999999999474
 30
0.0
 11
19.5
 21
46.9988233665333084
 31
0.0
  0
LINE
  5
69
  8
0
 10
41.0
 20
30.8299999999999308
 30
0.0
 11
41.0
 21
35.2999999999999616
 31
0.0
  0
LINE
  5
6A
  8
0
 10
8.9999999999999964
 20
35.2999999999999616
 30
0.0
 11
8.9999999999999964
 21
30.8299999999999308
 31
0.0
  0
LINE
  5
6B
  8
0
 10
8.9999999999999964
 20
30.8299999999999308
 30
0.0
 11
9.5300000000000011
 21
30.3000000000000718
 31
0.0
  0
LINE
  5
6C
  8
0
 10
40.4699999999999918
 20
30.3000000000000718
 30
0.0
 11
41.0
 21
30.8299999999999308
 31
0.0
  0
LINE
  5
6D
  8
0
 10
40.9999999999999716
 20
35.2999999999999616
 30
0.0
 11
36.2000000000000028
 21
40.2999999999999474
 31
0.0
  0
LINE
  5
6E
  8
0
 10
13.7999999999999901
 20
40.2999999999999474
 30
0.0
 11
9.0000000000000213
 21
35.2999999999999616
 31
0.0
  0
LINE
  5
6F
  8
0
 10
36.5499999999999972
 20
25.0
 30
0.0
 11
36.5499999999999972
 21
30.3000000000000718
 31
0.0
  0
LINE
  5
70
  8
0
 10
13.4499999999999993
 20
30.3000000000000718
 30
0.0
 11
13.4499999999999993
 21
25.0
 31
0.0
  0
LINE
  5
71
  8
0
 10
36.1999999999999886
 20
40.2999999999999474
 30
0.0
 11
35.3183650964576827
 21
45.2999999999999474
 31
0.0
  0
LINE
  5
72
  8
0
 10
14.6816349035423102
 20
45.2999999999999474
 30
0.0
 11
13.8000000000000007
 21
40.2999999999999474
 31
0.0
  0
LINE
  5
73
  8
0
 10
36.4999999999999929
 20
65.2999999999998408
 30
0.0
 11
13.4999999999999893
 21
65.2999999999998408
 31
0.0
  0
LINE
  5
76
  8
0
 10
25.0
 20
76.9395280956806573
 30
0.0
 11
25.0
 21
66.6604719043192517
 31
0.0
  0
LINE
  5
77
  8
0
 10
12.9999999999999893
 20
76.9395280956806573
 30
0.0
 11
12.9999999999999893
 21
66.6604719043192517
 31
0.0
  0
LINE
  5
78
  8
0
 10
36.9999999999999929
 20
76.9395280956806573
 30
0.0
 11
36.9999999999999929
 21
66.6604719043192517
 31
0.0
  0
LINE
  5
79
  8
0
 10
13.4999999999999893
 20
78.2999999999998408
 30
0.0
 11
36.4999999999999929
 21
78.2999999999998408
 31
0.0
  0
LINE
  5
7C
  8
0
 10
25.0
 20
51.0145311798163377
 30
0.0
 11
25.0
 21
54.5854688201835714
 31
0.0
  0
LINE
  5
7D
  8
0
 10
31.7729999999999997
 20
223.3000000000000114
 30
0.0
 11
18.2270000000000003
 21
223.3000000000000114
 31
0.0
  0
LINE
  5
7E
  8
0
 10
32.9999999999999929
 20
222.0730000000000075
 30
0.0
 11
17.0
 21
222.0730000000000075
 31
0.0
  0
LINE
  5
7F
  8
0
 10
33.0
 20
55.2999999999998408
 30
0.0
 11
17.0
 21
55.2999999999998408
 31
0.0
  0
LINE
  5
80
  8
0
 10
30.4999999999999893
 20
46.9988233665333084
 30
0.0
 11
19.5
 21
46.9988233665333084
 31
0.0
  0
LINE
  5
81
  8
0
 10
33.0
 20
50.3000000000000682
 30
0.0
 11
17.0
 21
50.2999999999999474
 31
0.0
  0
LINE
  5
82
  8
0
 10
40.4699999999999918
 20
30.3000000000000718
 30
0.0
 11
9.5300000000000011
 21
30.3000000000000718
 31
0.0
  0
LINE
  5
83
  8
0
 10
36.5499999999999972
 20
25.0
 30
0.0
 11
13.4499999999999993
 21
25.0
 31
0.0
  0
LINE
  5
84
  8
0
 10
35.3183650964576827
 20
45.2999999999999474
 30
0.0
 11
14.6816349035423102
 21
45.2999999999999474
 31
0.0
  0
LINE
  5
85
  8
0
 10
86.1435935394492844
 20
66.6604719043192517
 30
0.0
 11
88.5000000000002842
 21
65.2999999999998408
 31
0.0
  0
LINE
  5
86
  8
0
 10
111.5000000000002984
 20
65.2999999999998408
 30
0.0
 11
113.8564064605511987
 21
66.6604719043192517
 31
0.0
  0
LINE
  5
87
  8
0
 10
113.8564064605511987
 20
76.9395280956806573
 30
0.0
 11
111.5000000000002984
 21
78.2999999999998408
 31
0.0
  0
LINE
  5
88
  8
0
 10
88.5000000000002842
 20
78.2999999999998408
 30
0.0
 11
86.1435935394492844
 21
76.9395280956806573
 31
0.0
  0
LINE
  5
89
  8
0
 10
108.0
 20
222.0730000000000075
 30
0.0
 11
106.7729999999999961
 21
223.3000000000000114
 31
0.0
  0
LINE
  5
8A
  8
0
 10
93.2269999999999897
 20
223.3000000000000114
 30
0.0
 11
92.0000000000000142
 21
222.0730000000000075
 31
0.0
  0
LINE
  5
8B
  8
0
 10
108.000000000000199
 20
55.3000000000000682
 30
0.0
 11
108.000000000000199
 21
65.2999999999998408
 31
0.0
  0
LINE
  5
8C
  8
0
 10
108.0000000000000995
 20
78.2999999999998408
 30
0.0
 11
108.0
 21
222.0730000000000075
 31
0.0
  0
LINE
  5
8D
  8
0
 10
92.0
 20
222.0730000000000075
 30
0.0
 11
92.0000000000001705
 21
78.2999999999998408
 31
0.0
  0
LINE
  5
8E
  8
0
 10
92.000000000000199
 20
65.2999999999998408
 30
0.0
 11
92.0000000000002132
 21
55.2999999999998408
 31
0.0
  0
ARC
  5
8F
  8
0
 10
100.000000000000199
 20
42.75
 30
0.0
 40
6.9499999999999869
 50
142.3134351266945998
 51
158.4750423903610965
  0
ARC
  5
90
  8
0
 10
100.000000000000199
 20
42.75
 30
0.0
 40
6.9500000000000224
 50
21.5249576096393405
 51
37.6865648733059615
  0
LINE
  5
91
  8
0
 10
105.500000000000199
 20
46.9988233665334292
 30
0.0
 11
105.500000000000199
 21
50.3000000000000682
 31
0.0
  0
LINE
  5
92
  8
0
 10
94.5000000000002558
 20
50.2999999999999474
 30
0.0
 11
94.50000000000027
 21
46.9988233665333084
 31
0.0
  0
LINE
  5
93
  8
0
 10
109.2376043070342035
 20
54.5854688201835714
 30
0.0
 11
108.0000000000005969
 21
55.2999999999998408
 31
0.0
  0
LINE
  5
94
  8
0
 10
108.0
 20
50.2999999999999474
 30
0.0
 11
109.2376043070342035
 21
51.0145311798163377
 31
0.0
  0
LINE
  5
95
  8
0
 10
92.0000000000002132
 20
55.2999999999998408
 30
0.0
 11
90.762395692966237
 21
54.5854688201835714
 31
0.0
  0
LINE
  5
96
  8
0
 10
90.762395692966237
 20
51.0145311798163377
 30
0.0
 11
92.0000000000002416
 21
50.2999999999999474
 31
0.0
  0
LINE
  5
97
  8
0
 10
116.0000000000002984
 20
30.8300000000000409
 30
0.0
 11
116.0000000000002984
 21
35.2999999999999616
 31
0.0
  0
LINE
  5
98
  8
0
 10
84.0000000000003268
 20
35.2999999999999616
 30
0.0
 11
84.0000000000003268
 21
30.8299999999999308
 31
0.0
  0
LINE
  5
99
  8
0
 10
84.0000000000003268
 20
30.8299999999999308
 30
0.0
 11
84.530000000000328
 21
30.2999999999999616
 31
0.0
  0
LINE
  5
9A
  8
0
 10
115.4700000000002973
 20
30.3000000000000718
 30
0.0
 11
116.0000000000002984
 21
30.8300000000000409
 31
0.0
  0
LINE
  5
9B
  8
0
 10
116.0000000000002984
 20
35.2999999999999616
 30
0.0
 11
111.2000000000003013
 21
40.2999999999999474
 31
0.0
  0
LINE
  5
9C
  8
0
 10
88.8000000000002956
 20
40.2999999999999474
 30
0.0
 11
84.0000000000003411
 21
35.2999999999999616
 31
0.0
  0
LINE
  5
9D
  8
0
 10
111.5500000000002956
 20
25.0000000000001101
 30
0.0
 11
111.5500000000002956
 21
30.3000000000000718
 31
0.0
  0
LINE
  5
9E
  8
0
 10
88.4500000000003155
 20
30.2999999999999616
 30
0.0
 11
88.4500000000003439
 21
25.0
 31
0.0
  0
LINE
  5
9F
  8
0
 10
111.2000000000003013
 20
40.2999999999999474
 30
0.0
 11
110.3183650964578959
 21
45.3000000000000682
 31
0.0
  0
LINE
  5
A0
  8
0
 10
89.6816349035425873
 20
45.2999999999999474
 30
0.0
 11
88.8000000000002956
 21
40.2999999999999474
 31
0.0
  0
LINE
  5
A1
  8
0
 10
111.5000000000002984
 20
65.2999999999998408
 30
0.0
 11
88.5000000000002842
 21
65.2999999999998408
 31
0.0
  0
LINE
  5
A2
  8
0
 10
100.000000000000199
 20
78.2999999999998408
 30
0.0
 11
111.5000000000002984
 21
78.2999999999998408
 31
0.0
  0
LINE
  5
A3
  8
0
 10
88.5000000000002842
 20
78.2999999999998408
 30
0.0
 11
100.000000000000199
 21
78.2999999999998408
 31
0.0
  0
LINE
  5
A4
  8
0
 10
113.8564064605511987
 20
76.9395280956806573
 30
0.0
 11
113.8564064605511987
 21
66.6604719043192517
 31
0.0
  0
LINE
  5
A5
  8
0
 10
106.9282032302757983
 20
76.9395280956806573
 30
0.0
 11
106.9282032302757983
 21
66.6604719043192517
 31
0.0
  0
LINE
  5
A6
  8
0
 10
93.0717967697247843
 20
76.9395280956806573
 30
0.0
 11
93.0717967697247843
 21
66.6604719043192517
 31
0.0
  0
LINE
  5
A7
  8
0
 10
86.1435935394492844
 20
76.9395280956806573
 30
0.0
 11
86.1435935394492844
 21
66.6604719043192517
 31
0.0
  0
LINE
  5
A8
  8
0
 10
109.2376043070342035
 20
51.0145311798164585
 30
0.0
 11
109.2376043070342035
 21
54.5854688201835714
 31
0.0
  0
LINE
  5
A9
  8
0
 10
104.6188021535171941
 20
51.0145311798164585
 30
0.0
 11
104.6188021535171941
 21
54.5854688201835714
 31
0.0
  0
LINE
  5
AA
  8
0
 10
106.7729999999999961
 20
223.3000000000000114
 30
0.0
 11
93.2269999999999897
 21
223.3000000000000114
 31
0.0
  0
LINE
  5
AB
  8
0
 10
108.0
 20
222.0730000000000075
 30
0.0
 11
92.0000000000000142
 21
222.0730000000000075
 31
0.0
  0
LINE
  5
AC
  8
0
 10
108.0000000000005969
 20
55.2999999999998408
 30
0.0
 11
92.0000000000002132
 21
55.2999999999998408
 31
0.0
  0
LINE
  5
AD
  8
0
 10
95.3811978464832464
 20
51.0145311798163377
 30
0.0
 11
95.3811978464832038
 21
54.5854688201835714
 31
0.0
  0
LINE
  5
AE
  8
0
 10
108.0
 20
50.2999999999999474
 30
0.0
 11
92.0000000000002416
 21
50.2999999999999474
 31
0.0
  0
LINE
  5
AF
  8
0
 10
90.762395692966237
 20
51.0145311798163377
 30
0.0
 11
90.762395692966237
 21
54.5854688201835714
 31
0.0
  0
LINE
  5
B0
  8
0
 10
105.500000000000199
 20
46.9988233665334292
 30
0.0
 11
94.50000000000027
 21
46.9988233665333084
 31
0.0
  0
LINE
  5
B1
  8
0
 10
115.4700000000002973
 20
30.3000000000000718
 30
0.0
 11
84.5300000000003564
 21
30.2999999999999616
 31
0.0
  0
LINE
  5
B2
  8
0
 10
111.5500000000002956
 20
25.0000000000001101
 30
0.0
 11
88.4500000000003439
 21
25.0
 31
0.0
  0
LINE
  5
B3
  8
0
 10
110.3183650964578959
 20
45.3000000000000682
 30
0.0
 11
89.6816349035425731
 21
45.2999999999999474
 31
0.0
  0
CIRCLE
  5
B4
  8
0
 10
25.0
 20
269.3000000000001251
 30
0.0
 40
11.5
  0
CIRCLE
  5
BB
  8
0
 10
25.0
 20
269.299999999999784
 30
0.0
 40
8.0
  0
CIRCLE
  5
BC
  8
0
 10
25.0
 20
269.3000000000001251
 30
0.0
 40
16.0
  0
TEXT
  5
BD
  8
0
 62
     3
 10
0.0
 20
0.0
 30
0.0
 40
10.0
  1
LSVA32-M16X168-SUS
  7
STANDARD1
  0
LINE
  5
BF
  8
2
 10
32.6499999999999133
 20
25.0
 30
0.0
 11
32.6499999999999133
 21
30.3000000000000718
 31
0.0
  0
LINE
  5
C4
  8
2
 10
17.3499999999999091
 20
25.0
 30
0.0
 11
17.3499999999999091
 21
30.3000000000000718
 31
0.0
  0
LINE
  5
C5
  8
0
 10
116.0000000000002984
 20
35.2999999999999616
 30
0.0
 11
84.0000000000003411
 21
35.2999999999999616
 31
0.0
  0
LINE
  5
C6
  8
0
 10
88.8000000000002956
 20
40.2999999999999474
 30
0.0
 11
111.2000000000003013
 21
40.2999999999999474
 31
0.0
  0
LINE
  5
C7
  8
0
 10
40.9999999999999716
 20
35.2999999999999616
 30
0.0
 11
9.0000000000000213
 21
35.2999999999999616
 31
0.0
  0
LINE
  5
C8
  8
0
 10
13.7999999999999901
 20
40.2999999999999474
 30
0.0
 11
36.1999999999999886
 21
40.2999999999999474
 31
0.0
  0
CIRCLE
  5
C9
  8
3
 10
24.9999999999999893
 20
269.299999999999784
 30
0.0
 40
6.9175000000000004
  0
LINE
  5
CD
  8
1
 10
24.9999999999999893
 20
288.2999999999996135
 30
0.0
 11
24.9999999999999893
 21
250.2999999999998124
 31
0.0
  0
LINE
  5
D2
  8
1
 10
43.9999999999999787
 20
269.299999999999784
 30
0.0
 11
5.9999999999999849
 21
269.299999999999784
 31
0.0
  0
LINE
  5
D3
  8
3
 10
18.0824999999999712
 20
78.2999999999998408
 30
0.0
 11
18.0824999999999605
 21
223.1554999999999893
 31
0.0
  0
LINE
  5
D4
  8
3
 10
31.9175000000000111
 20
78.2999999999998408
 30
0.0
 11
31.9175000000000111
 21
223.155500000000103
 31
0.0
  0
LINE
  5
D5
  8
1
 10
25.0
 20
22.0
 30
0.0
 11
25.0
 21
228.3000000000002956
 31
0.0
  0
LINE
  5
D6
  8
3
 10
31.9175000000000111
 20
57.2999999999998408
 30
0.0
 11
31.9175000000000217
 21
65.299999999999855
 31
0.0
  0
LINE
  5
D7
  8
3
 10
18.0824999999999712
 20
57.2999999999998408
 30
0.0
 11
18.0824999999999712
 21
65.299999999999855
 31
0.0
  0
LINE
  5
D8
  8
0
 10
16.9999999999999787
 20
57.2999999999998408
 30
0.0
 11
32.9999999999999929
 21
57.2999999999998408
 31
0.0
  0
LINE
  5
D9
  8
3
 10
18.0824999999999712
 20
57.2999999999998408
 30
0.0
 11
16.9999999999999787
 21
55.4250550008067577
 31
0.0
  0
LINE
  5
DA
  8
3
 10
31.9175000000000111
 20
57.2999999999998408
 30
0.0
 11
32.9999999999999929
 21
55.4250550008067577
 31
0.0
  0
LINE
  5
DB
  8
3
 10
93.0824999999999676
 20
78.2999999999998408
 30
0.0
 11
93.0824999999999676
 21
223.155500000000103
 31
0.0
  0
LINE
  5
DC
  8
3
 10
106.917500000000004
 20
78.2999999999998408
 30
0.0
 11
106.917500000000004
 21
223.1554999999999893
 31
0.0
  0
LINE
  5
DD
  8
1
 10
100.0
 20
22.0
 30
0.0
 11
100.0
 21
228.3000000000002956
 31
0.0
  0
LINE
  5
DE
  8
2
 10
107.6500000000002046
 20
25.0000000000001101
 30
0.0
 11
107.6500000000002046
 21
30.3000000000001783
 31
0.0
  0
LINE
  5
DF
  8
2
 10
92.3500000000002643
 20
25.0000000000001101
 30
0.0
 11
92.3500000000002643
 21
30.3000000000001783
 31
0.0
  0
LINE
  5
E0
  8
3
 10
106.9175000330293983
 20
57.2999999999998408
 30
0.0
 11
106.9175000330293983
 21
65.2999999999998408
 31
0.0
  0
LINE
  5
E1
  8
3
 10
93.0825000330294046
 20
57.2999999999998408
 30
0.0
 11
93.0825000330294046
 21
65.2999999999998408
 31
0.0
  0
LINE
  5
E2
  8
0
 10
92.0000000330294228
 20
57.2999999999998408
 30
0.0
 11
108.0000000330293943
 21
57.2999999999998408
 31
0.0
  0
LINE
  5
E3
  8
3
 10
93.0825000330294046
 20
57.2999999999998408
 30
0.0
 11
92.0000000330294228
 21
55.4250550008067577
 31
0.0
  0
LINE
  5
E4
  8
3
 10
106.9175000330293983
 20
57.2999999999998408
 30
0.0
 11
108.0000000330293943
 21
55.4250550008067577
 31
0.0
  0
ARC
  5
E5
  8
0
 10
21.0
 20
61.8534180126138082
 30
0.0
 40
11.5534180126138608
 50
249.7438419995812922
 51
290.2561580004186226
  0
ARC
  5
E6
  8
0
 10
29.0000000000001883
 20
61.8534180126163236
 30
0.0
 40
11.5534180126162696
 50
249.7438419995843901
 51
290.256158000411574
  0
ARC
  5
E7
  8
0
 10
29.0000000000002807
 20
43.7465819873858592
 30
0.0
 40
11.5534180126139798
 50
69.743841999582898
 51
110.2561580004197026
  0
ARC
  5
E8
  8
0
 10
20.9999999999999787
 20
43.7465819873875716
 30
0.0
 40
11.5534180126122603
 50
69.743841999578791
 51
110.2561580004210953
  0
ARC
  5
E9
  8
0
 10
19.0000000000067715
 20
60.6783858032605323
 30
0.0
 40
17.3327651762275217
 50
69.7470602977557235
 51
110.252939702293105
  0
ARC
  5
EA
  8
0
 10
30.9999999999932214
 20
60.6783858032605323
 30
0.0
 40
17.3327651762275217
 50
69.7470602977069234
 51
110.2529397022442055
  0
ARC
  5
EB
  8
0
 10
31.0000000000002807
 20
82.9216141967787053
 30
0.0
 40
17.3327651762668786
 50
249.747060297778404
 51
290.2529397022199191
  0
ARC
  5
EC
  8
0
 10
18.9999999999997016
 20
82.9216141967791458
 30
0.0
 40
17.3327651762673014
 50
249.7470602977805072
 51
290.2529397022212265
  0
ARC
  5
ED
  8
0
 10
89.6076951545871339
 20
71.8763552037690943
 30
0.0
 40
6.1347958183941831
 50
55.6210008821413169
 51
115.6210008821576025
  0
ARC
  5
EE
  8
0
 10
100.0000000000002984
 20
55.0677654952951272
 30
0.0
 40
22.9428420045909505
 50
72.423634215033772
 51
107.5763657849661996
  0
ARC
  5
EF
  8
0
 10
89.6076951545870344
 20
71.7236447962301327
 30
0.0
 40
6.1347958183937266
 50
244.3789991178585979
 51
304.3789991178616106
  0
ARC
  5
F0
  8
0
 10
100.0000000000002984
 20
88.5321009048503811
 30
0.0
 40
22.9427146418394514
 50
252.423533462212589
 51
287.5764665377873825
  0
ARC
  5
F1
  8
0
 10
93.071796769724898
 20
51.2106836025229768
 30
0.0
 40
4.0893163974768463
 50
55.6157525319596218
 51
115.6157525319863026
  0
ARC
  5
F2
  8
0
 10
100.000000000000199
 20
40.0145311798196417
 30
0.0
 40
15.2854688201801991
 50
72.4120462260012516
 51
107.5879537739988052
  0
ARC
  5
F3
  8
0
 10
99.9999999999999147
 20
65.5854688201824274
 30
0.0
 40
15.2854688201824604
 50
252.4120462260069075
 51
287.5879537739974126
  0
ARC
  5
F4
  8
0
 10
93.0717967697247843
 20
54.3893163974770388
 30
0.0
 40
4.0893163974770896
 50
244.3842474680432986
 51
304.3842474680382111
  0
ARC
  5
F5
  8
0
 10
106.9282032302754004
 20
51.2106836025233179
 30
0.0
 40
4.0893163974768463
 50
64.3842474680165253
 51
124.3842474680426022
  0
ARC
  5
F6
  8
0
 10
106.9282032302753009
 20
54.3893163974772733
 30
0.0
 40
4.0893163974770896
 50
235.6157525319638921
 51
295.6157525319587194
  0
ARC
  5
F7
  8
0
 10
110.3923048454130935
 20
71.876355203769549
 30
0.0
 40
6.1347958183941831
 50
64.3789991178439465
 51
124.3789991178603032
  0
ARC
  5
F8
  8
0
 10
110.392304845413193
 20
71.7236447962305874
 30
0.0
 40
6.1347958183937266
 50
235.6210008821398105
 51
295.6210008821431074
  0
POLYLINE
  5
11C
  8
0
 66
     1
 10
0.0
 20
0.0
 30
0.0
  0
VERTEX
  5
1CA
  8
0
 10
13.0
 20
262.3717967697247104
 30
0.0
  0
VERTEX
  5
1CB
  8
0
 10
13.2218203631226192
 20
262.2437287233640859
 30
0.0
  0
VERTEX
  5
1CC
  8
0
 10
13.4437267064517698
 20
262.1156110363079961
 30
0.0
  0
VERTEX
  5
1CD
  8
0
 10
13.6658050101940507
 20
261.987394067861203
 30
0.0
  0
VERTEX
  5
1CE
  8
0
 10
13.8881412545559897
 20
261.8590281773282982
 30
0.0
  0
VERTEX
  5
1CF
  8
0
 10
14.1108214197441804
 20
261.7304637240135889
 30
0.0
  0
VERTEX
  5
1D0
  8
0
 10
14.3339314859651399
 20
261.6016510672221216
 30
0.0
  0
VERTEX
  5
1D1
  8
0
 10
14.5575574334254707
 20
261.4725405662580897
 30
0.0
  0
VERTEX
  5
1D2
  8
0
 10
14.7817660349452904
 20
261.3430936698160281
 30
0.0
  0
VERTEX
  5
1D3
  8
0
 10
15.0065443587940894
 20
261.2133178440338952
 30
0.0
  0
VERTEX
  5
1D4
  8
0
 10
15.2318588016591399
 20
261.0832324897934882
 30
0.0
  0
VERTEX
  5
1D5
  8
0
 10
15.4576757601911901
 20
260.9528570079974088
 30
0.0
  0
VERTEX
  5
1D6
  8
0
 10
15.6839616310410008
 20
260.8222107995484862
 30
0.0
  0
VERTEX
  5
1D7
  8
0
 10
15.9106828108592708
 20
260.691313265349379
 30
0.0
  0
VERTEX
  5
1D8
  8
0
 10
16.1378056962967413
 20
260.5601838063029732
 30
0.0
  0
VERTEX
  5
1D9
  8
0
 10
16.365298410268899
 20
260.4288408266525039
 30
0.0
  0
VERTEX
  5
1DA
  8
0
 10
16.5931364632298504
 20
260.2972984654438164
 30
0.0
  0
VERTEX
  5
1DB
  8
0
 10
16.8212973414485703
 20
260.1655697209856726
 30
0.0
  0
VERTEX
  5
1DC
  8
0
 10
17.049758531215101
 20
260.0336675915746127
 30
0.0
  0
VERTEX
  5
1DD
  8
0
 10
17.2784975188195311
 20
259.9016050755071205
 30
0.0
  0
VERTEX
  5
1DE
  8
0
 10
17.5074917905519101
 20
259.7693951710795091
 30
0.0
  0
VERTEX
  5
1DF
  8
0
 10
17.7367188327022482
 20
259.6370508765883756
 30
0.0
  0
VERTEX
  5
1E0
  8
0
 10
17.9661546213775409
 20
259.5045860622349778
 30
0.0
  0
VERTEX
  5
1E1
  8
0
 10
18.1957643369684909
 20
259.3720208311299871
 30
0.0
  0
VERTEX
  5
1E2
  8
0
 10
18.4255084605971398
 20
259.2393779995081786
 30
0.0
  0
VERTEX
  5
1E3
  8
0
 10
18.6553474540479307
 20
259.1066803947692279
 30
0.0
  0
VERTEX
  5
1E4
  8
0
 10
18.8852417791051685
 20
258.9739508443121849
 30
0.0
  0
VERTEX
  5
1E5
  8
0
 10
19.1151518975532611
 20
258.8412121755367252
 30
0.0
  0
VERTEX
  5
1E6
  8
0
 10
19.3450382711765982
 20
258.7084872158422968
 30
0.0
  0
VERTEX
  5
1E7
  8
0
 10
19.5748615971411404
 20
258.5757986567306261
 30
0.0
  0
VERTEX
  5
1E8
  8
0
 10
19.8045855401249185
 20
258.4431674764095987
 30
0.0
  0
VERTEX
  5
1E9
  8
0
 10
20.0341757951575197
 20
258.3106134808633101
 30
0.0
  0
VERTEX
  5
1EA
  8
0
 10
20.2635980967139417
 20
258.178156453301483
 30
0.0
  0
VERTEX
  5
1EB
  8
0
 10
20.4928181792691113
 20
258.0458161769345793
 30
0.0
  0
VERTEX
  5
1EC
  8
0
 10
20.7218017772980296
 20
257.913612434972606
 30
0.0
  0
VERTEX
  5
1ED
  8
0
 10
20.9505150775109392
 20
257.7815647495273765
 30
0.0
  0
VERTEX
  5
1EE
  8
0
 10
21.1789329635536205
 20
257.649687621533019
 30
0.0
  0
VERTEX
  5
1EF
  8
0
 10
21.4070381628404789
 20
257.5179910233210876
 30
0.0
  0
VERTEX
  5
1F0
  8
0
 10
21.6348136838175016
 20
257.3864847649701915
 30
0.0
  0
VERTEX
  5
1F1
  8
0
 10
21.8622425349306901
 20
257.2551786565584848
 30
0.0
  0
VERTEX
  5
1F2
  8
0
 10
22.0893077246259715
 20
257.1240825081644061
 30
0.0
  0
VERTEX
  5
1F3
  8
0
 10
22.3159920235347613
 20
256.9932062671683752
 30
0.0
  0
VERTEX
  5
1F4
  8
0
 10
22.5422705567587798
 20
256.8625642950996735
 30
0.0
  0
VERTEX
  5
1F5
  8
0
 10
22.7681093549815294
 20
256.7321762041522106
 30
0.0
  0
VERTEX
  5
1F6
  8
0
 10
22.9934739185557611
 20
256.6020619127069153
 30
0.0
  0
VERTEX
  5
1F7
  8
0
 10
23.2183297478342183
 20
256.4722413391442046
 30
0.0
  0
VERTEX
  5
1F8
  8
0
 10
23.4426423431696698
 20
256.3427344018446092
 30
0.0
  0
VERTEX
  5
1F9
  8
0
 10
23.6663774305026493
 20
256.2135608889457217
 30
0.0
  0
VERTEX
  5
1FA
  8
0
 10
23.8895394546388182
 20
256.0847182342379256
 30
0.0
  0
VERTEX
  5
1FB
  8
0
 10
24.1122151537459217
 20
255.9561563594164113
 30
0.0
  0
VERTEX
  5
1FC
  8
0
 10
24.3345017928297693
 20
255.8278191085040874
 30
0.0
  0
VERTEX
  5
1FD
  8
0
 10
24.5564966368962203
 20
255.6996503255236917
 30
0.0
  0
VERTEX
  5
1FE
  8
0
 10
24.7782969509509883
 20
255.5715938544977064
 30
0.0
  0
VERTEX
  5
1FF
  8
0
 10
25.0
 20
255.4435935394490969
 30
0.0
  0
SEQEND
  5
200
  8
0
  0
POLYLINE
  5
11D
  8
0
 66
     1
 10
0.0
 20
0.0
 30
0.0
  0
VERTEX
  5
201
  8
0
 10
37.0
 20
262.3717967697247104
 30
0.0
  0
VERTEX
  5
202
  8
0
 10
36.7781796368773897
 20
262.2437287233640859
 30
0.0
  0
VERTEX
  5
203
  8
0
 10
36.5562732935482302
 20
262.1156110363079961
 30
0.0
  0
VERTEX
  5
204
  8
0
 10
36.3341949898059511
 20
261.987394067861203
 30
0.0
  0
VERTEX
  5
205
  8
0
 10
36.1118587454440103
 20
261.8590281773282982
 30
0.0
  0
VERTEX
  5
206
  8
0
 10
35.8891785802558232
 20
261.7304637240135889
 30
0.0
  0
VERTEX
  5
207
  8
0
 10
35.6660685140348335
 20
261.6016510672221216
 30
0.0
  0
VERTEX
  5
208
  8
0
 10
35.4424425665745275
 20
261.4725405662580897
 30
0.0
  0
VERTEX
  5
209
  8
0
 10
35.2182339650546794
 20
261.3430936698160281
 30
0.0
  0
VERTEX
  5
20A
  8
0
 10
34.9934556412058768
 20
261.2133178440338952
 30
0.0
  0
VERTEX
  5
20B
  8
0
 10
34.7681411983408282
 20
261.0832324897934882
 30
0.0
  0
VERTEX
  5
20C
  8
0
 10
34.542324239808778
 20
260.9528570079974088
 30
0.0
  0
VERTEX
  5
20D
  8
0
 10
34.3160383689589708
 20
260.8222107995484862
 30
0.0
  0
VERTEX
  5
20E
  8
0
 10
34.0893171891407007
 20
260.691313265349379
 30
0.0
  0
VERTEX
  5
20F
  8
0
 10
33.8621943037032267
 20
260.5601838063029732
 30
0.0
  0
VERTEX
  5
210
  8
0
 10
33.634701589731101
 20
260.4288408266525039
 30
0.0
  0
VERTEX
  5
211
  8
0
 10
33.4068635367701532
 20
260.2972984654438164
 30
0.0
  0
VERTEX
  5
212
  8
0
 10
33.1787026585514297
 20
260.1655697209856726
 30
0.0
  0
VERTEX
  5
213
  8
0
 10
32.9502414687848884
 20
260.0336675915746127
 30
0.0
  0
VERTEX
  5
214
  8
0
 10
32.7215024811804724
 20
259.9016050755071205
 30
0.0
  0
VERTEX
  5
215
  8
0
 10
32.4925082094481184
 20
259.7693951710795091
 30
0.0
  0
VERTEX
  5
216
  8
0
 10
32.2632811672977482
 20
259.6370508765883756
 30
0.0
  0
VERTEX
  5
217
  8
0
 10
32.0338453786224591
 20
259.5045860622349778
 30
0.0
  0
VERTEX
  5
218
  8
0
 10
31.8042356630315091
 20
259.3720208311299871
 30
0.0
  0
VERTEX
  5
219
  8
0
 10
31.5744915394028602
 20
259.2393779995082923
 30
0.0
  0
VERTEX
  5
21A
  8
0
 10
31.3446525459520799
 20
259.1066803947692279
 30
0.0
  0
VERTEX
  5
21B
  8
0
 10
31.1147582208948315
 20
258.9739508443121849
 30
0.0
  0
VERTEX
  5
21C
  8
0
 10
30.8848481024467389
 20
258.8412121755367821
 30
0.0
  0
VERTEX
  5
21D
  8
0
 10
30.6549617288233911
 20
258.7084872158422968
 30
0.0
  0
VERTEX
  5
21E
  8
0
 10
30.4251384028588703
 20
258.5757986567306261
 30
0.0
  0
VERTEX
  5
21F
  8
0
 10
30.1954144598750815
 20
258.4431674764095987
 30
0.0
  0
VERTEX
  5
220
  8
0
 10
29.9658242048424803
 20
258.3106134808633101
 30
0.0
  0
VERTEX
  5
221
  8
0
 10
29.7364019032860689
 20
258.178156453301483
 30
0.0
  0
VERTEX
  5
222
  8
0
 10
29.5071818207308887
 20
258.0458161769345793
 30
0.0
  0
VERTEX
  5
223
  8
0
 10
29.278198222701981
 20
257.913612434972606
 30
0.0
  0
VERTEX
  5
224
  8
0
 10
29.0494849224890608
 20
257.7815647495273765
 30
0.0
  0
VERTEX
  5
225
  8
0
 10
28.8210670364463795
 20
257.649687621533019
 30
0.0
  0
VERTEX
  5
226
  8
0
 10
28.5929618371595211
 20
257.5179910233210876
 30
0.0
  0
VERTEX
  5
227
  8
0
 10
28.3651863161824984
 20
257.3864847649701915
 30
0.0
  0
VERTEX
  5
228
  8
0
 10
28.1377574650693205
 20
257.2551786565584848
 30
0.0
  0
VERTEX
  5
229
  8
0
 10
27.9106922753740285
 20
257.1240825081644061
 30
0.0
  0
VERTEX
  5
22A
  8
0
 10
27.6840079764652387
 20
256.9932062671683752
 30
0.0
  0
VERTEX
  5
22B
  8
0
 10
27.4577294432412202
 20
256.8625642950996735
 30
0.0
  0
VERTEX
  5
22C
  8
0
 10
27.2318906450184706
 20
256.7321762041522106
 30
0.0
  0
VERTEX
  5
22D
  8
0
 10
27.0065260814442283
 20
256.6020619127069153
 30
0.0
  0
VERTEX
  5
22E
  8
0
 10
26.7816702521657604
 20
256.4722413391442046
 30
0.0
  0
VERTEX
  5
22F
  8
0
 10
26.5573576568303302
 20
256.3427344018446092
 30
0.0
  0
VERTEX
  5
230
  8
0
 10
26.3336225694973507
 20
256.2135608889457217
 30
0.0
  0
VERTEX
  5
231
  8
0
 10
26.1104605453611818
 20
256.0847182342379256
 30
0.0
  0
VERTEX
  5
232
  8
0
 10
25.8877848462540783
 20
255.9561563594164113
 30
0.0
  0
VERTEX
  5
233
  8
0
 10
25.6654982071701987
 20
255.8278191085040874
 30
0.0
  0
VERTEX
  5
234
  8
0
 10
25.4435033631037903
 20
255.6996503255236917
 30
0.0
  0
VERTEX
  5
235
  8
0
 10
25.2217030490489904
 20
255.5715938544977064
 30
0.0
  0
VERTEX
  5
236
  8
0
 10
25.0
 20
255.4435935394490969
 30
0.0
  0
SEQEND
  5
237
  8
0
  0
POLYLINE
  5
11E
  8
0
 66
     1
 10
0.0
 20
0.0
 30
0.0
  0
VERTEX
  5
238
  8
0
 10
37.0
 20
262.3717967697247104
 30
0.0
  0
VERTEX
  5
239
  8
0
 10
37.0
 20
262.6278024882229261
 30
0.0
  0
VERTEX
  5
23A
  8
0
 10
37.0
 20
262.8839196414554067
 30
0.0
  0
VERTEX
  5
23B
  8
0
 10
37.0
 20
263.1402596641567015
 30
0.0
  0
VERTEX
  5
23C
  8
0
 10
37.0
 20
263.3969339910611893
 30
0.0
  0
VERTEX
  5
23D
  8
0
 10
37.0
 20
263.6540540569033055
 30
0.0
  0
VERTEX
  5
23E
  8
0
 10
37.0
 20
263.9117312964173721
 30
0.0
  0
VERTEX
  5
23F
  8
0
 10
37.0
 20
264.170067805520091
 30
0.0
  0
VERTEX
  5
240
  8
0
 10
37.0
 20
264.4290752579988748
 30
0.0
  0
VERTEX
  5
241
  8
0
 10
37.0
 20
264.688714589191818
 30
0.0
  0
VERTEX
  5
242
  8
0
 10
37.0
 20
264.948946172860019
 30
0.0
  0
VERTEX
  5
243
  8
0
 10
37.0
 20
265.2097303827648034
 30
0.0
  0
VERTEX
  5
244
  8
0
 10
37.0
 20
265.471027592667383
 30
0.0
  0
VERTEX
  5
245
  8
0
 10
37.0
 20
265.7327981775848116
 30
0.0
  0
VERTEX
  5
246
  8
0
 10
37.0
 20
265.9950065703694122
 30
0.0
  0
VERTEX
  5
247
  8
0
 10
37.0
 20
266.2576302766523213
 30
0.0
  0
VERTEX
  5
248
  8
0
 10
37.0
 20
266.5206494295654238
 30
0.0
  0
VERTEX
  5
249
  8
0
 10
37.0
 20
266.7840441622408889
 30
0.0
  0
VERTEX
  5
24A
  8
0
 10
37.0
 20
267.0477946078104878
 30
0.0
  0
VERTEX
  5
24B
  8
0
 10
37.0
 20
267.3118808994065034
 30
0.0
  0
VERTEX
  5
24C
  8
0
 10
37.0
 20
267.5762828587875788
 30
0.0
  0
VERTEX
  5
24D
  8
0
 10
37.0
 20
267.8409700011894756
 30
0.0
  0
VERTEX
  5
24E
  8
0
 10
37.0
 20
268.1058994095427011
 30
0.0
  0
VERTEX
  5
24F
  8
0
 10
37.0
 20
268.3710274255564059
 30
0.0
  0
VERTEX
  5
250
  8
0
 10
37.0
 20
268.6363103909393999
 30
0.0
  0
VERTEX
  5
251
  8
0
 10
37.0
 20
268.9017046474012886
 30
0.0
  0
VERTEX
  5
252
  8
0
 10
37.0
 20
269.1671665366511093
 30
0.0
  0
VERTEX
  5
253
  8
0
 10
37.0
 20
269.4326523185990254
 30
0.0
  0
VERTEX
  5
254
  8
0
 10
37.0
 20
269.6981171208523165
 30
0.0
  0
VERTEX
  5
255
  8
0
 10
37.0
 20
269.9635152439840908
 30
0.0
  0
VERTEX
  5
256
  8
0
 10
37.0
 20
270.2288009697185771
 30
0.0
  0
VERTEX
  5
257
  8
0
 10
37.0
 20
270.493928579779606
 30
0.0
  0
VERTEX
  5
258
  8
0
 10
37.0
 20
270.7588523558911788
 30
0.0
  0
VERTEX
  5
259
  8
0
 10
37.0
 20
271.023526579777581
 30
0.0
  0
VERTEX
  5
25A
  8
0
 10
37.0
 20
271.2879083307436758
 30
0.0
  0
VERTEX
  5
25B
  8
0
 10
37.0
 20
271.5519746066227071
 30
0.0
  0
VERTEX
  5
25C
  8
0
 10
37.0
 20
271.8157110448188973
 30
0.0
  0
VERTEX
  5
25D
  8
0
 10
37.0
 20
272.0791033176852238
 30
0.0
  0
VERTEX
  5
25E
  8
0
 10
37.0
 20
272.3421370975740956
 30
0.0
  0
VERTEX
  5
25F
  8
0
 10
37.0
 20
272.6047918382378725
 30
0.0
  0
VERTEX
  5
260
  8
0
 10
37.0
 20
272.8670116954825176
 30
0.0
  0
VERTEX
  5
261
  8
0
 10
37.0
 20
273.1287283865416953
 30
0.0
  0
VERTEX
  5
262
  8
0
 10
37.0
 20
273.3898736146940109
 30
0.0
  0
VERTEX
  5
263
  8
0
 10
37.0
 20
273.6503790832173877
 30
0.0
  0
VERTEX
  5
264
  8
0
 10
37.0
 20
273.9101968593012089
 30
0.0
  0
VERTEX
  5
265
  8
0
 10
37.0
 20
274.1693718910780717
 30
0.0
  0
VERTEX
  5
266
  8
0
 10
37.0
 20
274.4279755928542954
 30
0.0
  0
VERTEX
  5
267
  8
0
 10
37.0
 20
274.6860793808797894
 30
0.0
  0
VERTEX
  5
268
  8
0
 10
37.0
 20
274.9437546714049176
 30
0.0
  0
VERTEX
  5
269
  8
0
 10
37.0
 20
275.2010728806795896
 30
0.0
  0
VERTEX
  5
26A
  8
0
 10
37.0
 20
275.4581054249538852
 30
0.0
  0
VERTEX
  5
26B
  8
0
 10
37.0
 20
275.7149237204779979
 30
0.0
  0
VERTEX
  5
26C
  8
0
 10
37.0
 20
275.971599183501894
 30
0.0
  0
VERTEX
  5
26D
  8
0
 10
37.0
 20
276.2282032302755965
 30
0.0
  0
SEQEND
  5
26E
  8
0
  0
POLYLINE
  5
11F
  8
0
 66
     1
 10
0.0
 20
0.0
 30
0.0
  0
VERTEX
  5
26F
  8
0
 10
37.0
 20
276.2282032302755965
 30
0.0
  0
VERTEX
  5
270
  8
0
 10
36.7781796368773897
 20
276.356271276636221
 30
0.0
  0
VERTEX
  5
271
  8
0
 10
36.5562732935482302
 20
276.4843889636921972
 30
0.0
  0
VERTEX
  5
272
  8
0
 10
36.3341949898059511
 20
276.6126059321389903
 30
0.0
  0
VERTEX
  5
273
  8
0
 10
36.1118587454440103
 20
276.7409718226718951
 30
0.0
  0
VERTEX
  5
274
  8
0
 10
35.8891785802558232
 20
276.8695362759864906
 30
0.0
  0
VERTEX
  5
275
  8
0
 10
35.6660685140348335
 20
276.9983489327780717
 30
0.0
  0
VERTEX
  5
276
  8
0
 10
35.4424425665745275
 20
277.1274594337421036
 30
0.0
  0
VERTEX
  5
277
  8
0
 10
35.2182339650546794
 20
277.256906330184222
 30
0.0
  0
VERTEX
  5
278
  8
0
 10
34.9934556412058768
 20
277.3866821559661844
 30
0.0
  0
VERTEX
  5
279
  8
0
 10
34.7681411983408282
 20
277.5167675102067051
 30
0.0
  0
VERTEX
  5
27A
  8
0
 10
34.542324239808778
 20
277.6471429920027845
 30
0.0
  0
VERTEX
  5
27B
  8
0
 10
34.3160383689589708
 20
277.7777892004518208
 30
0.0
  0
VERTEX
  5
27C
  8
0
 10
34.0893171891407007
 20
277.9086867346508143
 30
0.0
  0
VERTEX
  5
27D
  8
0
 10
33.8621943037032267
 20
278.039816193697277
 30
0.0
  0
VERTEX
  5
27E
  8
0
 10
33.634701589731101
 20
278.1711591733479167
 30
0.0
  0
VERTEX
  5
27F
  8
0
 10
33.4068635367701532
 20
278.3027015345564905
 30
0.0
  0
VERTEX
  5
280
  8
0
 10
33.1787026585514297
 20
278.4344302790145775
 30
0.0
  0
VERTEX
  5
281
  8
0
 10
32.9502414687848884
 20
278.5663324084258079
 30
0.0
  0
VERTEX
  5
282
  8
0
 10
32.7215024811804724
 20
278.6983949244933001
 30
0.0
  0
VERTEX
  5
283
  8
0
 10
32.4925082094481184
 20
278.8306048289209116
 30
0.0
  0
VERTEX
  5
284
  8
0
 10
32.2632811672977482
 20
278.9629491234118746
 30
0.0
  0
VERTEX
  5
285
  8
0
 10
32.0338453786224591
 20
279.095413937765386
 30
0.0
  0
VERTEX
  5
286
  8
0
 10
31.8042356630315091
 20
279.2279791688703767
 30
0.0
  0
VERTEX
  5
287
  8
0
 10
31.5744915394028602
 20
279.3606220004921283
 30
0.0
  0
VERTEX
  5
288
  8
0
 10
31.3446525459520799
 20
279.4933196052311928
 30
0.0
  0
VERTEX
  5
289
  8
0
 10
31.1147582208948315
 20
279.6260491556881789
 30
0.0
  0
VERTEX
  5
28A
  8
0
 10
30.8848481024467389
 20
279.7587878244635817
 30
0.0
  0
VERTEX
  5
28B
  8
0
 10
30.6549617288233911
 20
279.8915127841581238
 30
0.0
  0
VERTEX
  5
28C
  8
0
 10
30.4251384028588703
 20
280.024201343269624
 30
0.0
  0
VERTEX
  5
28D
  8
0
 10
30.1954144598750815
 20
280.1568325235907082
 30
0.0
  0
VERTEX
  5
28E
  8
0
 10
29.9658242048424803
 20
280.2893865191369969
 30
0.0
  0
VERTEX
  5
28F
  8
0
 10
29.7364019032860689
 20
280.4218435466987103
 30
0.0
  0
VERTEX
  5
290
  8
0
 10
29.5071818207308887
 20
280.554183823065614
 30
0.0
  0
VERTEX
  5
291
  8
0
 10
29.278198222701981
 20
280.6863875650274736
 30
0.0
  0
VERTEX
  5
292
  8
0
 10
29.0494849224890608
 20
280.8184352504728167
 30
0.0
  0
VERTEX
  5
293
  8
0
 10
28.8210670364463795
 20
280.9503123784671743
 30
0.0
  0
VERTEX
  5
294
  8
0
 10
28.5929618371595211
 20
281.082008976678992
 30
0.0
  0
VERTEX
  5
295
  8
0
 10
28.3651863161824984
 20
281.2135152350298881
 30
0.0
  0
VERTEX
  5
296
  8
0
 10
28.1377574650693205
 20
281.3448213434415948
 30
0.0
  0
VERTEX
  5
297
  8
0
 10
27.9106922753740285
 20
281.4759174918357871
 30
0.0
  0
VERTEX
  5
298
  8
0
 10
27.6840079764652387
 20
281.606793732831818
 30
0.0
  0
VERTEX
  5
299
  8
0
 10
27.4577294432412202
 20
281.7374357049004061
 30
0.0
  0
VERTEX
  5
29A
  8
0
 10
27.2318906450184706
 20
281.8678237958479258
 30
0.0
  0
VERTEX
  5
29B
  8
0
 10
27.0065260814442283
 20
281.9979380872932779
 30
0.0
  0
VERTEX
  5
29C
  8
0
 10
26.7816702521657604
 20
282.1277586608559886
 30
0.0
  0
VERTEX
  5
29D
  8
0
 10
26.5573576568303302
 20
282.257265598155584
 30
0.0
  0
VERTEX
  5
29E
  8
0
 10
26.3336225694973507
 20
282.3864391110544148
 30
0.0
  0
VERTEX
  5
29F
  8
0
 10
26.1104605453611818
 20
282.5152817657623814
 30
0.0
  0
VERTEX
  5
2A0
  8
0
 10
25.8877848462540783
 20
282.6438436405838956
 30
0.0
  0
VERTEX
  5
2A1
  8
0
 10
25.6654982071702307
 20
282.7721808914961912
 30
0.0
  0
VERTEX
  5
2A2
  8
0
 10
25.4435033631037903
 20
282.9003496744766721
 30
0.0
  0
VERTEX
  5
2A3
  8
0
 10
25.2217030490490117
 20
283.0284061455025721
 30
0.0
  0
VERTEX
  5
2A4
  8
0
 10
25.0
 20
283.1564064605511817
 30
0.0
  0
SEQEND
  5
2A5
  8
0
  0
POLYLINE
  5
120
  8
0
 66
     1
 10
0.0
 20
0.0
 30
0.0
  0
VERTEX
  5
2A6
  8
0
 10
13.0
 20
276.2282032302755965
 30
0.0
  0
VERTEX
  5
2A7
  8
0
 10
13.2218203631226192
 20
276.356271276636221
 30
0.0
  0
VERTEX
  5
2A8
  8
0
 10
13.4437267064517698
 20
276.4843889636921972
 30
0.0
  0
VERTEX
  5
2A9
  8
0
 10
13.6658050101940507
 20
276.6126059321389903
 30
0.0
  0
VERTEX
  5
2AA
  8
0
 10
13.8881412545559897
 20
276.7409718226718951
 30
0.0
  0
VERTEX
  5
2AB
  8
0
 10
14.1108214197441804
 20
276.8695362759864906
 30
0.0
  0
VERTEX
  5
2AC
  8
0
 10
14.3339314859651399
 20
276.9983489327780717
 30
0.0
  0
VERTEX
  5
2AD
  8
0
 10
14.5575574334254707
 20
277.1274594337421036
 30
0.0
  0
VERTEX
  5
2AE
  8
0
 10
14.7817660349452904
 20
277.256906330184222
 30
0.0
  0
VERTEX
  5
2AF
  8
0
 10
15.0065443587940894
 20
277.3866821559661844
 30
0.0
  0
VERTEX
  5
2B0
  8
0
 10
15.2318588016591399
 20
277.5167675102067051
 30
0.0
  0
VERTEX
  5
2B1
  8
0
 10
15.4576757601911901
 20
277.6471429920027845
 30
0.0
  0
VERTEX
  5
2B2
  8
0
 10
15.6839616310410008
 20
277.7777892004518208
 30
0.0
  0
VERTEX
  5
2B3
  8
0
 10
15.9106828108592708
 20
277.9086867346508143
 30
0.0
  0
VERTEX
  5
2B4
  8
0
 10
16.1378056962967413
 20
278.039816193697277
 30
0.0
  0
VERTEX
  5
2B5
  8
0
 10
16.365298410268899
 20
278.1711591733479167
 30
0.0
  0
VERTEX
  5
2B6
  8
0
 10
16.5931364632298504
 20
278.3027015345564905
 30
0.0
  0
VERTEX
  5
2B7
  8
0
 10
16.8212973414485703
 20
278.4344302790145775
 30
0.0
  0
VERTEX
  5
2B8
  8
0
 10
17.049758531215101
 20
278.5663324084258079
 30
0.0
  0
VERTEX
  5
2B9
  8
0
 10
17.2784975188195311
 20
278.6983949244933001
 30
0.0
  0
VERTEX
  5
2BA
  8
0
 10
17.5074917905519101
 20
278.8306048289209116
 30
0.0
  0
VERTEX
  5
2BB
  8
0
 10
17.7367188327022482
 20
278.9629491234118746
 30
0.0
  0
VERTEX
  5
2BC
  8
0
 10
17.966154621377509
 20
279.095413937765386
 30
0.0
  0
VERTEX
  5
2BD
  8
0
 10
18.195764336968459
 20
279.2279791688703767
 30
0.0
  0
VERTEX
  5
2BE
  8
0
 10
18.4255084605971113
 20
279.3606220004921283
 30
0.0
  0
VERTEX
  5
2BF
  8
0
 10
18.6553474540478987
 20
279.4933196052311928
 30
0.0
  0
VERTEX
  5
2C0
  8
0
 10
18.8852417791051117
 20
279.6260491556881789
 30
0.0
  0
VERTEX
  5
2C1
  8
0
 10
19.1151518975532291
 20
279.7587878244635817
 30
0.0
  0
VERTEX
  5
2C2
  8
0
 10
19.3450382711765805
 20
279.8915127841581238
 30
0.0
  0
VERTEX
  5
2C3
  8
0
 10
19.5748615971411404
 20
280.024201343269624
 30
0.0
  0
VERTEX
  5
2C4
  8
0
 10
19.8045855401249185
 20
280.1568325235907082
 30
0.0
  0
VERTEX
  5
2C5
  8
0
 10
20.0341757951575197
 20
280.2893865191369969
 30
0.0
  0
VERTEX
  5
2C6
  8
0
 10
20.2635980967139417
 20
280.4218435466987103
 30
0.0
  0
VERTEX
  5
2C7
  8
0
 10
20.4928181792691113
 20
280.554183823065614
 30
0.0
  0
VERTEX
  5
2C8
  8
0
 10
20.7218017772980296
 20
280.6863875650274736
 30
0.0
  0
VERTEX
  5
2C9
  8
0
 10
20.9505150775109392
 20
280.8184352504728167
 30
0.0
  0
VERTEX
  5
2CA
  8
0
 10
21.1789329635536205
 20
280.9503123784671743
 30
0.0
  0
VERTEX
  5
2CB
  8
0
 10
21.4070381628404789
 20
281.082008976678992
 30
0.0
  0
VERTEX
  5
2CC
  8
0
 10
21.6348136838175016
 20
281.2135152350298881
 30
0.0
  0
VERTEX
  5
2CD
  8
0
 10
21.8622425349306901
 20
281.3448213434415948
 30
0.0
  0
VERTEX
  5
2CE
  8
0
 10
22.0893077246259715
 20
281.4759174918357871
 30
0.0
  0
VERTEX
  5
2CF
  8
0
 10
22.3159920235347613
 20
281.606793732831818
 30
0.0
  0
VERTEX
  5
2D0
  8
0
 10
22.5422705567587798
 20
281.7374357049004061
 30
0.0
  0
VERTEX
  5
2D1
  8
0
 10
22.7681093549815117
 20
281.8678237958479258
 30
0.0
  0
VERTEX
  5
2D2
  8
0
 10
22.9934739185557611
 20
281.9979380872932779
 30
0.0
  0
VERTEX
  5
2D3
  8
0
 10
23.2183297478342183
 20
282.1277586608559886
 30
0.0
  0
VERTEX
  5
2D4
  8
0
 10
23.4426423431696698
 20
282.257265598155584
 30
0.0
  0
VERTEX
  5
2D5
  8
0
 10
23.6663774305026493
 20
282.3864391110544148
 30
0.0
  0
VERTEX
  5
2D6
  8
0
 10
23.8895394546388182
 20
282.5152817657623814
 30
0.0
  0
VERTEX
  5
2D7
  8
0
 10
24.1122151537459217
 20
282.6438436405838956
 30
0.0
  0
VERTEX
  5
2D8
  8
0
 10
24.3345017928298013
 20
282.7721808914961912
 30
0.0
  0
VERTEX
  5
2D9
  8
0
 10
24.5564966368962203
 20
282.9003496744766721
 30
0.0
  0
VERTEX
  5
2DA
  8
0
 10
24.7782969509510202
 20
283.0284061455025721
 30
0.0
  0
VERTEX
  5
2DB
  8
0
 10
25.0
 20
283.1564064605511817
 30
0.0
  0
SEQEND
  5
2DC
  8
0
  0
POLYLINE
  5
121
  8
0
 66
     1
 10
0.0
 20
0.0
 30
0.0
  0
VERTEX
  5
2DD
  8
0
 10
13.0
 20
262.3717967697247104
 30
0.0
  0
VERTEX
  5
2DE
  8
0
 10
13.0
 20
262.6278024882229261
 30
0.0
  0
VERTEX
  5
2DF
  8
0
 10
13.0
 20
262.8839196414554067
 30
0.0
  0
VERTEX
  5
2E0
  8
0
 10
13.0
 20
263.1402596641567015
 30
0.0
  0
VERTEX
  5
2E1
  8
0
 10
13.0
 20
263.3969339910611893
 30
0.0
  0
VERTEX
  5
2E2
  8
0
 10
13.0
 20
263.6540540569033055
 30
0.0
  0
VERTEX
  5
2E3
  8
0
 10
13.0
 20
263.9117312964173721
 30
0.0
  0
VERTEX
  5
2E4
  8
0
 10
13.0
 20
264.170067805520091
 30
0.0
  0
VERTEX
  5
2E5
  8
0
 10
13.0
 20
264.4290752579988748
 30
0.0
  0
VERTEX
  5
2E6
  8
0
 10
13.0
 20
264.688714589191818
 30
0.0
  0
VERTEX
  5
2E7
  8
0
 10
13.0
 20
264.948946172860019
 30
0.0
  0
VERTEX
  5
2E8
  8
0
 10
13.0
 20
265.2097303827648034
 30
0.0
  0
VERTEX
  5
2E9
  8
0
 10
13.0
 20
265.471027592667383
 30
0.0
  0
VERTEX
  5
2EA
  8
0
 10
13.0
 20
265.7327981775848116
 30
0.0
  0
VERTEX
  5
2EB
  8
0
 10
13.0
 20
265.9950065703694122
 30
0.0
  0
VERTEX
  5
2EC
  8
0
 10
13.0
 20
266.2576302766523213
 30
0.0
  0
VERTEX
  5
2ED
  8
0
 10
13.0
 20
266.5206494295654238
 30
0.0
  0
VERTEX
  5
2EE
  8
0
 10
13.0
 20
266.7840441622408889
 30
0.0
  0
VERTEX
  5
2EF
  8
0
 10
13.0
 20
267.0477946078104878
 30
0.0
  0
VERTEX
  5
2F0
  8
0
 10
13.0
 20
267.3118808994065034
 30
0.0
  0
VERTEX
  5
2F1
  8
0
 10
13.0
 20
267.5762828587875788
 30
0.0
  0
VERTEX
  5
2F2
  8
0
 10
13.0
 20
267.8409700011894756
 30
0.0
  0
VERTEX
  5
2F3
  8
0
 10
13.0
 20
268.1058994095427011
 30
0.0
  0
VERTEX
  5
2F4
  8
0
 10
13.0
 20
268.3710274255564059
 30
0.0
  0
VERTEX
  5
2F5
  8
0
 10
13.0
 20
268.6363103909393999
 30
0.0
  0
VERTEX
  5
2F6
  8
0
 10
13.0
 20
268.9017046474012886
 30
0.0
  0
VERTEX
  5
2F7
  8
0
 10
13.0
 20
269.1671665366511093
 30
0.0
  0
VERTEX
  5
2F8
  8
0
 10
13.0
 20
269.4326523185990254
 30
0.0
  0
VERTEX
  5
2F9
  8
0
 10
13.0
 20
269.6981171208523165
 30
0.0
  0
VERTEX
  5
2FA
  8
0
 10
13.0
 20
269.9635152439840908
 30
0.0
  0
VERTEX
  5
2FB
  8
0
 10
13.0
 20
270.2288009697185771
 30
0.0
  0
VERTEX
  5
2FC
  8
0
 10
13.0
 20
270.493928579779606
 30
0.0
  0
VERTEX
  5
2FD
  8
0
 10
13.0
 20
270.7588523558911788
 30
0.0
  0
VERTEX
  5
2FE
  8
0
 10
13.0
 20
271.023526579777581
 30
0.0
  0
VERTEX
  5
2FF
  8
0
 10
13.0
 20
271.2879083307436758
 30
0.0
  0
VERTEX
  5
300
  8
0
 10
13.0
 20
271.5519746066227071
 30
0.0
  0
VERTEX
  5
301
  8
0
 10
13.0
 20
271.8157110448188973
 30
0.0
  0
VERTEX
  5
302
  8
0
 10
13.0
 20
272.0791033176852238
 30
0.0
  0
VERTEX
  5
303
  8
0
 10
13.0
 20
272.3421370975740956
 30
0.0
  0
VERTEX
  5
304
  8
0
 10
13.0
 20
272.6047918382378725
 30
0.0
  0
VERTEX
  5
305
  8
0
 10
13.0
 20
272.8670116954825176
 30
0.0
  0
VERTEX
  5
306
  8
0
 10
13.0
 20
273.1287283865416953
 30
0.0
  0
VERTEX
  5
307
  8
0
 10
13.0
 20
273.3898736146940109
 30
0.0
  0
VERTEX
  5
308
  8
0
 10
13.0
 20
273.6503790832173877
 30
0.0
  0
VERTEX
  5
309
  8
0
 10
13.0
 20
273.9101968593012089
 30
0.0
  0
VERTEX
  5
30A
  8
0
 10
13.0
 20
274.1693718910780717
 30
0.0
  0
VERTEX
  5
30B
  8
0
 10
13.0
 20
274.4279755928542954
 30
0.0
  0
VERTEX
  5
30C
  8
0
 10
13.0
 20
274.6860793808797894
 30
0.0
  0
VERTEX
  5
30D
  8
0
 10
13.0
 20
274.9437546714049176
 30
0.0
  0
VERTEX
  5
30E
  8
0
 10
13.0
 20
275.2010728806795896
 30
0.0
  0
VERTEX
  5
30F
  8
0
 10
13.0
 20
275.4581054249538852
 30
0.0
  0
VERTEX
  5
310
  8
0
 10
13.0
 20
275.7149237204779979
 30
0.0
  0
VERTEX
  5
311
  8
0
 10
13.0
 20
275.971599183501894
 30
0.0
  0
VERTEX
  5
312
  8
0
 10
13.0
 20
276.2282032302755965
 30
0.0
  0
SEQEND
  5
313
  8
0
  0
POLYLINE
  5
122
  8
0
 66
     1
 10
0.0
 20
0.0
 30
0.0
  0
VERTEX
  5
314
  8
0
 10
37.0
 20
76.9395280956806573
 30
0.0
  0
VERTEX
  5
315
  8
0
 10
37.0
 20
76.9925824998265114
 30
0.0
  0
VERTEX
  5
316
  8
0
 10
37.0
 20
77.0454483911809263
 30
0.0
  0
VERTEX
  5
317
  8
0
 10
37.0
 20
77.0979372569524344
 30
0.0
  0
VERTEX
  5
318
  8
0
 10
37.0
 20
77.1498605843496392
 30
0.0
  0
VERTEX
  5
319
  8
0
 10
37.0
 20
77.2010298605811016
 30
0.0
  0
VERTEX
  5
31A
  8
0
 10
37.0
 20
77.2512565728553682
 30
0.0
  0
VERTEX
  5
31B
  8
0
 10
37.0
 20
77.3003522083810282
 30
0.0
  0
VERTEX
  5
31C
  8
0
 10
37.0
 20
77.348128254366614
 30
0.0
  0
VERTEX
  5
31D
  8
0
 10
37.0
 20
77.3944058369507673
 30
0.0
  0
VERTEX
  5
31E
  8
0
 10
37.0
 20
77.4391044519842211
 30
0.0
  0
VERTEX
  5
31F
  8
0
 10
37.0
 20
77.4822011140426241
 30
0.0
  0
VERTEX
  5
320
  8
0
 10
37.0
 20
77.523673561438784
 30
0.0
  0
VERTEX
  5
321
  8
0
 10
37.0
 20
77.5634995324855225
 30
0.0
  0
VERTEX
  5
322
  8
0
 10
37.0
 20
77.6016567654956617
 30
0.0
  0
VERTEX
  5
323
  8
0
 10
37.0
 20
77.6381229987820234
 30
0.0
  0
VERTEX
  5
324
  8
0
 10
37.0
 20
77.6728759706574294
 30
0.0
  0
VERTEX
  5
325
  8
0
 10
37.0
 20
77.7058934194346875
 30
0.0
  0
VERTEX
  5
326
  8
0
 10
37.0
 20
77.7371667468583638
 30
0.0
  0
VERTEX
  5
327
  8
0
 10
37.0
 20
77.7667558156856416
 30
0.0
  0
VERTEX
  5
328
  8
0
 10
37.0
 20
77.7947418857777109
 30
0.0
  0
VERTEX
  5
329
  8
0
 10
37.0
 20
77.8212062242288027
 30
0.0
  0
VERTEX
  5
32A
  8
0
 10
37.0
 20
77.8462300981331055
 30
0.0
  0
VERTEX
  5
32B
  8
0
 10
37.0
 20
77.8698947745848358
 30
0.0
  0
VERTEX
  5
32C
  8
0
 10
37.0
 20
77.8922815206782104
 30
0.0
  0
VERTEX
  5
32D
  8
0
 10
37.0
 20
77.9134716035074177
 30
0.0
  0
VERTEX
  5
32E
  8
0
 10
37.0
 20
77.9335459941290907
 30
0.0
  0
VERTEX
  5
32F
  8
0
 10
37.0
 20
77.9524517299881694
 30
0.0
  0
VERTEX
  5
330
  8
0
 10
37.0000000000000284
 20
77.9697908118398004
 30
0.0
  0
VERTEX
  5
331
  8
0
 10
37.0000000000000284
 20
77.9851104345242732
 30
0.0
  0
VERTEX
  5
332
  8
0
 10
37.0000000000000568
 20
77.9979577928819481
 30
0.0
  0
VERTEX
  5
333
  8
0
 10
37.0000000000000568
 20
78.0078800817531004
 30
0.0
  0
VERTEX
  5
334
  8
0
 10
37.0000000000000568
 20
78.0144244959780337
 30
0.0
  0
VERTEX
  5
335
  8
0
 10
37.0000000000000568
 20
78.0171382303970944
 30
0.0
  0
VERTEX
  5
336
  8
0
 10
37.0000000000000284
 20
78.0155684798505717
 30
0.0
  0
VERTEX
  5
337
  8
0
 10
37.0
 20
78.0092836922916604
 30
0.0
  0
SEQEND
  5
338
  8
0
  0
POLYLINE
  5
123
  8
0
 66
     1
 10
0.0
 20
0.0
 30
0.0
  0
VERTEX
  5
339
  8
0
 10
13.0
 20
76.9395280956806573
 30
0.0
  0
VERTEX
  5
33A
  8
0
 10
13.0
 20
76.9925824998265114
 30
0.0
  0
VERTEX
  5
33B
  8
0
 10
13.0
 20
77.045448391180912
 30
0.0
  0
VERTEX
  5
33C
  8
0
 10
13.0
 20
77.0979372569524344
 30
0.0
  0
VERTEX
  5
33D
  8
0
 10
13.0
 20
77.1498605843496392
 30
0.0
  0
VERTEX
  5
33E
  8
0
 10
13.0
 20
77.2010298605811016
 30
0.0
  0
VERTEX
  5
33F
  8
0
 10
13.0
 20
77.2512565728553682
 30
0.0
  0
VERTEX
  5
340
  8
0
 10
13.0
 20
77.3003522083810282
 30
0.0
  0
VERTEX
  5
341
  8
0
 10
13.0
 20
77.348128254366614
 30
0.0
  0
VERTEX
  5
342
  8
0
 10
13.0
 20
77.3944058369507673
 30
0.0
  0
VERTEX
  5
343
  8
0
 10
13.0
 20
77.4391044519842211
 30
0.0
  0
VERTEX
  5
344
  8
0
 10
13.0
 20
77.4822011140426241
 30
0.0
  0
VERTEX
  5
345
  8
0
 10
13.0
 20
77.523673561438784
 30
0.0
  0
VERTEX
  5
346
  8
0
 10
13.0
 20
77.5634995324855225
 30
0.0
  0
VERTEX
  5
347
  8
0
 10
13.0
 20
77.6016567654956617
 30
0.0
  0
VERTEX
  5
348
  8
0
 10
13.0
 20
77.6381229987820234
 30
0.0
  0
VERTEX
  5
349
  8
0
 10
13.0
 20
77.6728759706574294
 30
0.0
  0
VERTEX
  5
34A
  8
0
 10
13.0
 20
77.7058934194346875
 30
0.0
  0
VERTEX
  5
34B
  8
0
 10
13.0
 20
77.7371667468583638
 30
0.0
  0
VERTEX
  5
34C
  8
0
 10
13.0
 20
77.7667558156856416
 30
0.0
  0
VERTEX
  5
34D
  8
0
 10
13.0
 20
77.7947418857777109
 30
0.0
  0
VERTEX
  5
34E
  8
0
 10
13.0
 20
77.8212062242288027
 30
0.0
  0
VERTEX
  5
34F
  8
0
 10
13.0
 20
77.8462300981331055
 30
0.0
  0
VERTEX
  5
350
  8
0
 10
13.0
 20
77.8698947745848358
 30
0.0
  0
VERTEX
  5
351
  8
0
 10
13.0
 20
77.8922815206782104
 30
0.0
  0
VERTEX
  5
352
  8
0
 10
13.0
 20
77.9134716035074177
 30
0.0
  0
VERTEX
  5
353
  8
0
 10
12.9999999999999698
 20
77.9335459941290907
 30
0.0
  0
VERTEX
  5
354
  8
0
 10
12.9999999999999698
 20
77.9524517299881694
 30
0.0
  0
VERTEX
  5
355
  8
0
 10
12.9999999999999698
 20
77.9697908118398004
 30
0.0
  0
VERTEX
  5
356
  8
0
 10
12.9999999999999396
 20
77.9851104345242732
 30
0.0
  0
VERTEX
  5
357
  8
0
 10
12.9999999999999396
 20
77.9979577928819481
 30
0.0
  0
VERTEX
  5
358
  8
0
 10
12.9999999999999396
 20
78.0078800817531004
 30
0.0
  0
VERTEX
  5
359
  8
0
 10
12.9999999999999396
 20
78.0144244959780337
 30
0.0
  0
VERTEX
  5
35A
  8
0
 10
12.9999999999999698
 20
78.0171382303970944
 30
0.0
  0
VERTEX
  5
35B
  8
0
 10
12.9999999999999698
 20
78.0155684798505717
 30
0.0
  0
VERTEX
  5
35C
  8
0
 10
13.0
 20
78.0092836922916604
 30
0.0
  0
SEQEND
  5
35D
  8
0
  0
POLYLINE
  5
124
  8
0
 66
     1
 10
0.0
 20
0.0
 30
0.0
  0
VERTEX
  5
35E
  8
0
 10
13.0
 20
66.6604719043192517
 30
0.0
  0
VERTEX
  5
35F
  8
0
 10
13.0
 20
66.5964198382766313
 30
0.0
  0
VERTEX
  5
360
  8
0
 10
13.0
 20
66.5327078781223946
 30
0.0
  0
VERTEX
  5
361
  8
0
 10
13.0
 20
66.4696761297449399
 30
0.0
  0
VERTEX
  5
362
  8
0
 10
13.0
 20
66.4076646990326651
 30
0.0
  0
VERTEX
  5
363
  8
0
 10
13.0
 20
66.3470136918739541
 30
0.0
  0
VERTEX
  5
364
  8
0
 10
13.0
 20
66.2880632141572335
 30
0.0
  0
VERTEX
  5
365
  8
0
 10
13.0
 20
66.2311533717708585
 30
0.0
  0
VERTEX
  5
366
  8
0
 10
13.0
 20
66.1765894573313744
 30
0.0
  0
VERTEX
  5
367
  8
0
 10
13.0
 20
66.1244250105449964
 30
0.0
  0
VERTEX
  5
368
  8
0
 10
13.0
 20
66.0746028662520928
 30
0.0
  0
VERTEX
  5
369
  8
0
 10
13.0
 20
66.0270653811864747
 30
0.0
  0
VERTEX
  5
36A
  8
0
 10
13.0
 20
65.9817549120820104
 30
0.0
  0
VERTEX
  5
36B
  8
0
 10
13.0
 20
65.938613815672511
 30
0.0
  0
VERTEX
  5
36C
  8
0
 10
13.0
 20
65.8975844486918163
 30
0.0
  0
VERTEX
  5
36D
  8
0
 10
13.0
 20
65.8586167830122378
 30
0.0
  0
VERTEX
  5
36E
  8
0
 10
13.0
 20
65.8218001722027708
 30
0.0
  0
VERTEX
  5
36F
  8
0
 10
13.0
 20
65.7873459734957606
 30
0.0
  0
VERTEX
  5
370
  8
0
 10
13.0
 20
65.7554696643234422
 30
0.0
  0
VERTEX
  5
371
  8
0
 10
13.0
 20
65.7263867221179794
 30
0.0
  0
VERTEX
  5
372
  8
0
 10
13.0
 20
65.7003126243115929
 30
0.0
  0
VERTEX
  5
373
  8
0
 10
13.0
 20
65.6774628483364609
 30
0.0
  0
VERTEX
  5
374
  8
0
 10
13.0
 20
65.6580497799944709
 30
0.0
  0
VERTEX
  5
375
  8
0
 10
13.0
 20
65.6420408150713257
 30
0.0
  0
VERTEX
  5
376
  8
0
 10
13.0
 20
65.6289847656768046
 30
0.0
  0
VERTEX
  5
377
  8
0
 10
13.0
 20
65.6183894792228131
 30
0.0
  0
VERTEX
  5
378
  8
0
 10
13.0
 20
65.6097628031212707
 30
0.0
  0
VERTEX
  5
379
  8
0
 10
13.0
 20
65.6026125847840405
 30
0.0
  0
VERTEX
  5
37A
  8
0
 10
13.0
 20
65.5964466716229992
 30
0.0
  0
VERTEX
  5
37B
  8
0
 10
13.0
 20
65.5907729110500668
 30
0.0
  0
SEQEND
  5
37C
  8
0
  0
POLYLINE
  5
125
  8
0
 66
     1
 10
0.0
 20
0.0
 30
0.0
  0
VERTEX
  5
37D
  8
0
 10
37.0
 20
66.6604719043192517
 30
0.0
  0
VERTEX
  5
37E
  8
0
 10
37.0
 20
66.5964198382766313
 30
0.0
  0
VERTEX
  5
37F
  8
0
 10
37.0
 20
66.5327078781223946
 30
0.0
  0
VERTEX
  5
380
  8
0
 10
37.0
 20
66.4696761297449399
 30
0.0
  0
VERTEX
  5
381
  8
0
 10
37.0
 20
66.4076646990326651
 30
0.0
  0
VERTEX
  5
382
  8
0
 10
37.0
 20
66.3470136918739541
 30
0.0
  0
VERTEX
  5
383
  8
0
 10
37.0
 20
66.2880632141572335
 30
0.0
  0
VERTEX
  5
384
  8
0
 10
37.0
 20
66.2311533717708585
 30
0.0
  0
VERTEX
  5
385
  8
0
 10
37.0
 20
66.1765894573313744
 30
0.0
  0
VERTEX
  5
386
  8
0
 10
37.0
 20
66.1244250105449964
 30
0.0
  0
VERTEX
  5
387
  8
0
 10
37.0
 20
66.0746028662520928
 30
0.0
  0
VERTEX
  5
388
  8
0
 10
37.0
 20
66.0270653811864747
 30
0.0
  0
VERTEX
  5
389
  8
0
 10
37.0
 20
65.9817549120820104
 30
0.0
  0
VERTEX
  5
38A
  8
0
 10
37.0
 20
65.938613815672511
 30
0.0
  0
VERTEX
  5
38B
  8
0
 10
37.0
 20
65.8975844486918163
 30
0.0
  0
VERTEX
  5
38C
  8
0
 10
37.0
 20
65.8586167830122378
 30
0.0
  0
VERTEX
  5
38D
  8
0
 10
37.0
 20
65.8218001722027708
 30
0.0
  0
VERTEX
  5
38E
  8
0
 10
37.0
 20
65.7873459734957606
 30
0.0
  0
VERTEX
  5
38F
  8
0
 10
37.0
 20
65.7554696643234422
 30
0.0
  0
VERTEX
  5
390
  8
0
 10
37.0
 20
65.7263867221179794
 30
0.0
  0
VERTEX
  5
391
  8
0
 10
37.0
 20
65.7003126243115929
 30
0.0
  0
VERTEX
  5
392
  8
0
 10
37.0
 20
65.6774628483364609
 30
0.0
  0
VERTEX
  5
393
  8
0
 10
37.0
 20
65.6580497799944709
 30
0.0
  0
VERTEX
  5
394
  8
0
 10
37.0
 20
65.6420408150713257
 30
0.0
  0
VERTEX
  5
395
  8
0
 10
37.0
 20
65.6289847656768046
 30
0.0
  0
VERTEX
  5
396
  8
0
 10
37.0
 20
65.6183894792228131
 30
0.0
  0
VERTEX
  5
397
  8
0
 10
37.0
 20
65.6097628031212707
 30
0.0
  0
VERTEX
  5
398
  8
0
 10
37.0
 20
65.6026125847840405
 30
0.0
  0
VERTEX
  5
399
  8
0
 10
37.0
 20
65.5964466716229992
 30
0.0
  0
VERTEX
  5
39A
  8
0
 10
37.0
 20
65.5907729110500668
 30
0.0
  0
SEQEND
  5
39B
  8
0
  0
ENDSEC
  0
EOF
