  0
SECTION
  2
HEADER
  9
$ACADVER
  1
AC1009
  9
$INSBASE
 10
0.0
 20
0.0
 30
0.0
  9
$EXTMIN
 10
0.0
 20
-2.960436562073669
 30
0.0
  9
$EXTMAX
 10
133.5538881309686019
 20
188.3000000000000114
 30
0.0
  9
$LIMMIN
 10
0.0
 20
0.0
  9
$LIMMAX
 10
375.0
 20
270.0
  9
$ORTHOMODE
 70
     1
  9
$REGENMODE
 70
     1
  9
$FILLMODE
 70
     1
  9
$QTEXTMODE
 70
     0
  9
$MIRRTEXT
 70
     0
  9
$DRAGMODE
 70
     2
  9
$LTSCALE
 40
6.0
  9
$OSMODE
 70
    37
  9
$ATTMODE
 70
     1
  9
$TEXTSIZE
 40
0.2
  9
$TRACEWID
 40
0.05
  9
$TEXTSTYLE
  7
STANDARD
  9
$CLAYER
  8
0
  9
$CELTYPE
  6
BYLAYER
  9
$CECOLOR
 62
   256
  9
$DIMSCALE
 40
1.0
  9
$DIMASZ
 40
3.0
  9
$DIMEXO
 40
1.0
  9
$DIMDLI
 40
6.0
  9
$DIMRND
 40
0.0
  9
$DIMDLE
 40
0.0
  9
$DIMEXE
 40
1.0
  9
$DIMTP
 40
495.0
  9
$DIMTM
 40
0.0
  9
$DIMTXT
 40
3.0
  9
$DIMCEN
 40
0.0
  9
$DIMTSZ
 40
0.0
  9
$DIMTOL
 70
     0
  9
$DIMLIM
 70
     0
  9
$DIMTIH
 70
     0
  9
$DIMTOH
 70
     0
  9
$DIMSE1
 70
     0
  9
$DIMSE2
 70
     0
  9
$DIMTAD
 70
     1
  9
$DIMZIN
 70
     0
  9
$DIMBLK
  1

  9
$DIMASO
 70
     0
  9
$DIMSHO
 70
     0
  9
$DIMPOST
  1

  9
$DIMAPOST
  1

  9
$DIMALT
 70
     0
  9
$DIMALTD
 70
     2
  9
$DIMALTF
 40
25.3999999999999986
  9
$DIMLFAC
 40
1.0
  9
$DIMTOFL
 70
     1
  9
$DIMTVP
 40
0.0
  9
$DIMTIX
 70
     1
  9
$DIMSOXD
 70
     0
  9
$DIMSAH
 70
     0
  9
$DIMBLK1
  1

  9
$DIMBLK2
  1

  9
$DIMSTYLE
  2
STANDARD
  9
$DIMCLRD
 70
     0
  9
$DIMCLRE
 70
     0
  9
$DIMCLRT
 70
     4
  9
$DIMTFAC
 40
1.0
  9
$DIMGAP
 40
1.0
  9
$LUNITS
 70
     2
  9
$LUPREC
 70
     4
  9
$SKETCHINC
 40
0.1
  9
$FILLETRAD
 40
0.0
  9
$AUNITS
 70
     0
  9
$AUPREC
 70
     0
  9
$MENU
  1
C:\R13\WIN\SUPPORT\ACAD-I
  9
$ELEVATION
 40
0.0
  9
$PELEVATION
 40
0.0
  9
$THICKNESS
 40
0.0
  9
$LIMCHECK
 70
     0
  9
$BLIPMODE
 70
     0
  9
$CHAMFERA
 40
0.0
  9
$CHAMFERB
 40
0.0
  9
$SKPOLY
 70
     0
  9
$TDCREATE
 40
2451961.7115277778357267
  9
$TDUPDATE
 40
2460580.5715509261935949
  9
$TDINDWG
 40
0.1354197569
  9
$TDUSRTIMER
 40
2456598.0968956127762794
  9
$USRTIMER
 70
     1
  9
$ANGBASE
 50
0.0
  9
$ANGDIR
 70
     0
  9
$PDMODE
 70
     0
  9
$PDSIZE
 40
0.0
  9
$PLINEWID
 40
0.0
  9
$COORDS
 70
     1
  9
$SPLFRAME
 70
     0
  9
$SPLINETYPE
 70
     6
  9
$SPLINESEGS
 70
     8
  9
$ATTDIA
 70
     1
  9
$ATTREQ
 70
     1
  9
$HANDLING
 70
     1
  9
$HANDSEED
  5
4F1
  9
$SURFTAB1
 70
     6
  9
$SURFTAB2
 70
     6
  9
$SURFTYPE
 70
     6
  9
$SURFU
 70
     6
  9
$SURFV
 70
     6
  9
$UCSNAME
  2

  9
$UCSORG
 10
0.0
 20
0.0
 30
0.0
  9
$UCSXDIR
 10
1.0
 20
0.0
 30
0.0
  9
$UCSYDIR
 10
0.0
 20
1.0
 30
0.0
  9
$PUCSNAME
  2

  9
$PUCSORG
 10
0.0
 20
0.0
 30
0.0
  9
$PUCSXDIR
 10
1.0
 20
0.0
 30
0.0
  9
$PUCSYDIR
 10
0.0
 20
1.0
 30
0.0
  9
$USERI1
 70
     4
  9
$USERI2
 70
     1
  9
$USERI3
 70
     0
  9
$USERI4
 70
     0
  9
$USERI5
 70
     0
  9
$USERR1
 40
1.0
  9
$USERR2
 40
3.0
  9
$USERR3
 40
3.0
  9
$USERR4
 40
3.0
  9
$USERR5
 40
10.0
  9
$WORLDVIEW
 70
     1
  9
$SHADEDGE
 70
     3
  9
$SHADEDIF
 70
    70
  9
$TILEMODE
 70
     1
  9
$MAXACTVP
 70
    16
  9
$PLIMCHECK
 70
     0
  9
$PEXTMIN
 10
1.0000000000000000E+20
 20
1.0000000000000000E+20
 30
1.0000000000000000E+20
  9
$PEXTMAX
 10
-1.0000000000000000E+20
 20
-1.0000000000000000E+20
 30
-1.0000000000000000E+20
  9
$PLIMMIN
 10
0.0
 20
0.0
  9
$PLIMMAX
 10
12.0
 20
9.0
  9
$UNITMODE
 70
     0
  9
$VISRETAIN
 70
     0
  9
$PLINEGEN
 70
     0
  9
$PSLTSCALE
 70
     0
  0
ENDSEC
  0
SECTION
  2
TABLES
  0
TABLE
  2
VPORT
 70
     1
  0
VPORT
  2
*ACTIVE
 70
     0
 10
0.0
 20
0.0
 11
1.0
 21
1.0
 12
234.8522167487685124
 22
100.0
 13
0.0
 23
0.0
 14
10.0
 24
10.0
 15
10.0
 25
10.0
 16
0.0
 26
0.0
 36
1.0
 17
0.0
 27
0.0
 37
0.0
 40
200.0
 41
2.3485221674876842
 42
50.0
 43
0.0
 44
0.0
 50
0.0
 51
0.0
 71
    16
 72
   100
 73
     1
 74
     0
 75
     0
 76
     0
 77
     0
 78
     0
  0
ENDTAB
  0
TABLE
  2
LTYPE
 70
     3
  0
LTYPE
  2
CONTINUOUS
 70
     0
  3
Solid Line
 72
    65
 73
     0
 40
0.0
  0
LTYPE
  2
CENTER
 70
     0
  3
____ _ ____ _ ____ _ ____ _ ____ _ ____ _ ____
 72
    65
 73
     4
 40
2.0
 49
1.25
 49
-0.25
 49
0.25
 49
-0.25
  0
LTYPE
  2
HIDDEN
 70
     0
  3
Hidden __ __ __ __ __ __ __ __ __ __ __ __ __ __
 72
    65
 73
     2
 40
1.905
 49
1.27
 49
-0.635
  0
ENDTAB
  0
TABLE
  2
LAYER
 70
     4
  0
LAYER
  2
0
 70
     0
 62
     7
  6
CONTINUOUS
  0
LAYER
  2
1
 70
     0
 62
     1
  6
CENTER
  0
LAYER
  2
3
 70
     0
 62
     3
  6
CONTINUOUS
  0
LAYER
  2
2
 70
     0
 62
     2
  6
HIDDEN
  0
ENDTAB
  0
TABLE
  2
STYLE
 70
     2
  0
STYLE
  2
STANDARD
 70
     0
 40
0.0
 41
1.0
 50
0.0
 71
     0
 42
0.2
  3
SIMPLEX
  4
BIGFONT
  0
STYLE
  2
STANDARD1
 70
     0
 40
0.0
 41
1.0
 50
0.0
 71
     0
 42
3.0
  3
txt
  4

  0
ENDTAB
  0
TABLE
  2
VIEW
 70
     0
  0
ENDTAB
  0
TABLE
  2
UCS
 70
     0
  0
ENDTAB
  0
TABLE
  2
APPID
 70
     8
  0
APPID
  2
ACAD
 70
     0
  0
APPID
  2
ACAD_NAV_VCDISPLAY
 70
     0
  0
APPID
  2
ACAECLAYERSTANDARD
 70
     0
  0
APPID
  2
ACCMTRANSPARENCY
 70
     0
  0
APPID
  2
ACAD_EXEMPT_FROM_CAD_STANDARDS
 70
     0
  0
APPID
  2
ACAD_TC
 70
     0
  0
APPID
  2
ACAD_DSTYLE_DIMRADIAL_EXTENSION
 70
     0
  0
APPID
  2
ACAD_MLEADERVER
 70
     0
  0
ENDTAB
  0
TABLE
  2
DIMSTYLE
 70
     1
  0
DIMSTYLE
  2
STANDARD
 70
     0
  3

  4

  5

  6

  7

 40
1.0
 41
0.18
 42
0.0625
 43
0.38
 44
0.18
 45
0.0
 46
0.0
 47
0.0
 48
0.0
140
0.18
141
0.09
142
0.0
143
25.3999999999999986
144
1.0
145
0.0
146
1.0
147
0.09
 71
     0
 72
     0
 73
     1
 74
     1
 75
     0
 76
     0
 77
     0
 78
     0
170
     0
171
     2
172
     0
173
     0
174
     0
175
     0
176
     0
177
     0
178
     0
  0
ENDTAB
  0
ENDSEC
  0
SECTION
  2
BLOCKS
  0
BLOCK
  8
0
  2
$MODEL_SPACE
 70
     0
 10
0.0
 20
0.0
 30
0.0
  3
$MODEL_SPACE
  1

  0
ENDBLK
  5
F
  8
0
  0
BLOCK
 67
     1
  8
0
  2
$PAPER_SPACE
 70
     0
 10
0.0
 20
0.0
 30
0.0
  3
$PAPER_SPACE
  1

  0
ENDBLK
  5
14
 67
     1
  8
0
  0
ENDSEC
  0
SECTION
  2
ENTITIES
  0
TEXT
  5
59
  8
0
 62
     3
 10
0.0
 20
0.0
 30
0.0
 40
10.0
  1
LSVA32-M8X68-SUS
  7
STANDARD1
  0
LINE
  5
5B
  8
0
 10
18.5
 20
65.4443375672974526
 30
0.0
 11
18.75
 21
65.3000000000000682
 31
0.0
  0
LINE
  5
5C
  8
0
 10
31.2500000000000107
 20
65.3000000000000682
 30
0.0
 11
31.5
 21
65.4443375672974526
 31
0.0
  0
LINE
  5
5D
  8
0
 10
31.5000000000000107
 20
71.655662432702627
 30
0.0
 11
31.2500000000000107
 21
71.8000000000000114
 31
0.0
  0
LINE
  5
5E
  8
0
 10
18.75
 20
71.8000000000000114
 30
0.0
 11
18.5
 21
71.655662432702627
 31
0.0
  0
ARC
  5
5F
  8
0
 10
25.0
 20
43.0500000000000114
 30
0.0
 40
6.9999999999999947
 50
124.8499045790458979
 51
161.2506591529819957
  0
ARC
  5
60
  8
0
 10
25.0
 20
43.0500000000000114
 30
0.0
 40
7.0000000000000044
 50
18.7493408470180185
 51
55.1500954209540382
  0
LINE
  5
61
  8
0
 10
29.0000000000000107
 20
122.5330000000000013
 30
0.0
 11
28.2330000000000112
 21
123.2999999999999972
 31
0.0
  0
LINE
  5
62
  8
0
 10
21.7669999999999995
 20
123.2999999999999972
 30
0.0
 11
21.0000000000000107
 21
122.5330000000000013
 31
0.0
  0
LINE
  5
63
  8
0
 10
29.0000000000000107
 20
55.3000000000000682
 30
0.0
 11
29.0000000000000107
 21
65.3000000000000682
 31
0.0
  0
LINE
  5
64
  8
0
 10
29.0000000000000107
 20
71.800000000000054
 30
0.0
 11
29.0000000000000107
 21
122.5330000000000013
 31
0.0
  0
LINE
  5
65
  8
0
 10
21.0000000000000107
 20
122.5330000000000013
 30
0.0
 11
21.0000000000000107
 21
71.800000000000054
 31
0.0
  0
LINE
  5
66
  8
0
 10
21.0000000000000107
 20
65.3000000000000682
 30
0.0
 11
21.0000000000000107
 21
55.3000000000000114
 31
0.0
  0
LINE
  5
67
  8
0
 10
29.0000000000000107
 20
48.7945626465380471
 30
0.0
 11
29.0000000000000107
 21
51.5500000000000682
 31
0.0
  0
LINE
  5
68
  8
0
 10
21.0000000000000107
 20
51.5500000000000682
 30
0.0
 11
21.0000000000000107
 21
48.7945626465380471
 31
0.0
  0
LINE
  5
69
  8
0
 10
41.0
 20
30.8300000000000409
 30
0.0
 11
41.0
 21
35.3000000000000185
 31
0.0
  0
LINE
  5
6A
  8
0
 10
9.0
 20
35.3000000000000185
 30
0.0
 11
9.0
 21
30.8300000000000409
 31
0.0
  0
LINE
  5
6D
  8
0
 10
9.0
 20
30.8300000000000409
 30
0.0
 11
9.5300000000000047
 21
30.3000000000000114
 31
0.0
  0
LINE
  5
6E
  8
0
 10
40.4699999999999918
 20
30.3000000000000114
 30
0.0
 11
41.0
 21
30.8300000000000409
 31
0.0
  0
LINE
  5
6F
  8
0
 10
41.0
 20
35.3000000000000185
 30
0.0
 11
36.2000000000000028
 21
40.3000000000000327
 31
0.0
  0
LINE
  5
70
  8
0
 10
13.8000000000000007
 20
40.3000000000000327
 30
0.0
 11
9.0
 21
35.3000000000000185
 31
0.0
  0
LINE
  5
71
  8
0
 10
36.5499999999999972
 20
25.0
 30
0.0
 11
36.5499999999999972
 21
30.3000000000000114
 31
0.0
  0
LINE
  5
72
  8
0
 10
13.4499999999999993
 20
30.3000000000000114
 30
0.0
 11
13.4499999999999993
 21
25.0
 31
0.0
  0
LINE
  5
75
  8
0
 10
36.2000000000000028
 20
40.3000000000000327
 30
0.0
 11
35.3183650964576685
 21
45.3000000000000114
 31
0.0
  0
LINE
  5
76
  8
0
 10
14.6816349035423208
 20
45.3000000000000114
 30
0.0
 11
13.8000000000000007
 21
40.3000000000000327
 31
0.0
  0
LINE
  5
79
  8
0
 10
24.9999999999999893
 20
71.0751058491018739
 30
0.0
 11
24.9999999999999893
 21
66.0248941508982057
 31
0.0
  0
LINE
  5
7A
  8
0
 10
31.5000000000000107
 20
71.655662432702627
 30
0.0
 11
31.5
 21
65.4443375672974526
 31
0.0
  0
LINE
  5
7B
  8
0
 10
31.2500000000000107
 20
65.3000000000000682
 30
0.0
 11
18.7500000000000107
 21
65.3000000000000682
 31
0.0
  0
LINE
  5
7C
  8
0
 10
18.5
 20
71.655662432702627
 30
0.0
 11
18.5
 21
65.4443375672974526
 31
0.0
  0
LINE
  5
7D
  8
0
 10
18.75
 20
71.8000000000000114
 30
0.0
 11
31.2500000000000107
 21
71.8000000000000114
 31
0.0
  0
LINE
  5
7E
  8
0
 10
32.0000000000000071
 20
51.5499999999998408
 30
0.0
 11
32.0000000000000071
 21
55.2999999999998408
 31
0.0
  0
LINE
  5
7F
  8
0
 10
25.0
 20
52.1752147823393102
 30
0.0
 11
25.0
 21
54.6747852176607125
 31
0.0
  0
LINE
  5
80
  8
0
 10
18.0
 20
51.5500000000000682
 30
0.0
 11
18.0
 21
55.3000000000000682
 31
0.0
  0
LINE
  5
81
  8
0
 10
21.0000000000000107
 20
48.7945626465380471
 30
0.0
 11
29.0000000000000107
 21
48.7945626465380471
 31
0.0
  0
LINE
  5
82
  8
0
 10
32.0000000000000071
 20
55.2999999999998408
 30
0.0
 11
18.0
 21
55.3000000000000682
 31
0.0
  0
LINE
  5
83
  8
0
 10
32.0000000000000071
 20
51.5499999999998408
 30
0.0
 11
18.0
 21
51.5500000000000682
 31
0.0
  0
LINE
  5
84
  8
0
 10
28.2330000000000112
 20
123.2999999999999972
 30
0.0
 11
21.7669999999999995
 21
123.2999999999999972
 31
0.0
  0
LINE
  5
85
  8
0
 10
29.0000000000000107
 20
122.5330000000000013
 30
0.0
 11
21.0000000000000107
 21
122.5330000000000013
 31
0.0
  0
LINE
  5
87
  8
0
 10
40.4699999999999918
 20
30.3000000000000114
 30
0.0
 11
9.5300000000000047
 21
30.3000000000000114
 31
0.0
  0
LINE
  5
88
  8
0
 10
36.5499999999999901
 20
25.0
 30
0.0
 11
13.4500000000000099
 21
25.0
 31
0.0
  0
LINE
  5
89
  8
0
 10
35.3183650964576685
 20
45.3000000000000114
 30
0.0
 11
14.6816349035423208
 21
45.3000000000000114
 31
0.0
  0
CIRCLE
  5
8F
  8
0
 10
25.0
 20
169.3000000000000114
 30
0.0
 40
6.2500000000000071
  0
CIRCLE
  5
96
  8
0
 10
25.0
 20
169.2999999999998124
 30
0.0
 40
4.0
  0
ARC
  5
97
  8
0
 10
25.0
 20
169.2999999999998977
 30
0.0
 40
6.9999999999999956
 50
98.3484110936189637
 51
120.0000000000003979
  0
ARC
  5
98
  8
0
 10
25.0
 20
169.2999999999998977
 30
0.0
 40
6.9999999999999867
 50
59.9999999999996021
 51
81.265979390652646
  0
ARC
  5
9B
  8
0
 10
25.0
 20
169.2999999999998977
 30
0.0
 40
7.0000000000000107
 50
278.3484110936159937
 51
300.0000000000014211
  0
ARC
  5
9C
  8
0
 10
25.0
 20
169.2999999999998977
 30
0.0
 40
7.0000000000000044
 50
240.000000000000199
 51
261.2659793906569234
  0
ARC
  5
9D
  8
0
 10
25.0
 20
169.2999999999998977
 30
0.0
 40
7.0000000000000044
 50
218.3484110936159937
 51
240.000000000000199
  0
ARC
  5
9E
  8
0
 10
25.0
 20
169.2999999999998977
 30
0.0
 40
7.0
 50
180.0
 51
201.2659793906547918
  0
ARC
  5
9F
  8
0
 10
25.0
 20
169.2999999999998977
 30
0.0
 40
7.0
 50
158.3484110936171874
 51
180.0
  0
ARC
  5
A0
  8
0
 10
25.0
 20
169.2999999999998977
 30
0.0
 40
6.9999999999999982
 50
120.0000000000003979
 51
141.2659793906514096
  0
ARC
  5
A1
  8
0
 10
25.0
 20
169.2999999999998977
 30
0.0
 40
6.999999999999992
 50
38.3484110936193403
 51
59.9999999999996021
  0
ARC
  5
A2
  8
0
 10
25.0
 20
169.2999999999998977
 30
0.0
 40
7.0000000000000071
 50
0.0
 51
21.2659793906547883
  0
ARC
  5
A3
  8
0
 10
25.0
 20
169.2999999999998977
 30
0.0
 40
7.000000000000008
 50
338.3484110936171874
 51
0.0
  0
ARC
  5
A4
  8
0
 10
25.0
 20
169.2999999999998977
 30
0.0
 40
7.0000000000000107
 50
300.0000000000014211
 51
321.265979390658174
  0
CIRCLE
  5
B0
  8
0
 10
25.0
 20
169.2999999999998977
 30
0.0
 40
9.6512808896717388
  0
CIRCLE
  5
B4
  8
0
 10
25.0
 20
169.3000000000000114
 30
0.0
 40
16.0000000000000284
  0
LINE
  5
B5
  8
0
 10
107.5055534994650941
 20
71.0751058491018739
 30
0.0
 11
106.25
 21
71.8000000000000114
 31
0.0
  0
LINE
  5
B6
  8
0
 10
93.7499999999999858
 20
71.8000000000000114
 30
0.0
 11
92.4944465005348349
 21
71.0751058491018739
 31
0.0
  0
LINE
  5
B7
  8
0
 10
92.4944465005348349
 20
66.0248941508982057
 30
0.0
 11
93.7499999999999858
 21
65.3000000000000682
 31
0.0
  0
LINE
  5
B8
  8
0
 10
106.25
 20
65.3000000000000682
 30
0.0
 11
107.5055534994650941
 21
66.0248941508982057
 31
0.0
  0
ARC
  5
B9
  8
0
 10
99.9999999999999147
 20
43.0500000000000114
 30
0.0
 40
7.0000000000000151
 50
124.8499045790459974
 51
161.2506591529821094
  0
ARC
  5
BA
  8
0
 10
99.9999999999999147
 20
43.0500000000000114
 30
0.0
 40
7.0000000000000071
 50
18.7493408470180185
 51
55.1500954209541874
  0
LINE
  5
BB
  8
0
 10
103.9999999999999005
 20
55.3000000000000682
 30
0.0
 11
103.999999999999801
 21
65.3000000000000682
 31
0.0
  0
LINE
  5
BC
  8
0
 10
103.999999999999801
 20
71.800000000000054
 30
0.0
 11
103.9999999999997016
 21
122.5330000000000013
 31
0.0
  0
LINE
  5
BD
  8
0
 10
95.9999999999997442
 20
122.5330000000000013
 30
0.0
 11
95.9999999999998295
 21
71.800000000000054
 31
0.0
  0
LINE
  5
BE
  8
0
 10
95.9999999999998437
 20
65.3000000000000682
 30
0.0
 11
95.9999999999998721
 21
55.3000000000000114
 31
0.0
  0
LINE
  5
BF
  8
0
 10
103.9999999999997016
 20
122.5330000000000013
 30
0.0
 11
103.2329999999997057
 21
123.2999999999999972
 31
0.0
  0
LINE
  5
C0
  8
0
 10
96.7669999999997259
 20
123.2999999999999972
 30
0.0
 11
95.9999999999997442
 21
122.5330000000000013
 31
0.0
  0
LINE
  5
C1
  8
0
 10
103.9999999999999005
 20
48.794562646538111
 30
0.0
 11
103.9999999999999005
 21
51.5500000000000682
 31
0.0
  0
LINE
  5
C2
  8
0
 10
95.9999999999998863
 20
51.5500000000000114
 30
0.0
 11
95.9999999999999005
 21
48.7945626465380471
 31
0.0
  0
LINE
  5
C3
  8
0
 10
107.0
 20
51.550000000000118
 30
0.0
 11
108.082903768654603
 21
52.175214782339367
 31
0.0
  0
LINE
  5
C4
  8
0
 10
108.082903768654603
 20
54.6747852176607694
 30
0.0
 11
106.999999999999801
 21
55.300000000000118
 31
0.0
  0
LINE
  5
C5
  8
0
 10
91.9170962313451554
 20
52.1752147823392534
 30
0.0
 11
92.9999999999999005
 21
51.5500000000000114
 31
0.0
  0
LINE
  5
C6
  8
0
 10
92.9999999999998579
 20
55.3000000000000114
 30
0.0
 11
91.9170962313451412
 21
54.6747852176607125
 31
0.0
  0
LINE
  5
C7
  8
0
 10
116.0
 20
30.8300000000001013
 30
0.0
 11
115.9999999999999005
 21
35.3000000000000824
 31
0.0
  0
LINE
  5
C8
  8
0
 10
83.9999999999999574
 20
35.2999999999999616
 30
0.0
 11
83.9999999999999574
 21
30.8299999999999912
 31
0.0
  0
LINE
  5
C9
  8
0
 10
83.9999999999999574
 20
30.8299999999999912
 30
0.0
 11
84.5299999999999727
 21
30.2999999999999616
 31
0.0
  0
LINE
  5
CA
  8
0
 10
115.4699999999999989
 20
30.3000000000000718
 30
0.0
 11
116.0
 21
30.8300000000001013
 31
0.0
  0
LINE
  5
CD
  8
0
 10
115.9999999999999005
 20
35.3000000000000824
 30
0.0
 11
111.1999999999999034
 21
40.3000000000000824
 31
0.0
  0
LINE
  5
CE
  8
0
 10
88.7999999999999261
 20
40.2999999999999829
 30
0.0
 11
83.9999999999999574
 21
35.2999999999999616
 31
0.0
  0
LINE
  5
CF
  8
0
 10
111.5499999999999972
 20
25.0000000000000604
 30
0.0
 11
111.5499999999998977
 21
30.3000000000000718
 31
0.0
  0
LINE
  5
D0
  8
0
 10
88.4499999999999744
 20
30.3000000000000185
 30
0.0
 11
88.4499999999999744
 21
25.0
 31
0.0
  0
LINE
  5
D3
  8
0
 10
111.1999999999999034
 20
40.3000000000000824
 30
0.0
 11
110.3183650964575975
 21
45.3000000000000682
 31
0.0
  0
LINE
  5
D4
  8
0
 10
89.6816349035422462
 20
45.3000000000000114
 30
0.0
 11
88.7999999999999261
 21
40.2999999999999829
 31
0.0
  0
LINE
  5
D7
  8
0
 10
100.0
 20
71.8000000000000114
 30
0.0
 11
106.25
 21
71.8000000000000114
 31
0.0
  0
LINE
  5
D8
  8
0
 10
93.7499999999999858
 20
71.8000000000000114
 30
0.0
 11
100.0
 21
71.8000000000000114
 31
0.0
  0
LINE
  5
D9
  8
0
 10
107.5055534994650941
 20
71.0751058491018739
 30
0.0
 11
107.5055534994650941
 21
66.0248941508982057
 31
0.0
  0
LINE
  5
DA
  8
0
 10
103.7527767497325044
 20
71.0751058491018739
 30
0.0
 11
103.7527767497325044
 21
66.0248941508982057
 31
0.0
  0
LINE
  5
DB
  8
0
 10
106.25
 20
65.3000000000000682
 30
0.0
 11
93.7499999999999858
 21
65.3000000000000682
 31
0.0
  0
LINE
  5
DC
  8
0
 10
96.2472232502674103
 20
71.0751058491018739
 30
0.0
 11
96.2472232502674103
 21
66.0248941508982057
 31
0.0
  0
LINE
  5
DD
  8
0
 10
92.4944465005348349
 20
71.0751058491018739
 30
0.0
 11
92.4944465005348349
 21
66.0248941508982057
 31
0.0
  0
LINE
  5
DE
  8
0
 10
108.082903768654603
 20
52.175214782339367
 30
0.0
 11
108.082903768654603
 21
54.6747852176607694
 31
0.0
  0
LINE
  5
DF
  8
0
 10
104.041451884327202
 20
52.175214782339367
 30
0.0
 11
104.041451884327202
 21
54.6747852176607694
 31
0.0
  0
LINE
  5
E0
  8
0
 10
95.9999999999999005
 20
48.7945626465380471
 30
0.0
 11
103.9999999999999005
 21
48.794562646538111
 31
0.0
  0
LINE
  5
E1
  8
0
 10
95.9585481156724853
 20
52.1752147823393102
 30
0.0
 11
95.9585481156724853
 21
54.6747852176607125
 31
0.0
  0
LINE
  5
E2
  8
0
 10
106.999999999999801
 20
55.300000000000118
 30
0.0
 11
92.9999999999998579
 21
55.3000000000000114
 31
0.0
  0
LINE
  5
E3
  8
0
 10
107.0
 20
51.550000000000118
 30
0.0
 11
92.9999999999999005
 21
51.5500000000000114
 31
0.0
  0
LINE
  5
E4
  8
0
 10
91.9170962313451554
 20
52.1752147823393102
 30
0.0
 11
91.9170962313451412
 21
54.6747852176607125
 31
0.0
  0
LINE
  5
E5
  8
0
 10
103.9999999999997016
 20
122.5330000000000013
 30
0.0
 11
95.9999999999997442
 21
122.5330000000000013
 31
0.0
  0
LINE
  5
E6
  8
0
 10
103.2329999999997057
 20
123.2999999999999972
 30
0.0
 11
96.7669999999997259
 21
123.2999999999999972
 31
0.0
  0
LINE
  5
E8
  8
0
 10
115.4699999999999989
 20
30.3000000000000718
 30
0.0
 11
84.5299999999999727
 21
30.2999999999999616
 31
0.0
  0
LINE
  5
E9
  8
0
 10
111.5499999999999972
 20
25.0000000000000604
 30
0.0
 11
88.4500000000000028
 21
25.0
 31
0.0
  0
LINE
  5
EA
  8
0
 10
110.3183650964575975
 20
45.3000000000000682
 30
0.0
 11
89.6816349035422462
 21
45.3000000000000114
 31
0.0
  0
LINE
  5
F0
  8
3
 10
28.3235000000011006
 20
71.8000000000000114
 30
0.0
 11
28.3235000000000916
 21
123.2095000000000056
 31
0.0
  0
LINE
  5
F4
  8
3
 10
21.6765000000008712
 20
71.8000000000000114
 30
0.0
 11
21.67649999999988
 21
123.2094999999999061
 31
0.0
  0
LINE
  5
F5
  8
1
 10
24.9999999999999005
 20
22.0000000000000604
 30
0.0
 11
25.0
 21
126.2999999999999972
 31
0.0
  0
LINE
  5
FA
  8
3
 10
28.3235000000001094
 20
57.3000000000000682
 30
0.0
 11
29.0000000000000284
 21
56.1282676286799571
 31
0.0
  0
LINE
  5
FB
  8
3
 10
21.6764999999999191
 20
57.3000000000000682
 30
0.0
 11
21.0000000000000284
 21
56.1282676286799571
 31
0.0
  0
LINE
  5
FC
  8
0
 10
21.0000000000000284
 20
57.3000000000000682
 30
0.0
 11
29.0000000000000888
 21
57.2999999999999474
 31
0.0
  0
LINE
  5
FD
  8
3
 10
21.6764999999999013
 20
57.3000000000000682
 30
0.0
 11
21.6764999999999191
 21
65.3000000000000682
 31
0.0
  0
LINE
  5
FE
  8
3
 10
28.3235000000001591
 20
57.3000000000000114
 30
0.0
 11
28.3235000000001698
 21
65.3000000000000114
 31
0.0
  0
ARC
  5
FF
  8
0
 10
21.4999999999999716
 20
45.1907592389624071
 30
0.0
 40
10.1092407610375901
 50
69.7438419995835517
 51
110.2561580004164057
  0
ARC
  5
100
  8
0
 10
28.4999999999999112
 20
45.1907592389607586
 30
0.0
 40
10.1092407610391408
 50
69.7438419995857544
 51
110.2561580004135067
  0
ARC
  5
101
  8
0
 10
28.4999999999999609
 20
61.6592407610369833
 30
0.0
 40
10.1092407610370305
 50
249.7438419995810932
 51
290.2561580004189068
  0
ARC
  5
102
  8
0
 10
21.5000000000000284
 20
61.6592407610361306
 30
0.0
 40
10.1092407610361796
 50
249.7438419995795016
 51
290.2561580004197026
  0
ARC
  5
103
  8
0
 10
21.7500000000154685
 20
62.2669879527775194
 30
0.0
 40
9.3885803439843638
 50
69.7470585118703781
 51
110.2529414883317003
  0
ARC
  5
104
  8
0
 10
28.2500000000038689
 20
62.2669879527124408
 30
0.0
 40
9.388580344049398
 50
69.7470585119406081
 51
110.2529414877450051
  0
ARC
  5
105
  8
0
 10
28.2500000000000604
 20
74.8330120473081024
 30
0.0
 40
9.3885803440699132
 50
249.7470585119608018
 51
290.2529414880381751
  0
ARC
  5
106
  8
0
 10
21.7499999999999005
 20
74.8330120473078182
 30
0.0
 40
9.3885803440696343
 50
249.7470585119613986
 51
290.2529414880395962
  0
LINE
  5
107
  8
1
 10
99.9999999999999147
 20
22.0000000000000604
 30
0.0
 11
100.0
 21
126.2999999999999972
 31
0.0
  0
LINE
  5
108
  8
3
 10
103.3235000000008057
 20
71.8000000000000114
 30
0.0
 11
103.3234999999997967
 21
123.2095000000000056
 31
0.0
  0
LINE
  5
109
  8
3
 10
96.676500000000587
 20
71.8000000000000114
 30
0.0
 11
96.6764999999996064
 21
123.2094999999999061
 31
0.0
  0
LINE
  5
10A
  8
3
 10
103.3234999999997967
 20
57.3000000000000682
 30
0.0
 11
103.9999999999997016
 21
56.1282676286799571
 31
0.0
  0
LINE
  5
10B
  8
3
 10
96.6764999999996633
 20
57.3000000000000682
 30
0.0
 11
95.9999999999997584
 21
56.1282676286799571
 31
0.0
  0
LINE
  5
10C
  8
0
 10
95.9999999999997584
 20
57.3000000000000682
 30
0.0
 11
103.999999999999801
 21
57.2999999999999474
 31
0.0
  0
LINE
  5
10D
  8
3
 10
96.6764999999996206
 20
57.3000000000000682
 30
0.0
 11
96.6764999999996633
 21
65.3000000000000682
 31
0.0
  0
LINE
  5
10E
  8
3
 10
103.3234999999998962
 20
57.3000000000000114
 30
0.0
 11
103.3234999999998962
 21
65.3000000000000114
 31
0.0
  0
LINE
  5
10F
  8
2
 10
32.6499999999999133
 20
25.0
 30
0.0
 11
32.6499999999999133
 21
30.3000000000000114
 31
0.0
  0
LINE
  5
114
  8
2
 10
17.3499999999999091
 20
25.0
 30
0.0
 11
17.3499999999999091
 21
30.3000000000000114
 31
0.0
  0
LINE
  5
115
  8
2
 10
107.6499999999998067
 20
25.0
 30
0.0
 11
107.6499999999998067
 21
30.3000000000000185
 31
0.0
  0
LINE
  5
116
  8
2
 10
92.3499999999998096
 20
25.0
 30
0.0
 11
92.3499999999998096
 21
30.3000000000000185
 31
0.0
  0
ARC
  5
117
  8
0
 10
93.9378221735088204
 20
55.1281518477925303
 30
0.0
 40
3.5781518477925278
 50
244.3842474680429859
 51
304.3842474680405985
  0
ARC
  5
118
  8
0
 10
93.9378221735089625
 20
51.7218481522081603
 30
0.0
 40
3.578151847791839
 50
55.615752531954918
 51
115.6157525319886048
  0
ARC
  5
119
  8
0
 10
99.9999999999999574
 20
41.9252147823401629
 30
0.0
 40
13.3747852176599107
 50
72.4120462260053586
 51
107.5879537739953946
  0
ARC
  5
11A
  8
0
 10
99.9999999999998153
 20
64.9247852176611531
 30
0.0
 40
13.3747852176611008
 50
252.4120462260067086
 51
287.5879537739937746
  0
ARC
  5
11B
  8
0
 10
106.062177826490796
 20
55.1281518477927008
 30
0.0
 40
3.5781518477925278
 50
235.6157525319601973
 51
295.6157525319586057
  0
ARC
  5
11C
  8
0
 10
106.0621778264906965
 20
51.721848152208338
 30
0.0
 40
3.578151847791839
 50
64.3842474680123047
 51
124.3842474680459986
  0
ARC
  5
11D
  8
0
 10
94.3708348754011155
 20
68.332554164636349
 30
0.0
 40
3.3230141551455969
 50
55.6209979744487768
 51
115.6209979744475049
  0
ARC
  5
11E
  8
0
 10
100.0
 20
59.227822567139583
 30
0.0
 40
12.4274476259768107
 50
72.4237435616819738
 51
107.5762564383180973
  0
ARC
  5
11F
  8
0
 10
94.3708348754011155
 20
68.7674458353633895
 30
0.0
 40
3.3230141551453238
 50
244.379002025557412
 51
304.3790020255532909
  0
ARC
  5
120
  8
0
 10
100.0
 20
77.8719892352559668
 30
0.0
 40
12.4272682143400797
 50
252.4234815432519952
 51
287.5765184567479764
  0
ARC
  5
121
  8
0
 10
105.6291651245987993
 20
68.332554164636349
 30
0.0
 40
3.3230141551455969
 50
64.3790020255519977
 51
124.3790020255514008
  0
ARC
  5
122
  8
0
 10
105.6291651245987993
 20
68.7674458353633895
 30
0.0
 40
3.3230141551453238
 50
235.6209979744467944
 51
295.6209979744422753
  0
CIRCLE
  5
123
  8
3
 10
25.0
 20
169.2999999999998124
 30
0.0
 40
3.3235000000000001
  0
LINE
  5
124
  8
1
 10
44.0000000000000284
 20
169.2999999999998124
 30
0.0
 11
5.9999999999999707
 21
169.2999999999998124
 31
0.0
  0
LINE
  5
125
  8
1
 10
25.0
 20
188.3000000000000114
 30
0.0
 11
25.0
 21
150.3000000000000114
 31
0.0
  0
LINE
  5
14F
  8
0
 10
13.8000000000000007
 20
40.3000000000000327
 30
0.0
 11
36.2000000000000028
 21
40.3000000000000327
 31
0.0
  0
LINE
  5
150
  8
0
 10
41.0
 20
35.3000000000000185
 30
0.0
 11
9.0
 21
35.3000000000000185
 31
0.0
  0
LINE
  5
151
  8
0
 10
115.9999999999999005
 20
35.3000000000000824
 30
0.0
 11
83.9999999999999574
 21
35.2999999999999616
 31
0.0
  0
LINE
  5
152
  8
0
 10
88.7999999999999261
 20
40.2999999999999829
 30
0.0
 11
111.1999999999999034
 21
40.3000000000000824
 31
0.0
  0
POLYLINE
  5
17A
  8
0
 66
     1
 10
0.0
 20
0.0
 30
0.0
  0
VERTEX
  5
21B
  8
0
 10
28.5000000000000107
 20
163.2378221735087891
 30
0.0
  0
VERTEX
  5
21C
  8
0
 10
28.3984868099056307
 20
163.1792135058815063
 30
0.0
  0
VERTEX
  5
21D
  8
0
 10
28.2969802777160915
 20
163.1206086821973997
 30
0.0
  0
VERTEX
  5
21E
  8
0
 10
28.1954871580447985
 20
163.0620116022342927
 30
0.0
  0
VERTEX
  5
21F
  8
0
 10
28.0940159956053215
 20
163.0034271992849142
 30
0.0
  0
VERTEX
  5
220
  8
0
 10
27.9925769128065092
 20
162.9448613175246976
 30
0.0
  0
VERTEX
  5
221
  8
0
 10
27.8911800860722003
 20
162.886319832314598
 30
0.0
  0
VERTEX
  5
222
  8
0
 10
27.7898356918262088
 20
162.8278086190157978
 30
0.0
  0
VERTEX
  5
223
  8
0
 10
27.6885539064923982
 20
162.7693335529893943
 30
0.0
  0
VERTEX
  5
224
  8
0
 10
27.5873449064946108
 20
162.7109005095962004
 30
0.0
  0
VERTEX
  5
225
  8
0
 10
27.486218868256671
 20
162.6525153641975123
 30
0.0
  0
VERTEX
  5
226
  8
0
 10
27.385185848628641
 20
162.5941839231182087
 30
0.0
  0
VERTEX
  5
227
  8
0
 10
27.2842529559801115
 20
162.535910290377501
 30
0.0
  0
VERTEX
  5
228
  8
0
 10
27.1834242356449209
 20
162.4776968015499108
 30
0.0
  0
VERTEX
  5
229
  8
0
 10
27.0827035904616409
 20
162.4195457099403939
 30
0.0
  0
VERTEX
  5
22A
  8
0
 10
26.9820949232688889
 20
162.3614592688537925
 30
0.0
  0
VERTEX
  5
22B
  8
0
 10
26.8816021369052685
 20
162.3034397315952049
 30
0.0
  0
VERTEX
  5
22C
  8
0
 10
26.7812291342093403
 20
162.2454893514693026
 30
0.0
  0
VERTEX
  5
22D
  8
0
 10
26.6809798180197397
 20
162.1876103817810986
 30
0.0
  0
VERTEX
  5
22E
  8
0
 10
26.5808581526249412
 20
162.1298051113138001
 30
0.0
  0
VERTEX
  5
22F
  8
0
 10
26.4808702178613515
 20
162.0720770502622941
 30
0.0
  0
VERTEX
  5
230
  8
0
 10
26.3810246933113497
 20
162.0144312097860109
 30
0.0
  0
VERTEX
  5
231
  8
0
 10
26.2813304181382108
 20
161.9568726931780986
 30
0.0
  0
VERTEX
  5
232
  8
0
 10
26.1817962315051993
 20
161.8994066037319044
 30
0.0
  0
VERTEX
  5
233
  8
0
 10
26.0824309725756116
 20
161.8420380447408036
 30
0.0
  0
VERTEX
  5
234
  8
0
 10
25.9832434805126802
 20
161.7847721194980863
 30
0.0
  0
VERTEX
  5
235
  8
0
 10
25.8842425944796908
 20
161.7276139312969008
 30
0.0
  0
VERTEX
  5
236
  8
0
 10
25.78543710093588
 20
161.6705685530019991
 30
0.0
  0
VERTEX
  5
237
  8
0
 10
25.6868260754939008
 20
161.6136354509179966
 30
0.0
  0
VERTEX
  5
238
  8
0
 10
25.5883876051818895
 20
161.5568019735846974
 30
0.0
  0
VERTEX
  5
239
  8
0
 10
25.49009703926707
 20
161.5000538888949961
 30
0.0
  0
VERTEX
  5
23A
  8
0
 10
25.391929727016521
 20
161.4433769647415033
 30
0.0
  0
VERTEX
  5
23B
  8
0
 10
25.293861017697381
 20
161.3867569690170001
 30
0.0
  0
VERTEX
  5
23C
  8
0
 10
25.1958662605768389
 20
161.3301796696142958
 30
0.0
  0
VERTEX
  5
23D
  8
0
 10
25.0979208049220013
 20
161.2736308344260863
 30
0.0
  0
VERTEX
  5
23E
  8
0
 10
25.0000000000000213
 20
161.2170962313452094
 30
0.0
  0
SEQEND
  5
23F
  8
0
  0
POLYLINE
  5
17B
  8
0
 66
     1
 10
0.0
 20
0.0
 30
0.0
  0
VERTEX
  5
240
  8
0
 10
25.0000000000000213
 20
161.2170962313452094
 30
0.0
  0
VERTEX
  5
241
  8
0
 10
24.8817957502657983
 20
161.2853414867485924
 30
0.0
  0
VERTEX
  5
242
  8
0
 10
24.7635505607943216
 20
161.3536103787203047
 30
0.0
  0
VERTEX
  5
243
  8
0
 10
24.6452234918483413
 20
161.4219265438287039
 30
0.0
  0
VERTEX
  5
244
  8
0
 10
24.5267736036906214
 20
161.4903136186420056
 30
0.0
  0
VERTEX
  5
245
  8
0
 10
24.4081599565838516
 20
161.5587952397287097
 30
0.0
  0
VERTEX
  5
246
  8
0
 10
24.2893416107907996
 20
161.6273950436570033
 30
0.0
  0
VERTEX
  5
247
  8
0
 10
24.1702776265742187
 20
161.6961366669951872
 30
0.0
  0
VERTEX
  5
248
  8
0
 10
24.0509321408489001
 20
161.7650408153052979
 30
0.0
  0
VERTEX
  5
249
  8
0
 10
23.9313048983911294
 20
161.8341076359407111
 30
0.0
  0
VERTEX
  5
24A
  8
0
 10
23.8114108849806208
 20
161.9033284768574958
 30
0.0
  0
VERTEX
  5
24B
  8
0
 10
23.6912651441663087
 20
161.9726946526585891
 30
0.0
  0
VERTEX
  5
24C
  8
0
 10
23.5708827194972486
 20
162.0421974779470133
 30
0.0
  0
VERTEX
  5
24D
  8
0
 10
23.4502786545224211
 20
162.1118282673255067
 30
0.0
  0
VERTEX
  5
24E
  8
0
 10
23.329467992790839
 20
162.1815783353972051
 30
0.0
  0
VERTEX
  5
24F
  8
0
 10
23.2084655126387389
 20
162.2514391498856128
 30
0.0
  0
VERTEX
  5
250
  8
0
 10
23.0872825182349999
 20
162.3214041843258997
 30
0.0
  0
VERTEX
  5
251
  8
0
 10
22.9659278714976693
 20
162.3914683222870963
 30
0.0
  0
VERTEX
  5
252
  8
0
 10
22.844410383584961
 20
162.4616264766447102
 30
0.0
  0
VERTEX
  5
253
  8
0
 10
22.7227388656551312
 20
162.5318735602741924
 30
0.0
  0
VERTEX
  5
254
  8
0
 10
22.6009221288664612
 20
162.6022044860509084
 30
0.0
  0
VERTEX
  5
255
  8
0
 10
22.4789689843772109
 20
162.6726141668503089
 30
0.0
  0
VERTEX
  5
256
  8
0
 10
22.3568882846074217
 20
162.7430974917253081
 30
0.0
  0
VERTEX
  5
257
  8
0
 10
22.2346916854706507
 20
162.8136477311309136
 30
0.0
  0
VERTEX
  5
258
  8
0
 10
22.1123953880492508
 20
162.8842555313680975
 30
0.0
  0
VERTEX
  5
259
  8
0
 10
21.9900160087240302
 20
162.9549112989647881
 30
0.0
  0
VERTEX
  5
25A
  8
0
 10
21.8675701638757296
 20
163.0256054404491124
 30
0.0
  0
VERTEX
  5
25B
  8
0
 10
21.7450744698851004
 20
163.0963283623491975
 30
0.0
  0
VERTEX
  5
25C
  8
0
 10
21.6225455431329401
 20
163.167070471193
 30
0.0
  0
VERTEX
  5
25D
  8
0
 10
21.5000000000000213
 20
163.2378221735087891
 30
0.0
  0
SEQEND
  5
25E
  8
0
  0
POLYLINE
  5
17C
  8
0
 66
     1
 10
0.0
 20
0.0
 30
0.0
  0
VERTEX
  5
25F
  8
0
 10
32.0000000000000071
 20
169.2999999999998977
 30
0.0
  0
VERTEX
  5
260
  8
0
 10
32.0000000000000071
 20
169.1827844305865938
 30
0.0
  0
VERTEX
  5
261
  8
0
 10
32.0000000000000071
 20
169.0655689885076072
 30
0.0
  0
VERTEX
  5
262
  8
0
 10
32.0000000000000071
 20
168.9483657272857897
 30
0.0
  0
VERTEX
  5
263
  8
0
 10
32.0000000000000071
 20
168.8311873433424068
 30
0.0
  0
VERTEX
  5
264
  8
0
 10
32.0000000000000071
 20
168.7140465330986103
 30
0.0
  0
VERTEX
  5
265
  8
0
 10
32.0000000000000071
 20
168.5969559929754951
 30
0.0
  0
VERTEX
  5
266
  8
0
 10
32.0000000000000071
 20
168.4799284193944118
 30
0.0
  0
VERTEX
  5
267
  8
0
 10
32.0000000000000071
 20
168.3629765087765122
 30
0.0
  0
VERTEX
  5
268
  8
0
 10
32.0000000000000071
 20
168.246112957543005
 30
0.0
  0
VERTEX
  5
269
  8
0
 10
32.0000000000000071
 20
168.1293494271008058
 30
0.0
  0
VERTEX
  5
26A
  8
0
 10
32.0000000000000071
 20
168.012692546968907
 30
0.0
  0
VERTEX
  5
26B
  8
0
 10
32.0000000000000071
 20
167.8961474196997017
 30
0.0
  0
VERTEX
  5
26C
  8
0
 10
32.0000000000000071
 20
167.7797191475000034
 30
0.0
  0
VERTEX
  5
26D
  8
0
 10
32.0000000000000071
 20
167.6634128325765971
 30
0.0
  0
VERTEX
  5
26E
  8
0
 10
32.0000000000000071
 20
167.5472335771362111
 30
0.0
  0
VERTEX
  5
26F
  8
0
 10
32.0000000000000071
 20
167.4311864833854884
 30
0.0
  0
VERTEX
  5
270
  8
0
 10
32.0000000000000071
 20
167.3152766535316118
 30
0.0
  0
VERTEX
  5
271
  8
0
 10
32.0000000000000071
 20
167.1995092472317879
 30
0.0
  0
VERTEX
  5
272
  8
0
 10
32.0000000000000071
 20
167.0838915408970138
 30
0.0
  0
VERTEX
  5
273
  8
0
 10
32.0000000000000071
 20
166.9684334950331959
 30
0.0
  0
VERTEX
  5
274
  8
0
 10
32.0000000000000071
 20
166.8531452430756872
 30
0.0
  0
VERTEX
  5
275
  8
0
 10
32.0000000000000071
 20
166.7380369184591871
 30
0.0
  0
VERTEX
  5
276
  8
0
 10
32.0000000000000071
 20
166.6231186546189065
 30
0.0
  0
VERTEX
  5
277
  8
0
 10
32.0000000000000071
 20
166.5084005849898006
 30
0.0
  0
VERTEX
  5
278
  8
0
 10
32.0000000000000071
 20
166.3938928430069097
 30
0.0
  0
VERTEX
  5
279
  8
0
 10
32.0000000000000071
 20
166.2796055621051039
 30
0.0
  0
VERTEX
  5
27A
  8
0
 10
32.0000000000000071
 20
166.1655467114138958
 30
0.0
  0
VERTEX
  5
27B
  8
0
 10
32.0000000000000071
 20
166.0517023493129045
 30
0.0
  0
VERTEX
  5
27C
  8
0
 10
32.0000000000000071
 20
165.9380458022652078
 30
0.0
  0
VERTEX
  5
27D
  8
0
 10
32.0000000000000071
 20
165.8245502395490121
 30
0.0
  0
VERTEX
  5
27E
  8
0
 10
32.0000000000000071
 20
165.7111888304422962
 30
0.0
  0
VERTEX
  5
27F
  8
0
 10
32.0000000000000071
 20
165.5979347442232097
 30
0.0
  0
VERTEX
  5
280
  8
0
 10
32.0000000000000071
 20
165.4847611501697884
 30
0.0
  0
VERTEX
  5
281
  8
0
 10
32.0000000000000071
 20
165.3716412175602102
 30
0.0
  0
VERTEX
  5
282
  8
0
 10
32.0000000000000071
 20
165.2585481156725962
 30
0.0
  0
SEQEND
  5
283
  8
0
  0
POLYLINE
  5
17D
  8
0
 66
     1
 10
0.0
 20
0.0
 30
0.0
  0
VERTEX
  5
284
  8
0
 10
32.0000000000000071
 20
165.2585481156725962
 30
0.0
  0
VERTEX
  5
285
  8
0
 10
31.8817957502657983
 20
165.1903028602690995
 30
0.0
  0
VERTEX
  5
286
  8
0
 10
31.7635505607943216
 20
165.1220339682973872
 30
0.0
  0
VERTEX
  5
287
  8
0
 10
31.6452234918483413
 20
165.053717803188988
 30
0.0
  0
VERTEX
  5
288
  8
0
 10
31.5267736036906108
 20
164.985330728375601
 30
0.0
  0
VERTEX
  5
289
  8
0
 10
31.408159956583841
 20
164.9168491072890106
 30
0.0
  0
VERTEX
  5
28A
  8
0
 10
31.2893416107907996
 20
164.8482493033606886
 30
0.0
  0
VERTEX
  5
28B
  8
0
 10
31.1702776265742187
 20
164.7795076800225047
 30
0.0
  0
VERTEX
  5
28C
  8
0
 10
31.0509321408489001
 20
164.710603531712394
 30
0.0
  0
VERTEX
  5
28D
  8
0
 10
30.9313048983911401
 20
164.6415367110770092
 30
0.0
  0
VERTEX
  5
28E
  8
0
 10
30.8114108849806208
 20
164.572315870160196
 30
0.0
  0
VERTEX
  5
28F
  8
0
 10
30.6912651441663087
 20
164.5029496943591028
 30
0.0
  0
VERTEX
  5
290
  8
0
 10
30.5708827194972486
 20
164.433446869070707
 30
0.0
  0
VERTEX
  5
291
  8
0
 10
30.4502786545224211
 20
164.3638160796920999
 30
0.0
  0
VERTEX
  5
292
  8
0
 10
30.329467992790839
 20
164.2940660116204015
 30
0.0
  0
VERTEX
  5
293
  8
0
 10
30.2084655126387389
 20
164.2242051971319938
 30
0.0
  0
VERTEX
  5
294
  8
0
 10
30.0872825182349999
 20
164.1542401626917922
 30
0.0
  0
VERTEX
  5
295
  8
0
 10
29.9659278714976693
 20
164.0841760247305956
 30
0.0
  0
VERTEX
  5
296
  8
0
 10
29.844410383584961
 20
164.0140178703728964
 30
0.0
  0
VERTEX
  5
297
  8
0
 10
29.7227388656551312
 20
163.9437707867434142
 30
0.0
  0
VERTEX
  5
298
  8
0
 10
29.6009221288664612
 20
163.8734398609666982
 30
0.0
  0
VERTEX
  5
299
  8
0
 10
29.4789689843772109
 20
163.8030301801672977
 30
0.0
  0
VERTEX
  5
29A
  8
0
 10
29.3568882846074217
 20
163.7325468552924121
 30
0.0
  0
VERTEX
  5
29B
  8
0
 10
29.2346916854706507
 20
163.661996615886693
 30
0.0
  0
VERTEX
  5
29C
  8
0
 10
29.1123953880492508
 20
163.5913888156495943
 30
0.0
  0
VERTEX
  5
29D
  8
0
 10
28.9900160087240302
 20
163.5207330480529038
 30
0.0
  0
VERTEX
  5
29E
  8
0
 10
28.8675701638757296
 20
163.4500389065684942
 30
0.0
  0
VERTEX
  5
29F
  8
0
 10
28.7450744698851004
 20
163.3793159846684944
 30
0.0
  0
VERTEX
  5
2A0
  8
0
 10
28.6225455431329401
 20
163.3085738758246066
 30
0.0
  0
VERTEX
  5
2A1
  8
0
 10
28.5000000000000107
 20
163.2378221735087891
 30
0.0
  0
SEQEND
  5
2A2
  8
0
  0
POLYLINE
  5
17E
  8
0
 66
     1
 10
0.0
 20
0.0
 30
0.0
  0
VERTEX
  5
2A3
  8
0
 10
18.0000000000000107
 20
165.2585481156725962
 30
0.0
  0
VERTEX
  5
2A4
  8
0
 10
18.0000000000000107
 20
165.3950386264793053
 30
0.0
  0
VERTEX
  5
2A5
  8
0
 10
18.0000000000000107
 20
165.5315764104227867
 30
0.0
  0
VERTEX
  5
2A6
  8
0
 10
18.0000000000000107
 20
165.6682087406394999
 30
0.0
  0
VERTEX
  5
2A7
  8
0
 10
18.0000000000000107
 20
165.8049828902661886
 30
0.0
  0
VERTEX
  5
2A8
  8
0
 10
18.0000000000000107
 20
165.9419461324395968
 30
0.0
  0
VERTEX
  5
2A9
  8
0
 10
18.0000000000000107
 20
166.0791457402960987
 30
0.0
  0
VERTEX
  5
2AA
  8
0
 10
18.0000000000000107
 20
166.2166289869724949
 30
0.0
  0
VERTEX
  5
2AB
  8
0
 10
18.0000000000000107
 20
166.3544372835926879
 30
0.0
  0
VERTEX
  5
2AC
  8
0
 10
18.0000000000000107
 20
166.492570924863486
 30
0.0
  0
VERTEX
  5
2AD
  8
0
 10
18.0000000000000107
 20
166.6310126066971122
 30
0.0
  0
VERTEX
  5
2AE
  8
0
 10
18.0000000000000107
 20
166.7697449582992988
 30
0.0
  0
VERTEX
  5
2AF
  8
0
 10
18.0000000000000107
 20
166.9087506088760904
 30
0.0
  0
VERTEX
  5
2B0
  8
0
 10
18.0000000000000107
 20
167.0480121876331907
 30
0.0
  0
VERTEX
  5
2B1
  8
0
 10
18.0000000000000107
 20
167.1875123237767014
 30
0.0
  0
VERTEX
  5
2B2
  8
0
 10
18.0000000000000107
 20
167.3272339527536019
 30
0.0
  0
VERTEX
  5
2B3
  8
0
 10
18.0000000000000107
 20
167.4671640216340052
 30
0.0
  0
VERTEX
  5
2B4
  8
0
 10
18.0000000000000107
 20
167.6072922975563984
 30
0.0
  0
VERTEX
  5
2B5
  8
0
 10
18.0000000000000107
 20
167.7476086062717116
 30
0.0
  0
VERTEX
  5
2B6
  8
0
 10
18.0000000000000107
 20
167.8881027735307043
 30
0.0
  0
VERTEX
  5
2B7
  8
0
 10
18.0000000000000107
 20
168.0287646250841931
 30
0.0
  0
VERTEX
  5
2B8
  8
0
 10
18.0000000000000107
 20
168.1695839866829942
 30
0.0
  0
VERTEX
  5
2B9
  8
0
 10
18.0000000000000107
 20
168.3105506364327937
 30
0.0
  0
VERTEX
  5
2BA
  8
0
 10
18.0000000000000107
 20
168.4516511152442035
 30
0.0
  0
VERTEX
  5
2BB
  8
0
 10
18.0000000000000107
 20
168.5928667157184009
 30
0.0
  0
VERTEX
  5
2BC
  8
0
 10
18.0000000000000107
 20
168.7341782509118104
 30
0.0
  0
VERTEX
  5
2BD
  8
0
 10
18.0000000000000107
 20
168.8755665338804022
 30
0.0
  0
VERTEX
  5
2BE
  8
0
 10
18.0000000000000107
 20
169.0170123776806008
 30
0.0
  0
VERTEX
  5
2BF
  8
0
 10
18.0000000000000107
 20
169.1584965953682911
 30
0.0
  0
VERTEX
  5
2C0
  8
0
 10
18.0000000000000107
 20
169.2999999999998124
 30
0.0
  0
SEQEND
  5
2C1
  8
0
  0
POLYLINE
  5
17F
  8
0
 66
     1
 10
0.0
 20
0.0
 30
0.0
  0
VERTEX
  5
2C2
  8
0
 10
21.5000000000000213
 20
163.2378221735087891
 30
0.0
  0
VERTEX
  5
2C3
  8
0
 10
21.3984868099056413
 20
163.2964308411361003
 30
0.0
  0
VERTEX
  5
2C4
  8
0
 10
21.2969802777160915
 20
163.3550356648202069
 30
0.0
  0
VERTEX
  5
2C5
  8
0
 10
21.1954871580447985
 20
163.4136327447833139
 30
0.0
  0
VERTEX
  5
2C6
  8
0
 10
21.0940159956053215
 20
163.4722171477328061
 30
0.0
  0
VERTEX
  5
2C7
  8
0
 10
20.9925769128065092
 20
163.5307830294929943
 30
0.0
  0
VERTEX
  5
2C8
  8
0
 10
20.8911800860722003
 20
163.5893245147030086
 30
0.0
  0
VERTEX
  5
2C9
  8
0
 10
20.7898356918262088
 20
163.6478357280018088
 30
0.0
  0
VERTEX
  5
2CA
  8
0
 10
20.6885539064923982
 20
163.7063107940282976
 30
0.0
  0
VERTEX
  5
2CB
  8
0
 10
20.5873449064946108
 20
163.7647438374214062
 30
0.0
  0
VERTEX
  5
2CC
  8
0
 10
20.486218868256671
 20
163.823128982820208
 30
0.0
  0
VERTEX
  5
2CD
  8
0
 10
20.385185848628641
 20
163.8814604238995116
 30
0.0
  0
VERTEX
  5
2CE
  8
0
 10
20.2842529559801115
 20
163.9397340566401908
 30
0.0
  0
VERTEX
  5
2CF
  8
0
 10
20.1834242356449209
 20
163.9979475454678095
 30
0.0
  0
VERTEX
  5
2D0
  8
0
 10
20.0827035904616302
 20
164.056098637077298
 30
0.0
  0
VERTEX
  5
2D1
  8
0
 10
19.9820949232688889
 20
164.1141850781638141
 30
0.0
  0
VERTEX
  5
2D2
  8
0
 10
19.8816021369052685
 20
164.172204615422487
 30
0.0
  0
VERTEX
  5
2D3
  8
0
 10
19.7812291342093403
 20
164.230154995548304
 30
0.0
  0
VERTEX
  5
2D4
  8
0
 10
19.6809798180197291
 20
164.288033965236508
 30
0.0
  0
VERTEX
  5
2D5
  8
0
 10
19.5808581526249412
 20
164.3458392357038917
 30
0.0
  0
VERTEX
  5
2D6
  8
0
 10
19.4808702178613515
 20
164.4035672967553978
 30
0.0
  0
VERTEX
  5
2D7
  8
0
 10
19.381024693311339
 20
164.4612131372317094
 30
0.0
  0
VERTEX
  5
2D8
  8
0
 10
19.2813304181382108
 20
164.5187716538395932
 30
0.0
  0
VERTEX
  5
2D9
  8
0
 10
19.1817962315051993
 20
164.5762377432857022
 30
0.0
  0
VERTEX
  5
2DA
  8
0
 10
19.0824309725756009
 20
164.633606302276803
 30
0.0
  0
VERTEX
  5
2DB
  8
0
 10
18.9832434805126802
 20
164.6908722275196055
 30
0.0
  0
VERTEX
  5
2DC
  8
0
 10
18.8842425944796908
 20
164.7480304157207058
 30
0.0
  0
VERTEX
  5
2DD
  8
0
 10
18.78543710093588
 20
164.8050757940156927
 30
0.0
  0
VERTEX
  5
2DE
  8
0
 10
18.6868260754939008
 20
164.8620088960996952
 30
0.0
  0
VERTEX
  5
2DF
  8
0
 10
18.5883876051818895
 20
164.9188423734329092
 30
0.0
  0
VERTEX
  5
2E0
  8
0
 10
18.49009703926707
 20
164.9755904581226105
 30
0.0
  0
VERTEX
  5
2E1
  8
0
 10
18.391929727016521
 20
165.0322673822761033
 30
0.0
  0
VERTEX
  5
2E2
  8
0
 10
18.293861017697381
 20
165.0888873780006065
 30
0.0
  0
VERTEX
  5
2E3
  8
0
 10
18.1958662605768318
 20
165.1454646774033108
 30
0.0
  0
VERTEX
  5
2E4
  8
0
 10
18.0979208049220013
 20
165.2020135125916056
 30
0.0
  0
VERTEX
  5
2E5
  8
0
 10
18.0000000000000107
 20
165.2585481156725962
 30
0.0
  0
SEQEND
  5
2E6
  8
0
  0
POLYLINE
  5
180
  8
0
 66
     1
 10
0.0
 20
0.0
 30
0.0
  0
VERTEX
  5
2E7
  8
0
 10
28.5000000000000107
 20
175.3621778264908926
 30
0.0
  0
VERTEX
  5
2E8
  8
0
 10
28.6015131900943906
 20
175.3035691588636098
 30
0.0
  0
VERTEX
  5
2E9
  8
0
 10
28.7030197222839405
 20
175.2449643351795032
 30
0.0
  0
VERTEX
  5
2EA
  8
0
 10
28.8045128419552299
 20
175.1863672552163962
 30
0.0
  0
VERTEX
  5
2EB
  8
0
 10
28.9059840043947105
 20
175.1277828522669893
 30
0.0
  0
VERTEX
  5
2EC
  8
0
 10
29.0074230871935086
 20
175.0692169705066874
 30
0.0
  0
VERTEX
  5
2ED
  8
0
 10
29.1088199139278316
 20
175.0106754852967015
 30
0.0
  0
VERTEX
  5
2EE
  8
0
 10
29.2101643081737912
 20
174.9521642719979013
 30
0.0
  0
VERTEX
  5
2EF
  8
0
 10
29.3114460935076018
 20
174.8936892059714978
 30
0.0
  0
VERTEX
  5
2F0
  8
0
 10
29.4126550935053892
 20
174.8352561625783039
 30
0.0
  0
VERTEX
  5
2F1
  8
0
 10
29.5137811317433609
 20
174.7768710171795021
 30
0.0
  0
VERTEX
  5
2F2
  8
0
 10
29.6148141513713909
 20
174.7185395761003122
 30
0.0
  0
VERTEX
  5
2F3
  8
0
 10
29.7157470440199205
 20
174.6602659433596045
 30
0.0
  0
VERTEX
  5
2F4
  8
0
 10
29.816575764355111
 20
174.6020524545319859
 30
0.0
  0
VERTEX
  5
2F5
  8
0
 10
29.9172964095383698
 20
174.5439013629224974
 30
0.0
  0
VERTEX
  5
2F6
  8
0
 10
30.0179050767311395
 20
174.4858149218360097
 30
0.0
  0
VERTEX
  5
2F7
  8
0
 10
30.11839786309476
 20
174.4277953845773084
 30
0.0
  0
VERTEX
  5
2F8
  8
0
 10
30.2187708657906917
 20
174.3698450044514061
 30
0.0
  0
VERTEX
  5
2F9
  8
0
 10
30.3190201819802887
 20
174.3119660347632873
 30
0.0
  0
VERTEX
  5
2FA
  8
0
 10
30.4191418473750588
 20
174.2541607642959036
 30
0.0
  0
VERTEX
  5
2FB
  8
0
 10
30.5191297821386485
 20
174.1964327032443975
 30
0.0
  0
VERTEX
  5
2FC
  8
0
 10
30.6189753066886503
 20
174.1387868627680859
 30
0.0
  0
VERTEX
  5
2FD
  8
0
 10
30.7186695818617892
 20
174.0812283461602021
 30
0.0
  0
VERTEX
  5
2FE
  8
0
 10
30.8182037684948007
 20
174.0237622567140932
 30
0.0
  0
VERTEX
  5
2FF
  8
0
 10
30.9175690274243884
 20
173.9663936977229923
 30
0.0
  0
VERTEX
  5
300
  8
0
 10
31.0167565194873198
 20
173.9091277724801898
 30
0.0
  0
VERTEX
  5
301
  8
0
 10
31.1157574055203092
 20
173.8519695842790895
 30
0.0
  0
VERTEX
  5
302
  8
0
 10
31.21456289906412
 20
173.7949242059841026
 30
0.0
  0
VERTEX
  5
303
  8
0
 10
31.3131739245060992
 20
173.7379911039001001
 30
0.0
  0
VERTEX
  5
304
  8
0
 10
31.4116123948181105
 20
173.6811576265668862
 30
0.0
  0
VERTEX
  5
305
  8
0
 10
31.5099029607329584
 20
173.6244095418772133
 30
0.0
  0
VERTEX
  5
306
  8
0
 10
31.608070272983511
 20
173.5677326177236921
 30
0.0
  0
VERTEX
  5
307
  8
0
 10
31.7061389823026509
 20
173.5111126219991888
 30
0.0
  0
VERTEX
  5
308
  8
0
 10
31.8041337394231896
 20
173.454535322596513
 30
0.0
  0
VERTEX
  5
309
  8
0
 10
31.9020791950780307
 20
173.3979864874081898
 30
0.0
  0
VERTEX
  5
30A
  8
0
 10
32.0000000000000071
 20
173.3414518843273129
 30
0.0
  0
SEQEND
  5
30B
  8
0
  0
POLYLINE
  5
181
  8
0
 66
     1
 10
0.0
 20
0.0
 30
0.0
  0
VERTEX
  5
30C
  8
0
 10
32.0000000000000071
 20
173.3414518843273129
 30
0.0
  0
VERTEX
  5
30D
  8
0
 10
32.0000000000000071
 20
173.20496137352049
 30
0.0
  0
VERTEX
  5
30E
  8
0
 10
32.0000000000000071
 20
173.0684235895770087
 30
0.0
  0
VERTEX
  5
30F
  8
0
 10
32.0000000000000071
 20
172.9317912593602102
 30
0.0
  0
VERTEX
  5
310
  8
0
 10
32.0000000000000071
 20
172.795017109733493
 30
0.0
  0
VERTEX
  5
311
  8
0
 10
32.0000000000000071
 20
172.6580538675601986
 30
0.0
  0
VERTEX
  5
312
  8
0
 10
32.0000000000000071
 20
172.5208542597036967
 30
0.0
  0
VERTEX
  5
313
  8
0
 10
32.0000000000000071
 20
172.3833710130271868
 30
0.0
  0
VERTEX
  5
314
  8
0
 10
32.0000000000000071
 20
172.2455627164069938
 30
0.0
  0
VERTEX
  5
315
  8
0
 10
32.0000000000000071
 20
172.1074290751363094
 30
0.0
  0
VERTEX
  5
316
  8
0
 10
32.0000000000000071
 20
171.9689873933027116
 30
0.0
  0
VERTEX
  5
317
  8
0
 10
32.0000000000000071
 20
171.8302550417004113
 30
0.0
  0
VERTEX
  5
318
  8
0
 10
32.0000000000000071
 20
171.691249391123705
 30
0.0
  0
VERTEX
  5
319
  8
0
 10
32.0000000000000071
 20
171.551987812366491
 30
0.0
  0
VERTEX
  5
31A
  8
0
 10
32.0000000000000071
 20
171.412487676223094
 30
0.0
  0
VERTEX
  5
31B
  8
0
 10
32.0000000000000071
 20
171.2727660472461935
 30
0.0
  0
VERTEX
  5
31C
  8
0
 10
32.0000000000000071
 20
171.1328359783657902
 30
0.0
  0
VERTEX
  5
31D
  8
0
 10
32.0000000000000071
 20
170.992707702443397
 30
0.0
  0
VERTEX
  5
31E
  8
0
 10
32.0000000000000071
 20
170.8523913937281122
 30
0.0
  0
VERTEX
  5
31F
  8
0
 10
32.0000000000000071
 20
170.711897226469091
 30
0.0
  0
VERTEX
  5
320
  8
0
 10
32.0000000000000071
 20
170.5712353749156023
 30
0.0
  0
VERTEX
  5
321
  8
0
 10
32.0000000000000071
 20
170.4304160133168011
 30
0.0
  0
VERTEX
  5
322
  8
0
 10
32.0000000000000071
 20
170.289449363566888
 30
0.0
  0
VERTEX
  5
323
  8
0
 10
32.0000000000000071
 20
170.1483488847555918
 30
0.0
  0
VERTEX
  5
324
  8
0
 10
32.0000000000000071
 20
170.0071332842813092
 30
0.0
  0
VERTEX
  5
325
  8
0
 10
32.0000000000000071
 20
169.8658217490880133
 30
0.0
  0
VERTEX
  5
326
  8
0
 10
32.0000000000000071
 20
169.7244334661193079
 30
0.0
  0
VERTEX
  5
327
  8
0
 10
32.0000000000000071
 20
169.5829876223191945
 30
0.0
  0
VERTEX
  5
328
  8
0
 10
32.0000000000000071
 20
169.4415034046315043
 30
0.0
  0
VERTEX
  5
329
  8
0
 10
32.0000000000000071
 20
169.2999999999998977
 30
0.0
  0
SEQEND
  5
32A
  8
0
  0
POLYLINE
  5
182
  8
0
 66
     1
 10
0.0
 20
0.0
 30
0.0
  0
VERTEX
  5
32B
  8
0
 10
18.0000000000000107
 20
173.3414518843273129
 30
0.0
  0
VERTEX
  5
32C
  8
0
 10
18.1182042497342302
 20
173.4096971397306959
 30
0.0
  0
VERTEX
  5
32D
  8
0
 10
18.2364494392056784
 20
173.4779660317024081
 30
0.0
  0
VERTEX
  5
32E
  8
0
 10
18.3547765081516587
 20
173.5462821968108074
 30
0.0
  0
VERTEX
  5
32F
  8
0
 10
18.4732263963094105
 20
173.6146692716241091
 30
0.0
  0
VERTEX
  5
330
  8
0
 10
18.5918400434161804
 20
173.6831508927108132
 30
0.0
  0
VERTEX
  5
331
  8
0
 10
18.7106583892092289
 20
173.7517506966391068
 30
0.0
  0
VERTEX
  5
332
  8
0
 10
18.8297223734257813
 20
173.8204923199772907
 30
0.0
  0
VERTEX
  5
333
  8
0
 10
18.9490678591510999
 20
173.8893964682874014
 30
0.0
  0
VERTEX
  5
334
  8
0
 10
19.0686951016088706
 20
173.9584632889227862
 30
0.0
  0
VERTEX
  5
335
  8
0
 10
19.1885891150193792
 20
174.0276841298395993
 30
0.0
  0
VERTEX
  5
336
  8
0
 10
19.3087348558336913
 20
174.0970503056406926
 30
0.0
  0
VERTEX
  5
337
  8
0
 10
19.4291172805027514
 20
174.1665531309290884
 30
0.0
  0
VERTEX
  5
338
  8
0
 10
19.5497213454775789
 20
174.2361839203076102
 30
0.0
  0
VERTEX
  5
339
  8
0
 10
19.670532007209161
 20
174.3059339883793939
 30
0.0
  0
VERTEX
  5
33A
  8
0
 10
19.7915344873612895
 20
174.3757948028678015
 30
0.0
  0
VERTEX
  5
33B
  8
0
 10
19.9127174817650285
 20
174.4457598373080032
 30
0.0
  0
VERTEX
  5
33C
  8
0
 10
20.0340721285023591
 20
174.5158239752691998
 30
0.0
  0
VERTEX
  5
33D
  8
0
 10
20.155589616415071
 20
174.585982129626899
 30
0.0
  0
VERTEX
  5
33E
  8
0
 10
20.2772611343449007
 20
174.6562292132564096
 30
0.0
  0
VERTEX
  5
33F
  8
0
 10
20.3990778711335388
 20
174.7265601390330971
 30
0.0
  0
VERTEX
  5
340
  8
0
 10
20.5210310156227997
 20
174.7969698198324977
 30
0.0
  0
VERTEX
  5
341
  8
0
 10
20.6431117153925783
 20
174.8674531447074116
 30
0.0
  0
VERTEX
  5
342
  8
0
 10
20.7653083145293493
 20
174.9380033841131024
 30
0.0
  0
VERTEX
  5
343
  8
0
 10
20.8876046119507492
 20
175.008611184350201
 30
0.0
  0
VERTEX
  5
344
  8
0
 10
21.0099839912759698
 20
175.0792669519468916
 30
0.0
  0
VERTEX
  5
345
  8
0
 10
21.1324298361242811
 20
175.1499610934313012
 30
0.0
  0
VERTEX
  5
346
  8
0
 10
21.2549255301148996
 20
175.220684015331301
 30
0.0
  0
VERTEX
  5
347
  8
0
 10
21.3774544568670493
 20
175.2914261241751035
 30
0.0
  0
VERTEX
  5
348
  8
0
 10
21.5000000000000213
 20
175.3621778264908926
 30
0.0
  0
SEQEND
  5
349
  8
0
  0
POLYLINE
  5
183
  8
0
 66
     1
 10
0.0
 20
0.0
 30
0.0
  0
VERTEX
  5
34A
  8
0
 10
18.0000000000000107
 20
169.2999999999998977
 30
0.0
  0
VERTEX
  5
34B
  8
0
 10
18.0000000000000107
 20
169.4172155694130879
 30
0.0
  0
VERTEX
  5
34C
  8
0
 10
18.0000000000000107
 20
169.5344310114921029
 30
0.0
  0
VERTEX
  5
34D
  8
0
 10
18.0000000000000107
 20
169.6516342727140056
 30
0.0
  0
VERTEX
  5
34E
  8
0
 10
18.0000000000000107
 20
169.7688126566573885
 30
0.0
  0
VERTEX
  5
34F
  8
0
 10
18.0000000000000107
 20
169.8859534669012135
 30
0.0
  0
VERTEX
  5
350
  8
0
 10
18.0000000000000107
 20
170.0030440070243003
 30
0.0
  0
VERTEX
  5
351
  8
0
 10
18.0000000000000107
 20
170.120071580605412
 30
0.0
  0
VERTEX
  5
352
  8
0
 10
17.9999999999999787
 20
170.2370234912233116
 30
0.0
  0
VERTEX
  5
353
  8
0
 10
17.9999999999999787
 20
170.3538870424567904
 30
0.0
  0
VERTEX
  5
354
  8
0
 10
17.9999999999999787
 20
170.4706505728989896
 30
0.0
  0
VERTEX
  5
355
  8
0
 10
17.9999999999999787
 20
170.5873074530308884
 30
0.0
  0
VERTEX
  5
356
  8
0
 10
17.9999999999999787
 20
170.7038525803000084
 30
0.0
  0
VERTEX
  5
357
  8
0
 10
17.9999999999999787
 20
170.820280852499792
 30
0.0
  0
VERTEX
  5
358
  8
0
 10
17.9999999999999787
 20
170.9365871674231983
 30
0.0
  0
VERTEX
  5
359
  8
0
 10
17.9999999999999787
 20
171.0527664228636127
 30
0.0
  0
VERTEX
  5
35A
  8
0
 10
17.9999999999999787
 20
171.1688135166141933
 30
0.0
  0
VERTEX
  5
35B
  8
0
 10
17.9999999999999787
 20
171.284723346468212
 30
0.0
  0
VERTEX
  5
35C
  8
0
 10
18.0000000000000107
 20
171.4004907527678938
 30
0.0
  0
VERTEX
  5
35D
  8
0
 10
18.0000000000000107
 20
171.51610845910281
 30
0.0
  0
VERTEX
  5
35E
  8
0
 10
18.0000000000000107
 20
171.6315665049664858
 30
0.0
  0
VERTEX
  5
35F
  8
0
 10
18.0000000000000107
 20
171.7468547569241082
 30
0.0
  0
VERTEX
  5
360
  8
0
 10
18.0000000000000107
 20
171.8619630815404946
 30
0.0
  0
VERTEX
  5
361
  8
0
 10
18.0000000000000107
 20
171.9768813453808036
 30
0.0
  0
VERTEX
  5
362
  8
0
 10
18.0000000000000107
 20
172.0915994150099095
 30
0.0
  0
VERTEX
  5
363
  8
0
 10
18.0000000000000107
 20
172.206107156992914
 30
0.0
  0
VERTEX
  5
364
  8
0
 10
18.0000000000000107
 20
172.3203944378946915
 30
0.0
  0
VERTEX
  5
365
  8
0
 10
18.0000000000000107
 20
172.4344532885858996
 30
0.0
  0
VERTEX
  5
366
  8
0
 10
18.0000000000000107
 20
172.5482976506868908
 30
0.0
  0
VERTEX
  5
367
  8
0
 10
18.0000000000000107
 20
172.6619541977345875
 30
0.0
  0
VERTEX
  5
368
  8
0
 10
18.0000000000000107
 20
172.7754497604508117
 30
0.0
  0
VERTEX
  5
369
  8
0
 10
18.0000000000000107
 20
172.8888111695576129
 30
0.0
  0
VERTEX
  5
36A
  8
0
 10
18.0000000000000107
 20
173.0020652557766994
 30
0.0
  0
VERTEX
  5
36B
  8
0
 10
18.0000000000000107
 20
173.115238849830007
 30
0.0
  0
VERTEX
  5
36C
  8
0
 10
18.0000000000000107
 20
173.2283587824396136
 30
0.0
  0
VERTEX
  5
36D
  8
0
 10
18.0000000000000107
 20
173.3414518843273129
 30
0.0
  0
SEQEND
  5
36E
  8
0
  0
POLYLINE
  5
184
  8
0
 66
     1
 10
0.0
 20
0.0
 30
0.0
  0
VERTEX
  5
36F
  8
0
 10
25.0000000000000213
 20
177.382903768654586
 30
0.0
  0
VERTEX
  5
370
  8
0
 10
25.1182042497342408
 20
177.314658513251203
 30
0.0
  0
VERTEX
  5
371
  8
0
 10
25.2364494392056891
 20
177.2463896212794907
 30
0.0
  0
VERTEX
  5
372
  8
0
 10
25.3547765081516587
 20
177.1780734561710915
 30
0.0
  0
VERTEX
  5
373
  8
0
 10
25.4732263963094105
 20
177.1096863813577897
 30
0.0
  0
VERTEX
  5
374
  8
0
 10
25.591840043416191
 20
177.0412047602711141
 30
0.0
  0
VERTEX
  5
375
  8
0
 10
25.7106583892092289
 20
176.9726049563429058
 30
0.0
  0
VERTEX
  5
376
  8
0
 10
25.8297223734257813
 20
176.9038633330046935
 30
0.0
  0
VERTEX
  5
377
  8
0
 10
25.9490678591510999
 20
176.8349591846946112
 30
0.0
  0
VERTEX
  5
378
  8
0
 10
26.0686951016088706
 20
176.7658923640591127
 30
0.0
  0
VERTEX
  5
379
  8
0
 10
26.1885891150193792
 20
176.6966715231424132
 30
0.0
  0
VERTEX
  5
37A
  8
0
 10
26.3087348558336913
 20
176.6273053473412062
 30
0.0
  0
VERTEX
  5
37B
  8
0
 10
26.4291172805027514
 20
176.5578025220528104
 30
0.0
  0
VERTEX
  5
37C
  8
0
 10
26.5497213454775789
 20
176.4881717326742034
 30
0.0
  0
VERTEX
  5
37D
  8
0
 10
26.670532007209161
 20
176.4184216646025902
 30
0.0
  0
VERTEX
  5
37E
  8
0
 10
26.7915344873612895
 20
176.3485608501140973
 30
0.0
  0
VERTEX
  5
37F
  8
0
 10
26.9127174817650285
 20
176.2785958156738957
 30
0.0
  0
VERTEX
  5
380
  8
0
 10
27.0340721285023591
 20
176.2085316777126991
 30
0.0
  0
VERTEX
  5
381
  8
0
 10
27.155589616415071
 20
176.1383735233551135
 30
0.0
  0
VERTEX
  5
382
  8
0
 10
27.2772611343449007
 20
176.0681264397256029
 30
0.0
  0
VERTEX
  5
383
  8
0
 10
27.3990778711335494
 20
175.9977955139488017
 30
0.0
  0
VERTEX
  5
384
  8
0
 10
27.5210310156227997
 20
175.9273858331494012
 30
0.0
  0
VERTEX
  5
385
  8
0
 10
27.6431117153925783
 20
175.8569025082744872
 30
0.0
  0
VERTEX
  5
386
  8
0
 10
27.7653083145293493
 20
175.7863522688687965
 30
0.0
  0
VERTEX
  5
387
  8
0
 10
27.8876046119507492
 20
175.7157444686316978
 30
0.0
  0
VERTEX
  5
388
  8
0
 10
28.0099839912759805
 20
175.6450887010350073
 30
0.0
  0
VERTEX
  5
389
  8
0
 10
28.1324298361242811
 20
175.5743945595507114
 30
0.0
  0
VERTEX
  5
38A
  8
0
 10
28.2549255301149103
 20
175.5036716376505979
 30
0.0
  0
VERTEX
  5
38B
  8
0
 10
28.3774544568670599
 20
175.4329295288067101
 30
0.0
  0
VERTEX
  5
38C
  8
0
 10
28.5000000000000107
 20
175.3621778264908926
 30
0.0
  0
SEQEND
  5
38D
  8
0
  0
POLYLINE
  5
185
  8
0
 66
     1
 10
0.0
 20
0.0
 30
0.0
  0
VERTEX
  5
38E
  8
0
 10
21.5000000000000213
 20
175.3621778264908926
 30
0.0
  0
VERTEX
  5
38F
  8
0
 10
21.6015131900943693
 20
175.4207864941182038
 30
0.0
  0
VERTEX
  5
390
  8
0
 10
21.7030197222839085
 20
175.4793913178023956
 30
0.0
  0
VERTEX
  5
391
  8
0
 10
21.8045128419552299
 20
175.5379883977655027
 30
0.0
  0
VERTEX
  5
392
  8
0
 10
21.9059840043947105
 20
175.5965728007149096
 30
0.0
  0
VERTEX
  5
393
  8
0
 10
22.0074230871935193
 20
175.6551386824750978
 30
0.0
  0
VERTEX
  5
394
  8
0
 10
22.1088199139278316
 20
175.7136801676851974
 30
0.0
  0
VERTEX
  5
395
  8
0
 10
22.2101643081738196
 20
175.7721913809839975
 30
0.0
  0
VERTEX
  5
396
  8
0
 10
22.3114460935076302
 20
175.830666447010401
 30
0.0
  0
VERTEX
  5
397
  8
0
 10
22.4126550935054212
 20
175.8890994904035949
 30
0.0
  0
VERTEX
  5
398
  8
0
 10
22.5137811317433609
 20
175.9474846358023115
 30
0.0
  0
VERTEX
  5
399
  8
0
 10
22.6148141513713909
 20
176.0058160768815867
 30
0.0
  0
VERTEX
  5
39A
  8
0
 10
22.7157470440199205
 20
176.0640897096222943
 30
0.0
  0
VERTEX
  5
39B
  8
0
 10
22.816575764355111
 20
176.122303198449913
 30
0.0
  0
VERTEX
  5
39C
  8
0
 10
22.9172964095383698
 20
176.1804542900594015
 30
0.0
  0
VERTEX
  5
39D
  8
0
 10
23.0179050767311395
 20
176.2385407311460028
 30
0.0
  0
VERTEX
  5
39E
  8
0
 10
23.11839786309476
 20
176.2965602684045905
 30
0.0
  0
VERTEX
  5
39F
  8
0
 10
23.2187708657906917
 20
176.3545106485304927
 30
0.0
  0
VERTEX
  5
3A0
  8
0
 10
23.3190201819802887
 20
176.4123896182186115
 30
0.0
  0
VERTEX
  5
3A1
  8
0
 10
23.4191418473750588
 20
176.4701948886859952
 30
0.0
  0
VERTEX
  5
3A2
  8
0
 10
23.5191297821386485
 20
176.5279229497375013
 30
0.0
  0
VERTEX
  5
3A3
  8
0
 10
23.618975306688661
 20
176.5855687902138129
 30
0.0
  0
VERTEX
  5
3A4
  8
0
 10
23.7186695818617892
 20
176.6431273068216967
 30
0.0
  0
VERTEX
  5
3A5
  8
0
 10
23.8182037684948007
 20
176.7005933962678057
 30
0.0
  0
VERTEX
  5
3A6
  8
0
 10
23.9175690274243884
 20
176.7579619552589065
 30
0.0
  0
VERTEX
  5
3A7
  8
0
 10
24.0167565194873198
 20
176.815227880501709
 30
0.0
  0
VERTEX
  5
3A8
  8
0
 10
24.1157574055203092
 20
176.8723860687028946
 30
0.0
  0
VERTEX
  5
3A9
  8
0
 10
24.21456289906412
 20
176.9294314469977962
 30
0.0
  0
VERTEX
  5
3AA
  8
0
 10
24.3131739245061098
 20
176.9863645490817987
 30
0.0
  0
VERTEX
  5
3AB
  8
0
 10
24.4116123948181105
 20
177.043198026415098
 30
0.0
  0
VERTEX
  5
3AC
  8
0
 10
24.5099029607329584
 20
177.0999461111047992
 30
0.0
  0
VERTEX
  5
3AD
  8
0
 10
24.608070272983511
 20
177.156623035258292
 30
0.0
  0
VERTEX
  5
3AE
  8
0
 10
24.7061389823026509
 20
177.21324303098271
 30
0.0
  0
VERTEX
  5
3AF
  8
0
 10
24.8041337394231896
 20
177.2698203303853859
 30
0.0
  0
VERTEX
  5
3B0
  8
0
 10
24.9020791950780307
 20
177.3263691655737091
 30
0.0
  0
VERTEX
  5
3B1
  8
0
 10
25.0000000000000213
 20
177.382903768654586
 30
0.0
  0
SEQEND
  5
3B2
  8
0
  0
POLYLINE
  5
186
  8
0
 66
     1
 10
0.0
 20
0.0
 30
0.0
  0
VERTEX
  5
3B3
  8
0
 10
18.5000000000000107
 20
165.5472232502673933
 30
0.0
  0
VERTEX
  5
3B4
  8
0
 10
18.6201526859191091
 20
165.4778530647081993
 30
0.0
  0
VERTEX
  5
3B5
  8
0
 10
18.7403519453899214
 20
165.4084559898963107
 30
0.0
  0
VERTEX
  5
3B6
  8
0
 10
18.8606443519640692
 20
165.3390051365792885
 30
0.0
  0
VERTEX
  5
3B7
  8
0
 10
18.9810764791932804
 20
165.2694736155044097
 30
0.0
  0
VERTEX
  5
3B8
  8
0
 10
19.10169490062923
 20
165.1998345374190933
 30
0.0
  0
VERTEX
  5
3B9
  8
0
 10
19.2225461898235999
 20
165.1300610130709003
 30
0.0
  0
VERTEX
  5
3BA
  8
0
 10
19.3436769203280896
 20
165.0601261532069088
 30
0.0
  0
VERTEX
  5
3BB
  8
0
 10
19.4651232571807107
 20
164.9900090779329958
 30
0.0
  0
VERTEX
  5
3BC
  8
0
 10
19.5868781912706282
 20
164.9197138339609978
 30
0.0
  0
VERTEX
  5
3BD
  8
0
 10
19.7089235207899804
 20
164.8492509301096902
 30
0.0
  0
VERTEX
  5
3BE
  8
0
 10
19.8312410439116711
 20
164.7786308752087052
 30
0.0
  0
VERTEX
  5
3BF
  8
0
 10
19.9538125588086785
 20
164.7078641780879877
 30
0.0
  0
VERTEX
  5
3C0
  8
0
 10
20.0766198636539599
 20
164.6369613475771132
 30
0.0
  0
VERTEX
  5
3C1
  8
0
 10
20.1996447566204615
 20
164.5659328925059128
 30
0.0
  0
VERTEX
  5
3C2
  8
0
 10
20.3228699718042805
 20
164.4947887813484897
 30
0.0
  0
VERTEX
  5
3C3
  8
0
 10
20.4462822452639301
 20
164.4235366720452873
 30
0.0
  0
VERTEX
  5
3C4
  8
0
 10
20.5698693825087986
 20
164.3521836050886122
 30
0.0
  0
VERTEX
  5
3C5
  8
0
 10
20.6936191890592198
 20
164.2807366209646034
 30
0.0
  0
VERTEX
  5
3C6
  8
0
 10
20.817519470435581
 20
164.2092027601592008
 30
0.0
  0
VERTEX
  5
3C7
  8
0
 10
20.9415580321582802
 20
164.137589063158714
 30
0.0
  0
VERTEX
  5
3C8
  8
0
 10
21.0657226797476795
 20
164.0659025704491967
 30
0.0
  0
VERTEX
  5
3C9
  8
0
 10
21.1900003994073387
 20
163.9941507955493876
 30
0.0
  0
VERTEX
  5
3CA
  8
0
 10
21.3143723282815216
 20
163.9223446289342121
 30
0.0
  0
VERTEX
  5
3CB
  8
0
 10
21.4388170605182502
 20
163.8504964292781096
 30
0.0
  0
VERTEX
  5
3CC
  8
0
 10
21.5633131798608595
 20
163.77861856126259
 30
0.0
  0
VERTEX
  5
3CD
  8
0
 10
21.6878392700527201
 20
163.7067233895691913
 30
0.0
  0
VERTEX
  5
3CE
  8
0
 10
21.8123739148372415
 20
163.634823278879395
 30
0.0
  0
VERTEX
  5
3CF
  8
0
 10
21.9368956979577803
 20
163.5629305938747962
 30
0.0
  0
VERTEX
  5
3D0
  8
0
 10
22.0613833309572414
 20
163.4910576254517878
 30
0.0
  0
VERTEX
  5
3D1
  8
0
 10
22.1858171331409615
 20
163.419215736264789
 30
0.0
  0
VERTEX
  5
3D2
  8
0
 10
22.3101785221612516
 20
163.347415654837107
 30
0.0
  0
VERTEX
  5
3D3
  8
0
 10
22.4344489369269304
 20
163.2756680974198105
 30
0.0
  0
VERTEX
  5
3D4
  8
0
 10
22.5586098163468414
 20
163.2039837802639113
 30
0.0
  0
VERTEX
  5
3D5
  8
0
 10
22.6826425993298386
 20
163.132373419620393
 30
0.0
  0
VERTEX
  5
3D6
  8
0
 10
22.8065289703406613
 20
163.0608475899682901
 30
0.0
  0
VERTEX
  5
3D7
  8
0
 10
22.9302553271920289
 20
162.9894141445342939
 30
0.0
  0
VERTEX
  5
3D8
  8
0
 10
23.0538123138454516
 20
162.9180784850296959
 30
0.0
  0
VERTEX
  5
3D9
  8
0
 10
23.1771907260592585
 20
162.846845925525912
 30
0.0
  0
VERTEX
  5
3DA
  8
0
 10
23.3003813595918707
 20
162.7757217800941874
 30
0.0
  0
VERTEX
  5
3DB
  8
0
 10
23.4233750102015783
 20
162.7047113628059947
 30
0.0
  0
VERTEX
  5
3DC
  8
0
 10
23.5461623445746291
 20
162.6338200622527097
 30
0.0
  0
VERTEX
  5
3DD
  8
0
 10
23.6687298864902189
 20
162.5630556589337914
 30
0.0
  0
VERTEX
  5
3DE
  8
0
 10
23.7910592355204216
 20
162.4924287763413986
 30
0.0
  0
VERTEX
  5
3DF
  8
0
 10
23.9131317044414295
 20
162.4219502035491871
 30
0.0
  0
VERTEX
  5
3E0
  8
0
 10
24.0349286060294283
 20
162.351630729630898
 30
0.0
  0
VERTEX
  5
3E1
  8
0
 10
24.15643125306066
 20
162.2814811436601872
 30
0.0
  0
VERTEX
  5
3E2
  8
0
 10
24.2776210807519597
 20
162.2115121640196094
 30
0.0
  0
VERTEX
  5
3E3
  8
0
 10
24.3985005034651188
 20
162.1417223967766859
 30
0.0
  0
VERTEX
  5
3E4
  8
0
 10
24.5191165064481886
 20
162.0720847149858059
 30
0.0
  0
VERTEX
  5
3E5
  8
0
 10
24.6395217736471892
 20
162.002568701556612
 30
0.0
  0
VERTEX
  5
3E6
  8
0
 10
24.7597689890081512
 20
161.9331439393986898
 30
0.0
  0
VERTEX
  5
3E7
  8
0
 10
24.8799108364770696
 20
161.8637800114215963
 30
0.0
  0
VERTEX
  5
3E8
  8
0
 10
24.9999999999999609
 20
161.7944465005348036
 30
0.0
  0
SEQEND
  5
3E9
  8
0
  0
POLYLINE
  5
187
  8
0
 66
     1
 10
0.0
 20
0.0
 30
0.0
  0
VERTEX
  5
3EA
  8
0
 10
31.5000000000000213
 20
165.5472232502673933
 30
0.0
  0
VERTEX
  5
3EB
  8
0
 10
31.3798473140809193
 20
165.4778530647081993
 30
0.0
  0
VERTEX
  5
3EC
  8
0
 10
31.2596480546101105
 20
165.4084559898963107
 30
0.0
  0
VERTEX
  5
3ED
  8
0
 10
31.1393556480359592
 20
165.3390051365792885
 30
0.0
  0
VERTEX
  5
3EE
  8
0
 10
31.0189235208067515
 20
165.2694736155044097
 30
0.0
  0
VERTEX
  5
3EF
  8
0
 10
30.89830509937077
 20
165.1998345374190933
 30
0.0
  0
VERTEX
  5
3F0
  8
0
 10
30.7774538101764001
 20
165.1300610130709003
 30
0.0
  0
VERTEX
  5
3F1
  8
0
 10
30.6563230796719388
 20
165.0601261532069088
 30
0.0
  0
VERTEX
  5
3F2
  8
0
 10
30.5348767428193213
 20
164.9900090779329958
 30
0.0
  0
VERTEX
  5
3F3
  8
0
 10
30.4131218087294002
 20
164.9197138339609978
 30
0.0
  0
VERTEX
  5
3F4
  8
0
 10
30.2910764792100515
 20
164.8492509301096902
 30
0.0
  0
VERTEX
  5
3F5
  8
0
 10
30.1687589560883609
 20
164.7786308752087052
 30
0.0
  0
VERTEX
  5
3F6
  8
0
 10
30.0461874411913499
 20
164.7078641780879877
 30
0.0
  0
VERTEX
  5
3F7
  8
0
 10
29.9233801363460685
 20
164.6369613475771132
 30
0.0
  0
VERTEX
  5
3F8
  8
0
 10
29.8003552433795704
 20
164.5659328925059128
 30
0.0
  0
VERTEX
  5
3F9
  8
0
 10
29.6771300281957515
 20
164.4947887813484897
 30
0.0
  0
VERTEX
  5
3FA
  8
0
 10
29.5537177547360983
 20
164.4235366720452873
 30
0.0
  0
VERTEX
  5
3FB
  8
0
 10
29.4301306174912298
 20
164.3521836050886122
 30
0.0
  0
VERTEX
  5
3FC
  8
0
 10
29.3063808109408086
 20
164.2807366209646034
 30
0.0
  0
VERTEX
  5
3FD
  8
0
 10
29.1824805295644509
 20
164.2092027601592008
 30
0.0
  0
VERTEX
  5
3FE
  8
0
 10
29.0584419678417483
 20
164.137589063158714
 30
0.0
  0
VERTEX
  5
3FF
  8
0
 10
28.9342773202523205
 20
164.0659025704491967
 30
0.0
  0
VERTEX
  5
400
  8
0
 10
28.8099996005926613
 20
163.9941507955493876
 30
0.0
  0
VERTEX
  5
401
  8
0
 10
28.68562767171845
 20
163.9223446289342121
 30
0.0
  0
VERTEX
  5
402
  8
0
 10
28.5611829394817605
 20
163.8504964292781096
 30
0.0
  0
VERTEX
  5
403
  8
0
 10
28.4366868201391512
 20
163.77861856126259
 30
0.0
  0
VERTEX
  5
404
  8
0
 10
28.3121607299472799
 20
163.7067233895691913
 30
0.0
  0
VERTEX
  5
405
  8
0
 10
28.1876260851627585
 20
163.634823278879395
 30
0.0
  0
VERTEX
  5
406
  8
0
 10
28.0631043020422197
 20
163.5629305938747962
 30
0.0
  0
VERTEX
  5
407
  8
0
 10
27.9386166690427586
 20
163.4910576254517878
 30
0.0
  0
VERTEX
  5
408
  8
0
 10
27.8141828668590385
 20
163.419215736264789
 30
0.0
  0
VERTEX
  5
409
  8
0
 10
27.6898214778387484
 20
163.347415654837107
 30
0.0
  0
VERTEX
  5
40A
  8
0
 10
27.5655510630730696
 20
163.2756680974198105
 30
0.0
  0
VERTEX
  5
40B
  8
0
 10
27.4413901836531586
 20
163.2039837802639113
 30
0.0
  0
VERTEX
  5
40C
  8
0
 10
27.3173574006701614
 20
163.132373419620393
 30
0.0
  0
VERTEX
  5
40D
  8
0
 10
27.1934710296593316
 20
163.0608475899682901
 30
0.0
  0
VERTEX
  5
40E
  8
0
 10
27.0697446728079711
 20
162.9894141445342939
 30
0.0
  0
VERTEX
  5
40F
  8
0
 10
26.9461876861545484
 20
162.9180784850296959
 30
0.0
  0
VERTEX
  5
410
  8
0
 10
26.8228092739407309
 20
162.846845925525912
 30
0.0
  0
VERTEX
  5
411
  8
0
 10
26.6996186404081612
 20
162.7757217800941874
 30
0.0
  0
VERTEX
  5
412
  8
0
 10
26.5766249897984217
 20
162.7047113628059947
 30
0.0
  0
VERTEX
  5
413
  8
0
 10
26.4538376554253816
 20
162.6338200622527097
 30
0.0
  0
VERTEX
  5
414
  8
0
 10
26.3312701135097491
 20
162.5630556589337914
 30
0.0
  0
VERTEX
  5
415
  8
0
 10
26.20894076447955
 20
162.4924287763413986
 30
0.0
  0
VERTEX
  5
416
  8
0
 10
26.0868682955585705
 20
162.4219502035491871
 30
0.0
  0
VERTEX
  5
417
  8
0
 10
25.9650713939705504
 20
162.351630729630898
 30
0.0
  0
VERTEX
  5
418
  8
0
 10
25.8435687469393116
 20
162.2814811436601872
 30
0.0
  0
VERTEX
  5
419
  8
0
 10
25.722378919248019
 20
162.2115121640196094
 30
0.0
  0
VERTEX
  5
41A
  8
0
 10
25.6014994965348599
 20
162.1417223967766859
 30
0.0
  0
VERTEX
  5
41B
  8
0
 10
25.4808834935517901
 20
162.0720847149858059
 30
0.0
  0
VERTEX
  5
41C
  8
0
 10
25.3604782263527788
 20
162.002568701556612
 30
0.0
  0
VERTEX
  5
41D
  8
0
 10
25.2402310109918204
 20
161.9331439393986898
 30
0.0
  0
VERTEX
  5
41E
  8
0
 10
25.1200891635229091
 20
161.8637800114215963
 30
0.0
  0
VERTEX
  5
41F
  8
0
 10
25.0000000000000213
 20
161.7944465005348889
 30
0.0
  0
SEQEND
  5
420
  8
0
  0
POLYLINE
  5
188
  8
0
 66
     1
 10
0.0
 20
0.0
 30
0.0
  0
VERTEX
  5
421
  8
0
 10
31.5000000000000213
 20
165.5472232502673933
 30
0.0
  0
VERTEX
  5
422
  8
0
 10
31.5000000000000213
 20
165.7035932743077069
 30
0.0
  0
VERTEX
  5
423
  8
0
 10
31.5000000000000213
 20
165.860049098404204
 30
0.0
  0
VERTEX
  5
424
  8
0
 10
31.5000000000000213
 20
166.0166765226130963
 30
0.0
  0
VERTEX
  5
425
  8
0
 10
31.5000000000000213
 20
166.1735613469905957
 30
0.0
  0
VERTEX
  5
426
  8
0
 10
31.5000000000000213
 20
166.3307893715929993
 30
0.0
  0
VERTEX
  5
427
  8
0
 10
31.5000000000000213
 20
166.4884453635523016
 30
0.0
  0
VERTEX
  5
428
  8
0
 10
31.5000000000000213
 20
166.6465674680634947
 30
0.0
  0
VERTEX
  5
429
  8
0
 10
31.5000000000000213
 20
166.8051292348787058
 30
0.0
  0
VERTEX
  5
42A
  8
0
 10
31.5000000000000213
 20
166.9640994658849138
 30
0.0
  0
VERTEX
  5
42B
  8
0
 10
31.5000000000000213
 20
167.1234469629690125
 30
0.0
  0
VERTEX
  5
42C
  8
0
 10
31.5000000000000213
 20
167.2831405280180093
 30
0.0
  0
VERTEX
  5
42D
  8
0
 10
31.5000000000000213
 20
167.4431492755084037
 30
0.0
  0
VERTEX
  5
42E
  8
0
 10
31.5000000000000213
 20
167.6034500669478859
 30
0.0
  0
VERTEX
  5
42F
  8
0
 10
31.5000000000000213
 20
167.7640278338483881
 30
0.0
  0
VERTEX
  5
430
  8
0
 10
31.5000000000000213
 20
167.9248678849401131
 30
0.0
  0
VERTEX
  5
431
  8
0
 10
31.5000000000000213
 20
168.0859555289532921
 30
0.0
  0
VERTEX
  5
432
  8
0
 10
31.5000000000000213
 20
168.2472760746179858
 30
0.0
  0
VERTEX
  5
433
  8
0
 10
31.5000000000000213
 20
168.4088140515106033
 30
0.0
  0
VERTEX
  5
434
  8
0
 10
31.5000000000000213
 20
168.57054207920919
 30
0.0
  0
VERTEX
  5
435
  8
0
 10
31.5000000000000213
 20
168.7324234785729118
 30
0.0
  0
VERTEX
  5
436
  8
0
 10
31.5000000000000213
 20
168.8944213236113114
 30
0.0
  0
VERTEX
  5
437
  8
0
 10
31.5000000000000213
 20
169.0564986883343011
 30
0.0
  0
VERTEX
  5
438
  8
0
 10
31.5000000000000213
 20
169.2186186467513949
 30
0.0
  0
VERTEX
  5
439
  8
0
 10
31.5000000000000213
 20
169.3807446384313096
 30
0.0
  0
VERTEX
  5
43A
  8
0
 10
31.5000000000000213
 20
169.542846558106703
 30
0.0
  0
VERTEX
  5
43B
  8
0
 10
31.5000000000000213
 20
169.7048998274065923
 30
0.0
  0
VERTEX
  5
43C
  8
0
 10
31.5000000000000213
 20
169.8668800464608921
 30
0.0
  0
VERTEX
  5
43D
  8
0
 10
31.5000000000000213
 20
170.0287628153996877
 30
0.0
  0
VERTEX
  5
43E
  8
0
 10
31.5000000000000213
 20
170.1905237343528086
 30
0.0
  0
VERTEX
  5
43F
  8
0
 10
31.5000000000000213
 20
170.3521381038495974
 30
0.0
  0
VERTEX
  5
440
  8
0
 10
31.5000000000000213
 20
170.5135750601953077
 30
0.0
  0
VERTEX
  5
441
  8
0
 10
31.5000000000000213
 20
170.6747979539958919
 30
0.0
  0
VERTEX
  5
442
  8
0
 10
31.5000000000000213
 20
170.8357699120568896
 30
0.0
  0
VERTEX
  5
443
  8
0
 10
31.5000000000000213
 20
170.9964540611836981
 30
0.0
  0
VERTEX
  5
444
  8
0
 10
31.5000000000000213
 20
171.1568135281819991
 30
0.0
  0
VERTEX
  5
445
  8
0
 10
31.5000000000000213
 20
171.3168114398571049
 30
0.0
  0
VERTEX
  5
446
  8
0
 10
31.5000000000000213
 20
171.4764109230146119
 30
0.0
  0
VERTEX
  5
447
  8
0
 10
31.5000000000000213
 20
171.6355751044600026
 30
0.0
  0
VERTEX
  5
448
  8
0
 10
31.5000000000000213
 20
171.794275141480199
 30
0.0
  0
VERTEX
  5
449
  8
0
 10
31.5000000000000213
 20
171.9525400095429859
 30
0.0
  0
VERTEX
  5
44A
  8
0
 10
31.5000000000000213
 20
172.1104240107933094
 30
0.0
  0
VERTEX
  5
44B
  8
0
 10
31.5000000000000213
 20
172.2679815547757016
 30
0.0
  0
VERTEX
  5
44C
  8
0
 10
31.5000000000000213
 20
172.4252670510350072
 30
0.0
  0
VERTEX
  5
44D
  8
0
 10
31.5000000000000213
 20
172.5823349091155876
 30
0.0
  0
VERTEX
  5
44E
  8
0
 10
31.5000000000000213
 20
172.7392395385624013
 30
0.0
  0
VERTEX
  5
44F
  8
0
 10
31.5000000000000213
 20
172.8960353489196962
 30
0.0
  0
VERTEX
  5
450
  8
0
 10
31.5000000000000213
 20
173.052776749732601
 30
0.0
  0
SEQEND
  5
451
  8
0
  0
POLYLINE
  5
189
  8
0
 66
     1
 10
0.0
 20
0.0
 30
0.0
  0
VERTEX
  5
452
  8
0
 10
31.5000000000000213
 20
173.052776749732601
 30
0.0
  0
VERTEX
  5
453
  8
0
 10
31.3798473140809193
 20
173.122146935291795
 30
0.0
  0
VERTEX
  5
454
  8
0
 10
31.2596480546101105
 20
173.191544010103712
 30
0.0
  0
VERTEX
  5
455
  8
0
 10
31.1393556480359592
 20
173.2609948634207058
 30
0.0
  0
VERTEX
  5
456
  8
0
 10
31.0189235208067515
 20
173.330526384495613
 30
0.0
  0
VERTEX
  5
457
  8
0
 10
30.89830509937077
 20
173.400165462580901
 30
0.0
  0
VERTEX
  5
458
  8
0
 10
30.7774538101764001
 20
173.469938986929094
 30
0.0
  0
VERTEX
  5
459
  8
0
 10
30.6563230796719388
 20
173.5398738467931139
 30
0.0
  0
VERTEX
  5
45A
  8
0
 10
30.5348767428193213
 20
173.6099909220669986
 30
0.0
  0
VERTEX
  5
45B
  8
0
 10
30.4131218087294002
 20
173.6802861660389965
 30
0.0
  0
VERTEX
  5
45C
  8
0
 10
30.2910764792100515
 20
173.7507490698903041
 30
0.0
  0
VERTEX
  5
45D
  8
0
 10
30.1687589560883609
 20
173.8213691247912891
 30
0.0
  0
VERTEX
  5
45E
  8
0
 10
30.0461874411913499
 20
173.8921358219120066
 30
0.0
  0
VERTEX
  5
45F
  8
0
 10
29.9233801363460685
 20
173.9630386524229095
 30
0.0
  0
VERTEX
  5
460
  8
0
 10
29.8003552433795704
 20
174.0340671074941099
 30
0.0
  0
VERTEX
  5
461
  8
0
 10
29.6771300281957515
 20
174.1052112186515046
 30
0.0
  0
VERTEX
  5
462
  8
0
 10
29.5537177547360983
 20
174.176463327954707
 30
0.0
  0
VERTEX
  5
463
  8
0
 10
29.4301306174912298
 20
174.2478163949114105
 30
0.0
  0
VERTEX
  5
464
  8
0
 10
29.3063808109408086
 20
174.3192633790355046
 30
0.0
  0
VERTEX
  5
465
  8
0
 10
29.1824805295644509
 20
174.3907972398407935
 30
0.0
  0
VERTEX
  5
466
  8
0
 10
29.0584419678417483
 20
174.4624109368413087
 30
0.0
  0
VERTEX
  5
467
  8
0
 10
28.9342773202523205
 20
174.5340974295509113
 30
0.0
  0
VERTEX
  5
468
  8
0
 10
28.8099996005926613
 20
174.6058492044506067
 30
0.0
  0
VERTEX
  5
469
  8
0
 10
28.68562767171845
 20
174.6776553710658106
 30
0.0
  0
VERTEX
  5
46A
  8
0
 10
28.5611829394817605
 20
174.7495035707219131
 30
0.0
  0
VERTEX
  5
46B
  8
0
 10
28.4366868201391512
 20
174.8213814387374043
 30
0.0
  0
VERTEX
  5
46C
  8
0
 10
28.3121607299472799
 20
174.893276610430803
 30
0.0
  0
VERTEX
  5
46D
  8
0
 10
28.1876260851627585
 20
174.965176721120514
 30
0.0
  0
VERTEX
  5
46E
  8
0
 10
28.0631043020422197
 20
175.0370694061251982
 30
0.0
  0
VERTEX
  5
46F
  8
0
 10
27.9386166690427586
 20
175.1089423745482065
 30
0.0
  0
VERTEX
  5
470
  8
0
 10
27.8141828668590385
 20
175.1807842637352053
 30
0.0
  0
VERTEX
  5
471
  8
0
 10
27.6898214778387484
 20
175.2525843451628873
 30
0.0
  0
VERTEX
  5
472
  8
0
 10
27.5655510630730696
 20
175.3243319025802123
 30
0.0
  0
VERTEX
  5
473
  8
0
 10
27.4413901836531586
 20
175.3960162197361115
 30
0.0
  0
VERTEX
  5
474
  8
0
 10
27.3173574006701614
 20
175.4676265803796014
 30
0.0
  0
VERTEX
  5
475
  8
0
 10
27.1934710296593316
 20
175.5391524100317042
 30
0.0
  0
VERTEX
  5
476
  8
0
 10
27.0697446728079711
 20
175.6105858554657004
 30
0.0
  0
VERTEX
  5
477
  8
0
 10
26.9461876861545484
 20
175.6819215149702984
 30
0.0
  0
VERTEX
  5
478
  8
0
 10
26.8228092739407309
 20
175.7531540744741108
 30
0.0
  0
VERTEX
  5
479
  8
0
 10
26.6996186404081612
 20
175.824278219905807
 30
0.0
  0
VERTEX
  5
47A
  8
0
 10
26.5766249897984217
 20
175.895288637193886
 30
0.0
  0
VERTEX
  5
47B
  8
0
 10
26.4538376554253816
 20
175.966179937747313
 30
0.0
  0
VERTEX
  5
47C
  8
0
 10
26.3312701135097491
 20
176.0369443410662029
 30
0.0
  0
VERTEX
  5
47D
  8
0
 10
26.20894076447955
 20
176.1075712236585957
 30
0.0
  0
VERTEX
  5
47E
  8
0
 10
26.0868682955585705
 20
176.1780497964506935
 30
0.0
  0
VERTEX
  5
47F
  8
0
 10
25.9650713939705504
 20
176.2483692703690963
 30
0.0
  0
VERTEX
  5
480
  8
0
 10
25.8435687469393116
 20
176.3185188563398071
 30
0.0
  0
VERTEX
  5
481
  8
0
 10
25.722378919248019
 20
176.3884878359804134
 30
0.0
  0
VERTEX
  5
482
  8
0
 10
25.6014994965348599
 20
176.4582776032233085
 30
0.0
  0
VERTEX
  5
483
  8
0
 10
25.4808834935517901
 20
176.5279152850141884
 30
0.0
  0
VERTEX
  5
484
  8
0
 10
25.3604782263527788
 20
176.5974312984434107
 30
0.0
  0
VERTEX
  5
485
  8
0
 10
25.2402310109918204
 20
176.6668560606013898
 30
0.0
  0
VERTEX
  5
486
  8
0
 10
25.1200891635229091
 20
176.7362199885785117
 30
0.0
  0
VERTEX
  5
487
  8
0
 10
25.0000000000000213
 20
176.8055534994651055
 30
0.0
  0
SEQEND
  5
488
  8
0
  0
POLYLINE
  5
18A
  8
0
 66
     1
 10
0.0
 20
0.0
 30
0.0
  0
VERTEX
  5
489
  8
0
 10
18.5000000000000107
 20
173.052776749732601
 30
0.0
  0
VERTEX
  5
48A
  8
0
 10
18.6201526859191091
 20
173.122146935291795
 30
0.0
  0
VERTEX
  5
48B
  8
0
 10
18.7403519453899214
 20
173.191544010103712
 30
0.0
  0
VERTEX
  5
48C
  8
0
 10
18.8606443519640692
 20
173.2609948634207058
 30
0.0
  0
VERTEX
  5
48D
  8
0
 10
18.9810764791932804
 20
173.330526384495613
 30
0.0
  0
VERTEX
  5
48E
  8
0
 10
19.10169490062923
 20
173.400165462580901
 30
0.0
  0
VERTEX
  5
48F
  8
0
 10
19.2225461898235999
 20
173.469938986929094
 30
0.0
  0
VERTEX
  5
490
  8
0
 10
19.3436769203280896
 20
173.5398738467931139
 30
0.0
  0
VERTEX
  5
491
  8
0
 10
19.4651232571807107
 20
173.6099909220669986
 30
0.0
  0
VERTEX
  5
492
  8
0
 10
19.5868781912706282
 20
173.6802861660389965
 30
0.0
  0
VERTEX
  5
493
  8
0
 10
19.7089235207899804
 20
173.7507490698903041
 30
0.0
  0
VERTEX
  5
494
  8
0
 10
19.8312410439116711
 20
173.8213691247912891
 30
0.0
  0
VERTEX
  5
495
  8
0
 10
19.9538125588086785
 20
173.8921358219120066
 30
0.0
  0
VERTEX
  5
496
  8
0
 10
20.0766198636539599
 20
173.9630386524229095
 30
0.0
  0
VERTEX
  5
497
  8
0
 10
20.1996447566204615
 20
174.0340671074941099
 30
0.0
  0
VERTEX
  5
498
  8
0
 10
20.3228699718042805
 20
174.1052112186515046
 30
0.0
  0
VERTEX
  5
499
  8
0
 10
20.4462822452639301
 20
174.176463327954707
 30
0.0
  0
VERTEX
  5
49A
  8
0
 10
20.5698693825087986
 20
174.2478163949114105
 30
0.0
  0
VERTEX
  5
49B
  8
0
 10
20.6936191890592198
 20
174.3192633790355046
 30
0.0
  0
VERTEX
  5
49C
  8
0
 10
20.817519470435581
 20
174.3907972398407935
 30
0.0
  0
VERTEX
  5
49D
  8
0
 10
20.9415580321582802
 20
174.4624109368413087
 30
0.0
  0
VERTEX
  5
49E
  8
0
 10
21.0657226797476795
 20
174.5340974295509113
 30
0.0
  0
VERTEX
  5
49F
  8
0
 10
21.1900003994073387
 20
174.6058492044506067
 30
0.0
  0
VERTEX
  5
4A0
  8
0
 10
21.3143723282815216
 20
174.6776553710658106
 30
0.0
  0
VERTEX
  5
4A1
  8
0
 10
21.4388170605182502
 20
174.7495035707219131
 30
0.0
  0
VERTEX
  5
4A2
  8
0
 10
21.5633131798608595
 20
174.8213814387374043
 30
0.0
  0
VERTEX
  5
4A3
  8
0
 10
21.6878392700527201
 20
174.893276610430803
 30
0.0
  0
VERTEX
  5
4A4
  8
0
 10
21.8123739148372415
 20
174.965176721120514
 30
0.0
  0
VERTEX
  5
4A5
  8
0
 10
21.9368956979577803
 20
175.0370694061251982
 30
0.0
  0
VERTEX
  5
4A6
  8
0
 10
22.0613833309572414
 20
175.1089423745482065
 30
0.0
  0
VERTEX
  5
4A7
  8
0
 10
22.1858171331409615
 20
175.1807842637352053
 30
0.0
  0
VERTEX
  5
4A8
  8
0
 10
22.3101785221612516
 20
175.2525843451628873
 30
0.0
  0
VERTEX
  5
4A9
  8
0
 10
22.4344489369269304
 20
175.3243319025802123
 30
0.0
  0
VERTEX
  5
4AA
  8
0
 10
22.5586098163468414
 20
175.3960162197361115
 30
0.0
  0
VERTEX
  5
4AB
  8
0
 10
22.6826425993298386
 20
175.4676265803796014
 30
0.0
  0
VERTEX
  5
4AC
  8
0
 10
22.8065289703406613
 20
175.5391524100317042
 30
0.0
  0
VERTEX
  5
4AD
  8
0
 10
22.9302553271920289
 20
175.6105858554657004
 30
0.0
  0
VERTEX
  5
4AE
  8
0
 10
23.0538123138454516
 20
175.6819215149702984
 30
0.0
  0
VERTEX
  5
4AF
  8
0
 10
23.1771907260592585
 20
175.7531540744741108
 30
0.0
  0
VERTEX
  5
4B0
  8
0
 10
23.3003813595918707
 20
175.824278219905807
 30
0.0
  0
VERTEX
  5
4B1
  8
0
 10
23.4233750102015783
 20
175.895288637193886
 30
0.0
  0
VERTEX
  5
4B2
  8
0
 10
23.5461623445746291
 20
175.966179937747313
 30
0.0
  0
VERTEX
  5
4B3
  8
0
 10
23.6687298864902615
 20
176.0369443410662029
 30
0.0
  0
VERTEX
  5
4B4
  8
0
 10
23.7910592355204216
 20
176.1075712236585957
 30
0.0
  0
VERTEX
  5
4B5
  8
0
 10
23.9131317044414295
 20
176.1780497964506935
 30
0.0
  0
VERTEX
  5
4B6
  8
0
 10
24.0349286060294283
 20
176.2483692703690963
 30
0.0
  0
VERTEX
  5
4B7
  8
0
 10
24.15643125306066
 20
176.3185188563398071
 30
0.0
  0
VERTEX
  5
4B8
  8
0
 10
24.2776210807519597
 20
176.3884878359804134
 30
0.0
  0
VERTEX
  5
4B9
  8
0
 10
24.3985005034651188
 20
176.4582776032233085
 30
0.0
  0
VERTEX
  5
4BA
  8
0
 10
24.5191165064481886
 20
176.5279152850141884
 30
0.0
  0
VERTEX
  5
4BB
  8
0
 10
24.6395217736471892
 20
176.5974312984434107
 30
0.0
  0
VERTEX
  5
4BC
  8
0
 10
24.7597689890081512
 20
176.6668560606013898
 30
0.0
  0
VERTEX
  5
4BD
  8
0
 10
24.8799108364770696
 20
176.7362199885785117
 30
0.0
  0
VERTEX
  5
4BE
  8
0
 10
24.9999999999999609
 20
176.8055534994651055
 30
0.0
  0
SEQEND
  5
4BF
  8
0
  0
POLYLINE
  5
18B
  8
0
 66
     1
 10
0.0
 20
0.0
 30
0.0
  0
VERTEX
  5
4C0
  8
0
 10
18.5000000000000107
 20
165.5472232502673933
 30
0.0
  0
VERTEX
  5
4C1
  8
0
 10
18.5000000000000107
 20
165.7035932743077069
 30
0.0
  0
VERTEX
  5
4C2
  8
0
 10
18.5000000000000107
 20
165.860049098404204
 30
0.0
  0
VERTEX
  5
4C3
  8
0
 10
18.5000000000000107
 20
166.0166765226130963
 30
0.0
  0
VERTEX
  5
4C4
  8
0
 10
18.5000000000000107
 20
166.1735613469905957
 30
0.0
  0
VERTEX
  5
4C5
  8
0
 10
18.5000000000000107
 20
166.3307893715929993
 30
0.0
  0
VERTEX
  5
4C6
  8
0
 10
18.5000000000000107
 20
166.4884453635523016
 30
0.0
  0
VERTEX
  5
4C7
  8
0
 10
18.5000000000000107
 20
166.6465674680634947
 30
0.0
  0
VERTEX
  5
4C8
  8
0
 10
18.5000000000000107
 20
166.8051292348787058
 30
0.0
  0
VERTEX
  5
4C9
  8
0
 10
18.5000000000000107
 20
166.9640994658849138
 30
0.0
  0
VERTEX
  5
4CA
  8
0
 10
18.5000000000000107
 20
167.1234469629690125
 30
0.0
  0
VERTEX
  5
4CB
  8
0
 10
18.5000000000000107
 20
167.2831405280180093
 30
0.0
  0
VERTEX
  5
4CC
  8
0
 10
18.5000000000000107
 20
167.4431492755084037
 30
0.0
  0
VERTEX
  5
4CD
  8
0
 10
18.5000000000000107
 20
167.6034500669478859
 30
0.0
  0
VERTEX
  5
4CE
  8
0
 10
18.5000000000000107
 20
167.7640278338483881
 30
0.0
  0
VERTEX
  5
4CF
  8
0
 10
18.5000000000000107
 20
167.9248678849401131
 30
0.0
  0
VERTEX
  5
4D0
  8
0
 10
18.5000000000000107
 20
168.0859555289532921
 30
0.0
  0
VERTEX
  5
4D1
  8
0
 10
18.5000000000000107
 20
168.2472760746179858
 30
0.0
  0
VERTEX
  5
4D2
  8
0
 10
18.5000000000000107
 20
168.4088140515104897
 30
0.0
  0
VERTEX
  5
4D3
  8
0
 10
18.5000000000000107
 20
168.5705420792091047
 30
0.0
  0
VERTEX
  5
4D4
  8
0
 10
18.5000000000000107
 20
168.7324234785727981
 30
0.0
  0
VERTEX
  5
4D5
  8
0
 10
18.5000000000000107
 20
168.8944213236111977
 30
0.0
  0
VERTEX
  5
4D6
  8
0
 10
18.5000000000000107
 20
169.0564986883341874
 30
0.0
  0
VERTEX
  5
4D7
  8
0
 10
18.5000000000000107
 20
169.2186186467513949
 30
0.0
  0
VERTEX
  5
4D8
  8
0
 10
18.5000000000000107
 20
169.3807446384313096
 30
0.0
  0
VERTEX
  5
4D9
  8
0
 10
18.5000000000000107
 20
169.542846558106703
 30
0.0
  0
VERTEX
  5
4DA
  8
0
 10
18.5000000000000107
 20
169.704899827406706
 30
0.0
  0
VERTEX
  5
4DB
  8
0
 10
18.5000000000000107
 20
169.8668800464608921
 30
0.0
  0
VERTEX
  5
4DC
  8
0
 10
18.5000000000000107
 20
170.0287628153996877
 30
0.0
  0
VERTEX
  5
4DD
  8
0
 10
18.5000000000000107
 20
170.1905237343528086
 30
0.0
  0
VERTEX
  5
4DE
  8
0
 10
18.5000000000000107
 20
170.3521381038495974
 30
0.0
  0
VERTEX
  5
4DF
  8
0
 10
18.5000000000000107
 20
170.5135750601953077
 30
0.0
  0
VERTEX
  5
4E0
  8
0
 10
18.5000000000000107
 20
170.6747979539958919
 30
0.0
  0
VERTEX
  5
4E1
  8
0
 10
18.5000000000000107
 20
170.8357699120568043
 30
0.0
  0
VERTEX
  5
4E2
  8
0
 10
18.5000000000000107
 20
170.9964540611836981
 30
0.0
  0
VERTEX
  5
4E3
  8
0
 10
18.5000000000000107
 20
171.1568135281819991
 30
0.0
  0
VERTEX
  5
4E4
  8
0
 10
18.5000000000000107
 20
171.3168114398571049
 30
0.0
  0
VERTEX
  5
4E5
  8
0
 10
18.5000000000000107
 20
171.4764109230146119
 30
0.0
  0
VERTEX
  5
4E6
  8
0
 10
18.5000000000000107
 20
171.6355751044600026
 30
0.0
  0
VERTEX
  5
4E7
  8
0
 10
18.5000000000000107
 20
171.794275141480199
 30
0.0
  0
VERTEX
  5
4E8
  8
0
 10
18.5000000000000107
 20
171.9525400095429859
 30
0.0
  0
VERTEX
  5
4E9
  8
0
 10
18.5000000000000107
 20
172.1104240107933094
 30
0.0
  0
VERTEX
  5
4EA
  8
0
 10
18.5000000000000107
 20
172.2679815547757016
 30
0.0
  0
VERTEX
  5
4EB
  8
0
 10
18.5000000000000107
 20
172.4252670510350072
 30
0.0
  0
VERTEX
  5
4EC
  8
0
 10
18.5000000000000107
 20
172.5823349091155876
 30
0.0
  0
VERTEX
  5
4ED
  8
0
 10
18.5000000000000107
 20
172.7392395385624013
 30
0.0
  0
VERTEX
  5
4EE
  8
0
 10
18.5000000000000107
 20
172.8960353489196962
 30
0.0
  0
VERTEX
  5
4EF
  8
0
 10
18.5000000000000107
 20
173.052776749732601
 30
0.0
  0
SEQEND
  5
4F0
  8
0
  0
ENDSEC
  0
EOF
