  0
SECTION
  2
HEADER
  9
$ACADVER
  1
AC1009
  9
$INSBASE
 10
0.0
 20
0.0
 30
0.0
  9
$EXTMIN
 10
0.0
 20
-2.960436562073669
 30
0.0
  9
$EXTMAX
 10
141.3233287858116967
 20
173.000000000000199
 30
0.0
  9
$LIMMIN
 10
0.0
 20
0.0
  9
$LIMMAX
 10
375.0
 20
270.0
  9
$ORTHOMODE
 70
     0
  9
$REGENMODE
 70
     1
  9
$FILLMODE
 70
     1
  9
$QTEXTMODE
 70
     0
  9
$MIRRTEXT
 70
     0
  9
$DRAGMODE
 70
     2
  9
$LTSCALE
 40
6.0
  9
$OSMODE
 70
    37
  9
$ATTMODE
 70
     1
  9
$TEXTSIZE
 40
0.2
  9
$TRACEWID
 40
0.05
  9
$TEXTSTYLE
  7
STANDARD
  9
$CLAYER
  8
0
  9
$CELTYPE
  6
BYLAYER
  9
$CECOLOR
 62
   256
  9
$DIMSCALE
 40
1.0
  9
$DIMASZ
 40
3.0
  9
$DIMEXO
 40
1.0
  9
$DIMDLI
 40
6.0
  9
$DIMRND
 40
0.0
  9
$DIMDLE
 40
0.0
  9
$DIMEXE
 40
1.0
  9
$DIMTP
 40
495.0
  9
$DIMTM
 40
0.0
  9
$DIMTXT
 40
3.0
  9
$DIMCEN
 40
0.0
  9
$DIMTSZ
 40
0.0
  9
$DIMTOL
 70
     0
  9
$DIMLIM
 70
     0
  9
$DIMTIH
 70
     0
  9
$DIMTOH
 70
     0
  9
$DIMSE1
 70
     0
  9
$DIMSE2
 70
     0
  9
$DIMTAD
 70
     1
  9
$DIMZIN
 70
     0
  9
$DIMBLK
  1

  9
$DIMASO
 70
     0
  9
$DIMSHO
 70
     0
  9
$DIMPOST
  1

  9
$DIMAPOST
  1

  9
$DIMALT
 70
     0
  9
$DIMALTD
 70
     2
  9
$DIMALTF
 40
25.3999999999999986
  9
$DIMLFAC
 40
1.0
  9
$DIMTOFL
 70
     1
  9
$DIMTVP
 40
0.0
  9
$DIMTIX
 70
     1
  9
$DIMSOXD
 70
     0
  9
$DIMSAH
 70
     0
  9
$DIMBLK1
  1

  9
$DIMBLK2
  1

  9
$DIMSTYLE
  2
STANDARD
  9
$DIMCLRD
 70
     0
  9
$DIMCLRE
 70
     0
  9
$DIMCLRT
 70
     4
  9
$DIMTFAC
 40
1.0
  9
$DIMGAP
 40
1.0
  9
$LUNITS
 70
     2
  9
$LUPREC
 70
     4
  9
$SKETCHINC
 40
0.1
  9
$FILLETRAD
 40
0.0
  9
$AUNITS
 70
     0
  9
$AUPREC
 70
     0
  9
$MENU
  1
C:\R13\WIN\SUPPORT\ACAD-I
  9
$ELEVATION
 40
0.0
  9
$PELEVATION
 40
0.0
  9
$THICKNESS
 40
0.0
  9
$LIMCHECK
 70
     0
  9
$BLIPMODE
 70
     0
  9
$CHAMFERA
 40
0.0
  9
$CHAMFERB
 40
0.0
  9
$SKPOLY
 70
     0
  9
$TDCREATE
 40
2451961.7115277778357267
  9
$TDUPDATE
 40
2460580.5715625011362135
  9
$TDINDWG
 40
0.1443549421
  9
$TDUSRTIMER
 40
2456598.105830798856914
  9
$USRTIMER
 70
     1
  9
$ANGBASE
 50
0.0
  9
$ANGDIR
 70
     0
  9
$PDMODE
 70
     0
  9
$PDSIZE
 40
0.0
  9
$PLINEWID
 40
0.0
  9
$COORDS
 70
     1
  9
$SPLFRAME
 70
     0
  9
$SPLINETYPE
 70
     6
  9
$SPLINESEGS
 70
     8
  9
$ATTDIA
 70
     1
  9
$ATTREQ
 70
     1
  9
$HANDLING
 70
     1
  9
$HANDSEED
  5
5BE
  9
$SURFTAB1
 70
     6
  9
$SURFTAB2
 70
     6
  9
$SURFTYPE
 70
     6
  9
$SURFU
 70
     6
  9
$SURFV
 70
     6
  9
$UCSNAME
  2

  9
$UCSORG
 10
0.0
 20
0.0
 30
0.0
  9
$UCSXDIR
 10
1.0
 20
0.0
 30
0.0
  9
$UCSYDIR
 10
0.0
 20
1.0
 30
0.0
  9
$PUCSNAME
  2

  9
$PUCSORG
 10
0.0
 20
0.0
 30
0.0
  9
$PUCSXDIR
 10
1.0
 20
0.0
 30
0.0
  9
$PUCSYDIR
 10
0.0
 20
1.0
 30
0.0
  9
$USERI1
 70
     4
  9
$USERI2
 70
     1
  9
$USERI3
 70
     0
  9
$USERI4
 70
     0
  9
$USERI5
 70
     0
  9
$USERR1
 40
1.0
  9
$USERR2
 40
3.0
  9
$USERR3
 40
3.0
  9
$USERR4
 40
3.0
  9
$USERR5
 40
10.0
  9
$WORLDVIEW
 70
     1
  9
$SHADEDGE
 70
     3
  9
$SHADEDIF
 70
    70
  9
$TILEMODE
 70
     1
  9
$MAXACTVP
 70
    16
  9
$PLIMCHECK
 70
     0
  9
$PEXTMIN
 10
1.0000000000000000E+20
 20
1.0000000000000000E+20
 30
1.0000000000000000E+20
  9
$PEXTMAX
 10
-1.0000000000000000E+20
 20
-1.0000000000000000E+20
 30
-1.0000000000000000E+20
  9
$PLIMMIN
 10
0.0
 20
0.0
  9
$PLIMMAX
 10
12.0
 20
9.0
  9
$UNITMODE
 70
     0
  9
$VISRETAIN
 70
     0
  9
$PLINEGEN
 70
     0
  9
$PSLTSCALE
 70
     0
  0
ENDSEC
  0
SECTION
  2
TABLES
  0
TABLE
  2
VPORT
 70
     1
  0
VPORT
  2
*ACTIVE
 70
     0
 10
0.0
 20
0.0
 11
1.0
 21
1.0
 12
211.3669950738915873
 22
90.0
 13
0.0
 23
0.0
 14
10.0
 24
10.0
 15
10.0
 25
10.0
 16
0.0
 26
0.0
 36
1.0
 17
0.0
 27
0.0
 37
0.0
 40
180.0
 41
2.3485221674876842
 42
50.0
 43
0.0
 44
0.0
 50
0.0
 51
0.0
 71
    16
 72
   100
 73
     1
 74
     0
 75
     0
 76
     0
 77
     0
 78
     0
  0
ENDTAB
  0
TABLE
  2
LTYPE
 70
     3
  0
LTYPE
  2
CONTINUOUS
 70
     0
  3
Solid Line
 72
    65
 73
     0
 40
0.0
  0
LTYPE
  2
CENTER
 70
     0
  3
____ _ ____ _ ____ _ ____ _ ____ _ ____ _ ____
 72
    65
 73
     4
 40
2.0
 49
1.25
 49
-0.25
 49
0.25
 49
-0.25
  0
LTYPE
  2
HIDDEN
 70
     0
  3
Hidden __ __ __ __ __ __ __ __ __ __ __ __ __ __
 72
    65
 73
     2
 40
1.905
 49
1.27
 49
-0.635
  0
ENDTAB
  0
TABLE
  2
LAYER
 70
     4
  0
LAYER
  2
0
 70
     0
 62
     7
  6
CONTINUOUS
  0
LAYER
  2
1
 70
     0
 62
     1
  6
CENTER
  0
LAYER
  2
3
 70
     0
 62
     3
  6
CONTINUOUS
  0
LAYER
  2
2
 70
     0
 62
     2
  6
HIDDEN
  0
ENDTAB
  0
TABLE
  2
STYLE
 70
     2
  0
STYLE
  2
STANDARD
 70
     0
 40
0.0
 41
1.0
 50
0.0
 71
     0
 42
0.2
  3
SIMPLEX
  4
BIGFONT
  0
STYLE
  2
STANDARD1
 70
     0
 40
0.0
 41
1.0
 50
0.0
 71
     0
 42
3.0
  3
txt
  4

  0
ENDTAB
  0
TABLE
  2
VIEW
 70
     0
  0
ENDTAB
  0
TABLE
  2
UCS
 70
     0
  0
ENDTAB
  0
TABLE
  2
APPID
 70
     7
  0
APPID
  2
ACAD
 70
     0
  0
APPID
  2
ACAD_NAV_VCDISPLAY
 70
     0
  0
APPID
  2
ACAECLAYERSTANDARD
 70
     0
  0
APPID
  2
ACCMTRANSPARENCY
 70
     0
  0
APPID
  2
ACAD_EXEMPT_FROM_CAD_STANDARDS
 70
     0
  0
APPID
  2
ACAD_TC
 70
     0
  0
APPID
  2
ACAD_MLEADERVER
 70
     0
  0
ENDTAB
  0
TABLE
  2
DIMSTYLE
 70
     1
  0
DIMSTYLE
  2
STANDARD
 70
     0
  3

  4

  5

  6

  7

 40
1.0
 41
0.18
 42
0.0625
 43
0.38
 44
0.18
 45
0.0
 46
0.0
 47
0.0
 48
0.0
140
0.18
141
0.09
142
0.0
143
25.3999999999999986
144
1.0
145
0.0
146
1.0
147
0.09
 71
     0
 72
     0
 73
     1
 74
     1
 75
     0
 76
     0
 77
     0
 78
     0
170
     0
171
     2
172
     0
173
     0
174
     0
175
     0
176
     0
177
     0
178
     0
  0
ENDTAB
  0
ENDSEC
  0
SECTION
  2
BLOCKS
  0
BLOCK
  8
0
  2
$MODEL_SPACE
 70
     0
 10
0.0
 20
0.0
 30
0.0
  3
$MODEL_SPACE
  1

  0
ENDBLK
  5
F
  8
0
  0
BLOCK
 67
     1
  8
0
  2
$PAPER_SPACE
 70
     0
 10
0.0
 20
0.0
 30
0.0
  3
$PAPER_SPACE
  1

  0
ENDBLK
  5
14
 67
     1
  8
0
  0
ENDSEC
  0
SECTION
  2
ENTITIES
  0
TEXT
  5
59
  8
0
 62
     3
 10
0.0
 20
0.0
 30
0.0
 40
10.0
  1
LSVA40-M10X43-SUS
  7
STANDARD1
  0
LINE
  5
37F
  8
0
 10
33.4999999999999432
 20
73.8556624327026157
 30
0.0
 11
33.2499999999999432
 21
73.9999999999999432
 31
0.0
  0
LINE
  5
380
  8
0
 10
16.7499999999999396
 20
73.9999999999999432
 30
0.0
 11
16.4999999999999396
 21
73.8556624327026157
 31
0.0
  0
LINE
  5
381
  8
0
 10
16.4999999999999396
 20
66.1443375672973843
 30
0.0
 11
16.7499999999999396
 21
65.9999999999999432
 31
0.0
  0
LINE
  5
382
  8
0
 10
33.4999999999999432
 20
66.1443375672973843
 30
0.0
 11
33.4999999999999432
 21
66.1443375672973843
 31
0.0
  0
LINE
  5
383
  8
0
 10
30.5
 20
47.9999999999999432
 30
0.0
 11
30.5
 21
51.0
 31
0.0
  0
LINE
  5
384
  8
0
 10
19.5
 20
51.0
 30
0.0
 11
19.5
 21
47.9999999999999432
 31
0.0
  0
LINE
  5
385
  8
0
 10
30.0
 20
98.079999999999913
 30
0.0
 11
29.0799999999999912
 21
99.0
 31
0.0
  0
LINE
  5
386
  8
0
 10
20.9199999999999591
 20
99.0
 30
0.0
 11
20.0
 21
98.079999999999913
 31
0.0
  0
LINE
  5
387
  8
0
 10
30.0
 20
55.9999999999999432
 30
0.0
 11
30.0
 21
65.9999999999999432
 31
0.0
  0
LINE
  5
388
  8
0
 10
30.0
 20
73.9999999999999432
 30
0.0
 11
30.0
 21
98.079999999999913
 31
0.0
  0
LINE
  5
389
  8
0
 10
20.0
 20
98.079999999999913
 30
0.0
 11
20.0
 21
73.9999999999999432
 31
0.0
  0
LINE
  5
38A
  8
0
 10
20.0
 20
65.9999999999999432
 30
0.0
 11
20.0
 21
56.0
 31
0.0
  0
LINE
  5
38B
  8
0
 10
4.9999999999999707
 20
36.6666666666666288
 30
0.0
 11
4.9999999999999707
 21
31.5999999999999694
 31
0.0
  0
LINE
  5
38C
  8
0
 10
45.0
 20
31.5999999999999694
 30
0.0
 11
45.0
 21
36.6666666666666288
 31
0.0
  0
LINE
  5
38D
  8
0
 10
4.9999999999999707
 20
31.5999999999999694
 30
0.0
 11
5.599999999999965
 21
31.0
 31
0.0
  0
LINE
  5
38E
  8
0
 10
44.3999999999999702
 20
31.0
 30
0.0
 11
45.0
 21
31.5999999999999694
 31
0.0
  0
LINE
  5
38F
  8
0
 10
45.0
 20
36.6666666666666288
 30
0.0
 11
36.1999999999999886
 21
42.3333333333333073
 31
0.0
  0
LINE
  5
390
  8
0
 10
13.7999999999999794
 20
42.3333333333333073
 30
0.0
 11
4.9999999999999707
 21
36.6666666666666288
 31
0.0
  0
LINE
  5
391
  8
0
 10
9.9999999999999716
 20
31.0
 30
0.0
 11
9.9999999999999716
 21
25.0
 31
0.0
  0
LINE
  5
392
  8
0
 10
40.0
 20
25.0
 30
0.0
 11
40.0
 21
31.0
 31
0.0
  0
LINE
  5
393
  8
0
 10
36.1999999999999886
 20
42.3333333333333073
 30
0.0
 11
35.2008137759853525
 21
48.0
 31
0.0
  0
LINE
  5
394
  8
0
 10
14.7991862240146208
 20
48.0
 30
0.0
 11
13.7999999999999794
 21
42.3333333333333073
 31
0.0
  0
LINE
  5
395
  8
0
 10
16.7499999999999396
 20
73.9999999999999432
 30
0.0
 11
33.2499999999999432
 21
73.9999999999999432
 31
0.0
  0
LINE
  5
396
  8
0
 10
24.9999999999999716
 20
73.0964730541477365
 30
0.0
 11
24.9999999999999716
 21
66.9035269458522066
 31
0.0
  0
LINE
  5
397
  8
0
 10
33.4999999999999432
 20
73.8556624327026157
 30
0.0
 11
33.4999999999999432
 21
66.1443375672973843
 31
0.0
  0
LINE
  5
398
  8
0
 10
24.9999999999999716
 20
65.9999999999999432
 30
0.0
 11
16.7499999999999396
 21
65.9999999999999432
 31
0.0
  0
LINE
  5
399
  8
0
 10
33.2499999999999432
 20
65.9999999999999432
 30
0.0
 11
24.9999999999999716
 21
65.9999999999999432
 31
0.0
  0
LINE
  5
39A
  8
0
 10
16.4999999999999396
 20
73.8556624327026157
 30
0.0
 11
16.4999999999999396
 21
66.1443375672973843
 31
0.0
  0
LINE
  5
39B
  8
0
 10
32.0
 20
50.9999999999997726
 30
0.0
 11
32.0
 21
55.9999999999999432
 31
0.0
  0
LINE
  5
39C
  8
0
 10
25.0
 20
51.625214782339242
 30
0.0
 11
25.0
 21
55.3747852176606514
 31
0.0
  0
LINE
  5
39D
  8
0
 10
18.0
 20
51.0
 30
0.0
 11
18.0
 21
55.9999999999999432
 31
0.0
  0
LINE
  5
39E
  8
0
 10
32.0
 20
55.9999999999999432
 30
0.0
 11
18.0
 21
55.9999999999999432
 31
0.0
  0
LINE
  5
39F
  8
0
 10
32.0
 20
50.9999999999997726
 30
0.0
 11
18.0
 21
51.0
 31
0.0
  0
LINE
  5
3A0
  8
0
 10
29.0799999999999912
 20
99.0
 30
0.0
 11
20.9199999999999591
 21
99.0
 31
0.0
  0
LINE
  5
3A1
  8
0
 10
30.0
 20
98.079999999999913
 30
0.0
 11
20.0
 21
98.079999999999913
 31
0.0
  0
LINE
  5
3A2
  8
0
 10
44.3999999999999702
 20
31.0
 30
0.0
 11
5.599999999999965
 21
31.0
 31
0.0
  0
LINE
  5
3A3
  8
0
 10
39.9999999999999716
 20
25.0
 30
0.0
 11
10.0
 21
25.0
 31
0.0
  0
LINE
  5
3A4
  8
0
 10
14.7991862240146208
 20
48.0
 30
0.0
 11
35.2008137759853525
 21
48.0
 31
0.0
  0
LINE
  5
3A5
  8
2
 10
33.9999999999999716
 20
25.0
 30
0.0
 11
33.9999999999999716
 21
31.0
 31
0.0
  0
LINE
  5
3A6
  8
2
 10
15.9999999999999698
 20
31.0
 30
0.0
 11
15.9999999999999698
 21
25.0
 31
0.0
  0
LINE
  5
3A7
  8
0
 10
109.8149545762240962
 20
73.096473054147765
 30
0.0
 11
108.2500000000004974
 21
73.9999999999999716
 31
0.0
  0
LINE
  5
3A8
  8
0
 10
91.7500000000004547
 20
73.9999999999999716
 30
0.0
 11
90.1850454237768844
 21
73.096473054147765
 31
0.0
  0
LINE
  5
3A9
  8
0
 10
90.1850454237768844
 20
66.903526945852235
 30
0.0
 11
91.7500000000004547
 21
65.9999999999999716
 31
0.0
  0
LINE
  5
3AA
  8
0
 10
108.2500000000004974
 20
65.9999999999999716
 30
0.0
 11
109.8149545762240962
 21
66.903526945852235
 31
0.0
  0
LINE
  5
3AB
  8
0
 10
105.5000000000002984
 20
48.0000000000000284
 30
0.0
 11
105.5000000000002984
 21
51.0000000000000284
 31
0.0
  0
LINE
  5
3AC
  8
0
 10
94.5000000000002842
 20
50.9999999999999716
 30
0.0
 11
94.5000000000003411
 21
47.9999999999999716
 31
0.0
  0
LINE
  5
3AD
  8
0
 10
105.000000000000199
 20
56.0000000000000284
 30
0.0
 11
105.000000000000199
 21
65.9999999999999716
 31
0.0
  0
LINE
  5
3AE
  8
0
 10
105.000000000000199
 20
73.9999999999999716
 30
0.0
 11
105.0000000000000995
 21
98.0800000000000125
 31
0.0
  0
LINE
  5
3AF
  8
0
 10
95.0000000000001137
 20
98.0799999999999557
 30
0.0
 11
95.0000000000002274
 21
73.9999999999999716
 31
0.0
  0
LINE
  5
3B0
  8
0
 10
95.0000000000002274
 20
65.9999999999999716
 30
0.0
 11
95.0000000000002842
 21
55.9999999999999716
 31
0.0
  0
LINE
  5
3B1
  8
0
 10
105.0000000000000995
 20
98.0800000000000125
 30
0.0
 11
104.0800000000000978
 21
99.0000000000000284
 31
0.0
  0
LINE
  5
3B2
  8
0
 10
95.9200000000000728
 20
99.0000000000000284
 30
0.0
 11
95.0000000000001137
 21
98.0799999999999557
 31
0.0
  0
LINE
  5
3B3
  8
0
 10
107.0000000000003979
 20
51.0000000000000782
 30
0.0
 11
108.0829037686550009
 21
51.6252147823393273
 31
0.0
  0
LINE
  5
3B4
  8
0
 10
108.0829037686550009
 20
55.3747852176607296
 30
0.0
 11
107.0000000000002984
 21
55.9999999999999716
 31
0.0
  0
LINE
  5
3B5
  8
0
 10
91.9170962313455533
 20
51.6252147823392704
 30
0.0
 11
93.0000000000002842
 21
50.9999999999999716
 31
0.0
  0
LINE
  5
3B6
  8
0
 10
93.0000000000002842
 20
55.9999999999999716
 30
0.0
 11
91.9170962313455107
 21
55.3747852176606727
 31
0.0
  0
LINE
  5
3B7
  8
0
 10
80.0000000000003268
 20
31.599999999999941
 30
0.0
 11
80.6000000000003638
 21
30.9999999999999787
 31
0.0
  0
LINE
  5
3B8
  8
0
 10
119.4000000000003041
 20
31.0000000000000888
 30
0.0
 11
120.0000000000002984
 21
31.6000000000001116
 31
0.0
  0
LINE
  5
3B9
  8
0
 10
80.0000000000003268
 20
36.6666666666666003
 30
0.0
 11
80.0000000000003268
 21
31.599999999999941
 31
0.0
  0
LINE
  5
3BA
  8
0
 10
120.0000000000002984
 20
31.6000000000001116
 30
0.0
 11
120.0000000000002984
 21
36.6666666666667069
 31
0.0
  0
LINE
  5
3BB
  8
0
 10
120.0000000000002984
 20
36.6666666666667069
 30
0.0
 11
111.2000000000002018
 21
42.3333333333333997
 31
0.0
  0
LINE
  5
3BC
  8
0
 10
88.8000000000003666
 20
42.3333333333333428
 30
0.0
 11
80.0000000000003268
 21
36.6666666666666003
 31
0.0
  0
LINE
  5
3BD
  8
0
 10
85.0000000000003268
 20
30.9999999999999787
 30
0.0
 11
85.0000000000003979
 21
24.9999999999999787
 31
0.0
  0
LINE
  5
3BE
  8
0
 10
115.0000000000002984
 20
25.0000000000000888
 30
0.0
 11
115.0000000000002984
 21
31.0000000000000888
 31
0.0
  0
LINE
  5
3BF
  8
0
 10
111.2000000000002018
 20
42.3333333333333997
 30
0.0
 11
110.2008137759855941
 21
48.0000000000000284
 31
0.0
  0
LINE
  5
3C0
  8
0
 10
89.7991862240149317
 20
47.9999999999999716
 30
0.0
 11
88.8000000000003666
 21
42.3333333333333428
 31
0.0
  0
LINE
  5
3C1
  8
0
 10
100.0000000000004974
 20
73.9999999999999716
 30
0.0
 11
108.2500000000004974
 21
73.9999999999999716
 31
0.0
  0
LINE
  5
3C2
  8
0
 10
91.7500000000004547
 20
73.9999999999999716
 30
0.0
 11
100.0000000000004974
 21
73.9999999999999716
 31
0.0
  0
LINE
  5
3C3
  8
0
 10
109.8149545762240962
 20
73.096473054147765
 30
0.0
 11
109.8149545762240962
 21
66.903526945852235
 31
0.0
  0
LINE
  5
3C4
  8
0
 10
104.9074772881123039
 20
73.096473054147765
 30
0.0
 11
104.9074772881123039
 21
66.903526945852235
 31
0.0
  0
LINE
  5
3C5
  8
0
 10
108.2500000000004974
 20
65.9999999999999716
 30
0.0
 11
91.7500000000004547
 21
65.9999999999999716
 31
0.0
  0
LINE
  5
3C6
  8
0
 10
95.0925227118887051
 20
73.096473054147765
 30
0.0
 11
95.0925227118887051
 21
66.903526945852235
 31
0.0
  0
LINE
  5
3C7
  8
0
 10
90.1850454237768844
 20
73.096473054147765
 30
0.0
 11
90.1850454237768844
 21
66.903526945852235
 31
0.0
  0
LINE
  5
3C8
  8
0
 10
108.0829037686550009
 20
51.6252147823393273
 30
0.0
 11
108.0829037686550009
 21
55.3747852176607296
 31
0.0
  0
LINE
  5
3C9
  8
0
 10
104.0414518843275999
 20
51.6252147823393273
 30
0.0
 11
104.0414518843275999
 21
55.3747852176607296
 31
0.0
  0
LINE
  5
3CA
  8
0
 10
95.9585481156728974
 20
51.6252147823393273
 30
0.0
 11
95.9585481156728974
 21
55.3747852176606727
 31
0.0
  0
LINE
  5
3CB
  8
0
 10
107.0000000000002984
 20
55.9999999999999716
 30
0.0
 11
93.0000000000002842
 21
55.9999999999999716
 31
0.0
  0
LINE
  5
3CC
  8
0
 10
107.0000000000003979
 20
51.0000000000000782
 30
0.0
 11
93.0000000000002842
 21
50.9999999999999716
 31
0.0
  0
LINE
  5
3CD
  8
0
 10
91.9170962313455533
 20
51.6252147823392704
 30
0.0
 11
91.9170962313455107
 21
55.3747852176606727
 31
0.0
  0
LINE
  5
3CE
  8
0
 10
105.0000000000000995
 20
98.0800000000000125
 30
0.0
 11
95.0000000000001137
 21
98.0799999999999557
 31
0.0
  0
LINE
  5
3CF
  8
0
 10
104.0800000000000978
 20
99.0000000000000284
 30
0.0
 11
95.9200000000000728
 21
99.0000000000000284
 31
0.0
  0
LINE
  5
3D0
  8
0
 10
119.4000000000003041
 20
31.0000000000000888
 30
0.0
 11
80.6000000000003638
 21
30.9999999999999787
 31
0.0
  0
LINE
  5
3D1
  8
0
 10
115.0000000000002984
 20
25.0000000000000888
 30
0.0
 11
85.0000000000003979
 21
24.9999999999999787
 31
0.0
  0
LINE
  5
3D2
  8
0
 10
110.2008137759855941
 20
48.0000000000000284
 30
0.0
 11
89.7991862240149317
 21
47.9999999999999716
 31
0.0
  0
LINE
  5
3D3
  8
2
 10
109.0000000000002984
 20
25.0000000000000888
 30
0.0
 11
109.0000000000002984
 21
31.0000000000000888
 31
0.0
  0
LINE
  5
3D4
  8
2
 10
91.0000000000003553
 20
30.9999999999999787
 30
0.0
 11
91.0000000000003979
 21
24.9999999999999787
 31
0.0
  0
CIRCLE
  5
3D5
  8
0
 10
25.0
 20
150.000000000000199
 30
0.0
 40
8.2500000000000284
  0
CIRCLE
  5
3DC
  8
0
 10
25.0000000000000284
 20
149.9999999999996874
 30
0.0
 40
4.0799999999999841
  0
CIRCLE
  5
3DD
  8
0
 10
25.0000000000000284
 20
149.9999999999996874
 30
0.0
 40
4.9999999999999432
  0
CIRCLE
  5
3DE
  8
0
 10
25.0000000000000284
 20
150.0
 30
0.0
 40
10.2008137759853099
  0
CIRCLE
  5
3DF
  8
0
 10
25.0000000000000284
 20
150.0
 30
0.0
 40
11.1999999999999407
  0
CIRCLE
  5
3E0
  8
0
 10
25.0000000000000284
 20
150.0
 30
0.0
 40
20.0000000000000604
  0
CIRCLE
  5
3E1
  8
3
 10
25.0
 20
150.000000000000199
 30
0.0
 40
4.1879999999999971
  0
LINE
  5
3E2
  8
1
 10
25.0
 20
173.000000000000199
 30
0.0
 11
25.0
 21
127.000000000000199
 31
0.0
  0
LINE
  5
3E3
  8
1
 10
48.0
 20
150.000000000000199
 30
0.0
 11
2.0
 21
150.000000000000199
 31
0.0
  0
LINE
  5
3E4
  8
0
 10
45.0
 20
36.6666666666666288
 30
0.0
 11
4.9999999999999707
 21
36.6666666666666288
 31
0.0
  0
LINE
  5
3E5
  8
0
 10
13.7999999999999794
 20
42.3333333333333073
 30
0.0
 11
36.1999999999999886
 21
42.3333333333333073
 31
0.0
  0
LINE
  5
3E6
  8
0
 10
80.0000000000003268
 20
36.6666666666666003
 30
0.0
 11
120.0000000000002984
 21
36.6666666666667069
 31
0.0
  0
LINE
  5
3E7
  8
0
 10
111.2000000000002018
 20
42.3333333333333997
 30
0.0
 11
88.8000000000003666
 21
42.3333333333333428
 31
0.0
  0
LINE
  5
3E8
  8
3
 10
20.8119999999998697
 20
73.9999999999999432
 30
0.0
 11
20.8119999999998697
 21
98.8919999999998822
 31
0.0
  0
LINE
  5
3E9
  8
3
 10
29.1880000000000805
 20
73.9999999999998863
 30
0.0
 11
29.1880000000000805
 21
98.8919999999998964
 31
0.0
  0
LINE
  5
3EA
  8
1
 10
24.9999999999998899
 20
21.9999999999997691
 30
0.0
 11
24.9999999999999716
 21
102.0
 31
0.0
  0
LINE
  5
3EB
  8
3
 10
29.1880000000001587
 20
58.0000000000003411
 30
0.0
 11
30.0000000000000604
 21
56.5935747442545107
 31
0.0
  0
LINE
  5
3EC
  8
3
 10
20.8119999999999514
 20
58.0000000000003411
 30
0.0
 11
20.0000000000000604
 21
56.5935747442545107
 31
0.0
  0
LINE
  5
3ED
  8
0
 10
20.0000000000000604
 20
58.0000000000003411
 30
0.0
 11
30.0000000000000604
 21
58.0000000000002203
 31
0.0
  0
LINE
  5
3EE
  8
3
 10
20.8119999999999514
 20
58.0000000000003411
 30
0.0
 11
20.8119999999999514
 21
65.9999999999999432
 31
0.0
  0
LINE
  5
3EF
  8
3
 10
29.1880000000001587
 20
58.0000000000002203
 30
0.0
 11
29.1880000000001587
 21
65.9999999999999432
 31
0.0
  0
ARC
  5
3F0
  8
0
 10
28.5
 20
45.8907592389621684
 30
0.0
 40
10.1092407610377606
 50
69.7438419995831822
 51
110.2561580004168036
  0
ARC
  5
3F1
  8
0
 10
21.4999999999998899
 20
45.8907592389628505
 30
0.0
 40
10.1092407610370802
 50
69.7438419995814343
 51
110.2561580004168036
  0
ARC
  5
3F2
  8
0
 10
21.5000000000000888
 20
61.1092407610374195
 30
0.0
 40
10.1092407610374799
 50
249.7438419995814911
 51
290.256158000415212
  0
ARC
  5
3F3
  8
0
 10
28.4999999999999396
 20
61.1092407610362329
 30
0.0
 40
10.1092407610363395
 50
249.7438419995797005
 51
290.2561580004203279
  0
ARC
  5
3F4
  8
0
 10
29.250000000000199
 20
61.5781644682616616
 30
0.0
 40
12.2773748285086306
 50
69.7470594287522232
 51
110.2529405712494963
  0
ARC
  5
3F5
  8
0
 10
20.7500000000000284
 20
61.5781644682625071
 30
0.0
 40
12.2773748285078295
 50
69.7470594287504895
 51
110.2529405712512016
  0
ARC
  5
3F6
  8
0
 10
20.7499999999998899
 20
78.4218355317375995
 30
0.0
 40
12.2773748285079396
 50
249.7470594287505037
 51
290.2529405712512016
  0
ARC
  5
3F7
  8
0
 10
29.2500000000002309
 20
78.4218355317393616
 30
0.0
 40
12.2773748285096502
 50
249.7470594287505037
 51
290.252940571245972
  0
LINE
  5
3F8
  8
3
 10
95.8119999999999976
 20
73.9999999999999716
 30
0.0
 11
95.8119999999999976
 21
98.8919999999999675
 31
0.0
  0
LINE
  5
3F9
  8
3
 10
104.1880000000002013
 20
73.9999999999999147
 30
0.0
 11
104.1880000000002013
 21
98.8919999999999675
 31
0.0
  0
LINE
  5
3FA
  8
1
 10
100.0
 20
21.9999999999998117
 30
0.0
 11
100.0000000000000995
 21
102.0000000000000995
 31
0.0
  0
LINE
  5
3FB
  8
3
 10
104.1880000000003008
 20
58.0000000000003695
 30
0.0
 11
105.000000000000199
 21
56.5935747442545392
 31
0.0
  0
LINE
  5
3FC
  8
3
 10
95.8120000000001255
 20
58.0000000000003695
 30
0.0
 11
95.0000000000002274
 21
56.5935747442545392
 31
0.0
  0
LINE
  5
3FD
  8
0
 10
95.0000000000002274
 20
58.0000000000003695
 30
0.0
 11
105.000000000000199
 21
58.0000000000002487
 31
0.0
  0
LINE
  5
3FE
  8
3
 10
95.8120000000001255
 20
58.0000000000003695
 30
0.0
 11
95.8120000000001255
 21
65.9999999999999716
 31
0.0
  0
LINE
  5
3FF
  8
3
 10
104.1880000000003008
 20
58.0000000000002487
 30
0.0
 11
104.1880000000003008
 21
65.9999999999999716
 31
0.0
  0
ARC
  5
400
  8
0
 10
93.9378221735091756
 20
52.421848152207609
 30
0.0
 40
3.578151847792356
 50
55.6157525319558275
 51
115.6157525319571988
  0
ARC
  5
401
  8
0
 10
93.9378221735091756
 20
54.5781518477921566
 30
0.0
 40
3.578151847792177
 50
244.3842474680373016
 51
304.3842474680442933
  0
ARC
  5
402
  8
0
 10
100.0000000000002984
 20
42.625214782339043
 30
0.0
 40
13.3747852176609197
 50
72.4120462260073054
 51
107.5879537739943004
  0
ARC
  5
403
  8
0
 10
100.000000000000199
 20
64.3747852176593085
 30
0.0
 40
13.3747852176593298
 50
252.4120462260038948
 51
287.5879537739959915
  0
ARC
  5
404
  8
0
 10
106.0621778264912933
 20
54.5781518477927179
 30
0.0
 40
3.5781518477926371
 50
235.6157525319597141
 51
295.6157525319626984
  0
ARC
  5
405
  8
0
 10
106.062177826491407
 20
52.4218481522073319
 30
0.0
 40
3.5781518477926211
 50
64.3842474680409964
 51
124.3842474680402006
  0
ARC
  5
406
  8
0
 10
92.638784067832816
 20
69.5100591121021978
 30
0.0
 40
4.3454802147785356
 50
55.6209994696009034
 51
115.6209994696104957
  0
ARC
  5
407
  8
0
 10
100.0000000000005969
 20
57.6041246648633489
 30
0.0
 40
16.2510366422667403
 50
72.4234743875137497
 51
107.5765256124861935
  0
ARC
  5
408
  8
0
 10
107.3612159321681929
 20
69.510059112102013
 30
0.0
 40
4.3454802147786591
 50
64.3790005303822994
 51
124.3790005303951034
  0
ARC
  5
409
  8
0
 10
107.3612159321681929
 20
70.4899408878979159
 30
0.0
 40
4.3454802147786458
 50
235.6209994696048113
 51
295.6209994696142189
  0
ARC
  5
40A
  8
0
 10
100.0000000000004974
 20
82.3967656029110032
 30
0.0
 40
16.2518853496421691
 50
252.4244221876458028
 51
287.5755778123543109
  0
ARC
  5
40B
  8
0
 10
92.638784067832816
 20
70.4899408878979727
 30
0.0
 40
4.3454802147787079
 50
244.3790005303895043
 51
304.3790005303952171
  0
POLYLINE
  5
412
  8
0
 66
     1
 10
0.0
 20
0.0
 30
0.0
  0
VERTEX
  5
498
  8
0
 10
16.5000000000000284
 20
145.0925227118883925
 30
0.0
  0
VERTEX
  5
499
  8
0
 10
16.6771676232151798
 20
144.9902349369334047
 30
0.0
  0
VERTEX
  5
49A
  8
0
 10
16.8544225893293387
 20
144.8878967345322053
 30
0.0
  0
VERTEX
  5
49B
  8
0
 10
17.0318522412414417
 20
144.785457677238611
 30
0.0
  0
VERTEX
  5
49C
  8
0
 10
17.2095439218504715
 20
144.6828673376062113
 30
0.0
  0
VERTEX
  5
49D
  8
0
 10
17.3875849740554109
 20
144.5800752881889082
 30
0.0
  0
VERTEX
  5
49E
  8
0
 10
17.5660627407552496
 20
144.477031101540291
 30
0.0
  0
VERTEX
  5
49F
  8
0
 10
17.7450549040564205
 20
144.373689927875489
 30
0.0
  0
VERTEX
  5
4A0
  8
0
 10
17.9245632450957508
 20
144.2700507388547067
 30
0.0
  0
VERTEX
  5
4A1
  8
0
 10
18.1045536809735701
 20
144.1661332122490933
 30
0.0
  0
VERTEX
  5
4A2
  8
0
 10
18.2849919160972014
 20
144.061957148628295
 30
0.0
  0
VERTEX
  5
4A3
  8
0
 10
18.4658436548740816
 20
143.9575423485621002
 30
0.0
  0
VERTEX
  5
4A4
  8
0
 10
18.6470746017114593
 20
143.852908612620098
 30
0.0
  0
VERTEX
  5
4A5
  8
0
 10
18.8286508219196094
 20
143.7480755330045099
 30
0.0
  0
VERTEX
  5
4A6
  8
0
 10
19.0105446351016916
 20
143.6430590909997989
 30
0.0
  0
VERTEX
  5
4A7
  8
0
 10
19.192733653451711
 20
143.5378722122121076
 30
0.0
  0
VERTEX
  5
4A8
  8
0
 10
19.3751956560436085
 20
143.4325277258988081
 30
0.0
  0
VERTEX
  5
4A9
  8
0
 10
19.5579084219514208
 20
143.3270384613174997
 30
0.0
  0
VERTEX
  5
4AA
  8
0
 10
19.740849730249149
 20
143.2214172477258955
 30
0.0
  0
VERTEX
  5
4AB
  8
0
 10
19.9239973296826918
 20
143.1156769318914996
 30
0.0
  0
VERTEX
  5
4AC
  8
0
 10
20.1073231271533714
 20
143.0098337333724032
 30
0.0
  0
VERTEX
  5
4AD
  8
0
 10
20.2907862730776003
 20
142.9039112366866959
 30
0.0
  0
VERTEX
  5
4AE
  8
0
 10
20.474344234031399
 20
142.79793399851809
 30
0.0
  0
VERTEX
  5
4AF
  8
0
 10
20.6579544765908416
 20
142.6919265755504114
 30
0.0
  0
VERTEX
  5
4B0
  8
0
 10
20.8415744673318706
 20
142.585913524467486
 30
0.0
  0
VERTEX
  5
4B1
  8
0
 10
21.0251616728305599
 20
142.4799194019531114
 30
0.0
  0
VERTEX
  5
4B2
  8
0
 10
21.2086755067638499
 20
142.3739676405317027
 30
0.0
  0
VERTEX
  5
4B3
  8
0
 10
21.3920875700165709
 20
142.2680746364401045
 30
0.0
  0
VERTEX
  5
4B4
  8
0
 10
21.5753741689830214
 20
142.162254069188009
 30
0.0
  0
VERTEX
  5
4B5
  8
0
 10
21.7585116201193216
 20
142.0565196124757108
 30
0.0
  0
VERTEX
  5
4B6
  8
0
 10
21.9414762398816414
 20
141.9508849400037889
 30
0.0
  0
VERTEX
  5
4B7
  8
0
 10
22.1242438419033398
 20
141.8453640157773918
 30
0.0
  0
VERTEX
  5
4B8
  8
0
 10
22.3067744682894293
 20
141.739979909498004
 30
0.0
  0
VERTEX
  5
4B9
  8
0
 10
22.489009623844801
 20
141.6347663933823071
 30
0.0
  0
VERTEX
  5
4BA
  8
0
 10
22.6708897528660316
 20
141.5297578519316914
 30
0.0
  0
VERTEX
  5
4BB
  8
0
 10
22.8523552996498189
 20
141.424988669647405
 30
0.0
  0
VERTEX
  5
4BC
  8
0
 10
23.0333467087063504
 20
141.3204932309076014
 30
0.0
  0
VERTEX
  5
4BD
  8
0
 10
23.2138236573894403
 20
141.2162948160028861
 30
0.0
  0
VERTEX
  5
4BE
  8
0
 10
23.3938176672616009
 20
141.1123752259507
 30
0.0
  0
VERTEX
  5
4BF
  8
0
 10
23.5733770322039504
 20
141.0087065782657021
 30
0.0
  0
VERTEX
  5
4C0
  8
0
 10
23.7525500460975501
 20
140.9052609904626934
 30
0.0
  0
VERTEX
  5
4C1
  8
0
 10
23.9313850028235287
 20
140.8020105800565034
 30
0.0
  0
VERTEX
  5
4C2
  8
0
 10
24.1099301962629511
 20
140.6989274645617058
 30
0.0
  0
VERTEX
  5
4C3
  8
0
 10
24.2882339202969
 20
140.5959837614931871
 30
0.0
  0
VERTEX
  5
4C4
  8
0
 10
24.4663444688065113
 20
140.4931515883656914
 30
0.0
  0
VERTEX
  5
4C5
  8
0
 10
24.6443101356728391
 20
140.3904030626939061
 30
0.0
  0
VERTEX
  5
4C6
  8
0
 10
24.8221792147769804
 20
140.2877103019926039
 30
0.0
  0
VERTEX
  5
4C7
  8
0
 10
25.0000000000000604
 20
140.1850454237765859
 30
0.0
  0
SEQEND
  5
4C8
  8
0
  0
POLYLINE
  5
413
  8
0
 66
     1
 10
0.0
 20
0.0
 30
0.0
  0
VERTEX
  5
4C9
  8
0
 10
33.5000000000000284
 20
145.0925227118883925
 30
0.0
  0
VERTEX
  5
4CA
  8
0
 10
33.3228323767848735
 20
144.9902349369334047
 30
0.0
  0
VERTEX
  5
4CB
  8
0
 10
33.1455774106707111
 20
144.8878967345322053
 30
0.0
  0
VERTEX
  5
4CC
  8
0
 10
32.9681477587586187
 20
144.785457677238611
 30
0.0
  0
VERTEX
  5
4CD
  8
0
 10
32.7904560781495888
 20
144.6828673376062113
 30
0.0
  0
VERTEX
  5
4CE
  8
0
 10
32.6124150259446424
 20
144.5800752881889082
 30
0.0
  0
VERTEX
  5
4CF
  8
0
 10
32.4339372592448001
 20
144.477031101540291
 30
0.0
  0
VERTEX
  5
4D0
  8
0
 10
32.2549450959436399
 20
144.373689927875489
 30
0.0
  0
VERTEX
  5
4D1
  8
0
 10
32.0754367549043025
 20
144.2700507388547067
 30
0.0
  0
VERTEX
  5
4D2
  8
0
 10
31.8954463190264903
 20
144.1661332122490933
 30
0.0
  0
VERTEX
  5
4D3
  8
0
 10
31.715008083902859
 20
144.061957148628295
 30
0.0
  0
VERTEX
  5
4D4
  8
0
 10
31.5341563451259788
 20
143.9575423485621002
 30
0.0
  0
VERTEX
  5
4D5
  8
0
 10
31.3529253982885905
 20
143.852908612620098
 30
0.0
  0
VERTEX
  5
4D6
  8
0
 10
31.171349178080451
 20
143.7480755330045099
 30
0.0
  0
VERTEX
  5
4D7
  8
0
 10
30.9894553648983617
 20
143.6430590909997989
 30
0.0
  0
VERTEX
  5
4D8
  8
0
 10
30.8072663465483494
 20
143.5378722122121076
 30
0.0
  0
VERTEX
  5
4D9
  8
0
 10
30.6248043439564412
 20
143.4325277258988081
 30
0.0
  0
VERTEX
  5
4DA
  8
0
 10
30.442091578048629
 20
143.3270384613174997
 30
0.0
  0
VERTEX
  5
4DB
  8
0
 10
30.2591502697509007
 20
143.2214172477258955
 30
0.0
  0
VERTEX
  5
4DC
  8
0
 10
30.0760026703173686
 20
143.1156769318914996
 30
0.0
  0
VERTEX
  5
4DD
  8
0
 10
29.892676872846689
 20
143.0098337333724032
 30
0.0
  0
VERTEX
  5
4DE
  8
0
 10
29.7092137269224601
 20
142.9039112366866959
 30
0.0
  0
VERTEX
  5
4DF
  8
0
 10
29.5256557659686507
 20
142.79793399851809
 30
0.0
  0
VERTEX
  5
4E0
  8
0
 10
29.3420455234092117
 20
142.6919265755504114
 30
0.0
  0
VERTEX
  5
4E1
  8
0
 10
29.1584255326681898
 20
142.585913524467486
 30
0.0
  0
VERTEX
  5
4E2
  8
0
 10
28.9748383271694898
 20
142.4799194019531114
 30
0.0
  0
VERTEX
  5
4E3
  8
0
 10
28.7913244932361998
 20
142.3739676405317027
 30
0.0
  0
VERTEX
  5
4E4
  8
0
 10
28.6079124299834895
 20
142.2680746364401045
 30
0.0
  0
VERTEX
  5
4E5
  8
0
 10
28.424625831017039
 20
142.162254069188009
 30
0.0
  0
VERTEX
  5
4E6
  8
0
 10
28.2414883798807388
 20
142.0565196124757108
 30
0.0
  0
VERTEX
  5
4E7
  8
0
 10
28.058523760118419
 20
141.9508849400037889
 30
0.0
  0
VERTEX
  5
4E8
  8
0
 10
27.8757561580967206
 20
141.8453640157773918
 30
0.0
  0
VERTEX
  5
4E9
  8
0
 10
27.6932255317106311
 20
141.7399799094980892
 30
0.0
  0
VERTEX
  5
4EA
  8
0
 10
27.5109903761552701
 20
141.6347663933823924
 30
0.0
  0
VERTEX
  5
4EB
  8
0
 10
27.3291102471340217
 20
141.5297578519316914
 30
0.0
  0
VERTEX
  5
4EC
  8
0
 10
27.1476447003502415
 20
141.424988669647405
 30
0.0
  0
VERTEX
  5
4ED
  8
0
 10
26.96665329129371
 20
141.3204932309076014
 30
0.0
  0
VERTEX
  5
4EE
  8
0
 10
26.7861763426106201
 20
141.2162948160028861
 30
0.0
  0
VERTEX
  5
4EF
  8
0
 10
26.6061823327384595
 20
141.1123752259507
 30
0.0
  0
VERTEX
  5
4F0
  8
0
 10
26.42662296779611
 20
141.0087065782657021
 30
0.0
  0
VERTEX
  5
4F1
  8
0
 10
26.2474499539024997
 20
140.9052609904628071
 30
0.0
  0
VERTEX
  5
4F2
  8
0
 10
26.0686149971765211
 20
140.8020105800565034
 30
0.0
  0
VERTEX
  5
4F3
  8
0
 10
25.8900698037371093
 20
140.6989274645617058
 30
0.0
  0
VERTEX
  5
4F4
  8
0
 10
25.7117660797031284
 20
140.5959837614931871
 30
0.0
  0
VERTEX
  5
4F5
  8
0
 10
25.5336555311935491
 20
140.4931515883656914
 30
0.0
  0
VERTEX
  5
4F6
  8
0
 10
25.3556898643272213
 20
140.3904030626939061
 30
0.0
  0
VERTEX
  5
4F7
  8
0
 10
25.17782078522308
 20
140.2877103019926039
 30
0.0
  0
VERTEX
  5
4F8
  8
0
 10
25.0000000000000284
 20
140.1850454237765859
 30
0.0
  0
SEQEND
  5
4F9
  8
0
  0
POLYLINE
  5
414
  8
0
 66
     1
 10
0.0
 20
0.0
 30
0.0
  0
VERTEX
  5
4FA
  8
0
 10
33.5000000000000284
 20
145.0925227118883925
 30
0.0
  0
VERTEX
  5
4FB
  8
0
 10
33.5000000000000284
 20
145.2970256942458889
 30
0.0
  0
VERTEX
  5
4FC
  8
0
 10
33.5000000000000284
 20
145.5016384518474126
 30
0.0
  0
VERTEX
  5
4FD
  8
0
 10
33.5000000000000284
 20
145.7064707599371047
 30
0.0
  0
VERTEX
  5
4FE
  8
0
 10
33.5000000000000284
 20
145.9116323937589073
 30
0.0
  0
VERTEX
  5
4FF
  8
0
 10
33.5000000000000284
 20
146.1172331285569044
 30
0.0
  0
VERTEX
  5
500
  8
0
 10
33.5000000000000284
 20
146.323382370486712
 30
0.0
  0
VERTEX
  5
501
  8
0
 10
33.5000000000000284
 20
146.5301424018902878
 30
0.0
  0
VERTEX
  5
502
  8
0
 10
33.5000000000000284
 20
146.737482627450305
 30
0.0
  0
VERTEX
  5
503
  8
0
 10
33.5000000000000284
 20
146.9453615890560059
 30
0.0
  0
VERTEX
  5
504
  8
0
 10
33.5000000000000284
 20
147.1537378285964053
 30
0.0
  0
VERTEX
  5
505
  8
0
 10
33.5000000000000284
 20
147.3625698879606887
 30
0.0
  0
VERTEX
  5
506
  8
0
 10
33.5000000000000284
 20
147.5718164802476906
 30
0.0
  0
VERTEX
  5
507
  8
0
 10
33.5000000000000284
 20
147.7814448489829999
 30
0.0
  0
VERTEX
  5
508
  8
0
 10
33.5000000000000284
 20
147.9914345449629138
 30
0.0
  0
VERTEX
  5
509
  8
0
 10
33.5000000000000284
 20
148.2017660775223078
 30
0.0
  0
VERTEX
  5
50A
  8
0
 10
33.5000000000000284
 20
148.4124199559958015
 30
0.0
  0
VERTEX
  5
50B
  8
0
 10
33.5000000000000284
 20
148.6233766897184125
 30
0.0
  0
VERTEX
  5
50C
  8
0
 10
33.5000000000000284
 20
148.8346162632309984
 30
0.0
  0
VERTEX
  5
50D
  8
0
 10
33.5000000000000284
 20
149.0461052060246061
 30
0.0
  0
VERTEX
  5
50E
  8
0
 10
33.5000000000000284
 20
149.2577957750459063
 30
0.0
  0
VERTEX
  5
50F
  8
0
 10
33.5000000000000284
 20
149.4696395387705081
 30
0.0
  0
VERTEX
  5
510
  8
0
 10
33.5000000000000284
 20
149.6815880656741058
 30
0.0
  0
VERTEX
  5
511
  8
0
 10
33.5000000000000284
 20
149.8935929242327063
 30
0.0
  0
VERTEX
  5
512
  8
0
 10
33.5000000000000284
 20
150.1056059335878103
 30
0.0
  0
VERTEX
  5
513
  8
0
 10
33.5000000000000284
 20
150.3175863350265899
 30
0.0
  0
VERTEX
  5
514
  8
0
 10
33.5000000000000284
 20
150.5295018489815106
 30
0.0
  0
VERTEX
  5
515
  8
0
 10
33.5000000000000284
 20
150.7413206591263872
 30
0.0
  0
VERTEX
  5
516
  8
0
 10
33.5000000000000284
 20
150.9530109491352903
 30
0.0
  0
VERTEX
  5
517
  8
0
 10
33.5000000000000284
 20
151.1645409026818925
 30
0.0
  0
VERTEX
  5
518
  8
0
 10
33.5000000000000284
 20
151.37587850221351
 30
0.0
  0
VERTEX
  5
519
  8
0
 10
33.5000000000000284
 20
151.58698478158081
 30
0.0
  0
VERTEX
  5
51A
  8
0
 10
33.5000000000000284
 20
151.7978122235975889
 30
0.0
  0
VERTEX
  5
51B
  8
0
 10
33.5000000000000284
 20
152.0083127850300002
 30
0.0
  0
VERTEX
  5
51C
  8
0
 10
33.5000000000000284
 20
152.2184384226445104
 30
0.0
  0
VERTEX
  5
51D
  8
0
 10
33.5000000000000284
 20
152.4281410932073868
 30
0.0
  0
VERTEX
  5
51E
  8
0
 10
33.5000000000000284
 20
152.6373727534850104
 30
0.0
  0
VERTEX
  5
51F
  8
0
 10
33.5000000000000284
 20
152.8460853602437055
 30
0.0
  0
VERTEX
  5
520
  8
0
 10
33.5000000000000284
 20
153.054230870249711
 30
0.0
  0
VERTEX
  5
521
  8
0
 10
33.5000000000000284
 20
153.2617698347006865
 30
0.0
  0
VERTEX
  5
522
  8
0
 10
33.5000000000000284
 20
153.4687362833304007
 30
0.0
  0
VERTEX
  5
523
  8
0
 10
33.5000000000000284
 20
153.6752015251788919
 30
0.0
  0
VERTEX
  5
524
  8
0
 10
33.5000000000000284
 20
153.881237161214699
 30
0.0
  0
VERTEX
  5
525
  8
0
 10
33.5000000000000284
 20
154.0869147924067875
 30
0.0
  0
VERTEX
  5
526
  8
0
 10
33.5000000000000284
 20
154.2923060197238101
 30
0.0
  0
VERTEX
  5
527
  8
0
 10
33.5000000000000284
 20
154.4974824441345049
 30
0.0
  0
VERTEX
  5
528
  8
0
 10
33.5000000000000284
 20
154.70251566660761
 30
0.0
  0
VERTEX
  5
529
  8
0
 10
33.5000000000000284
 20
154.9074772881120055
 30
0.0
  0
SEQEND
  5
52A
  8
0
  0
POLYLINE
  5
415
  8
0
 66
     1
 10
0.0
 20
0.0
 30
0.0
  0
VERTEX
  5
52B
  8
0
 10
33.5000000000000284
 20
154.9074772881120055
 30
0.0
  0
VERTEX
  5
52C
  8
0
 10
33.3228323767848735
 20
155.0097650630669079
 30
0.0
  0
VERTEX
  5
52D
  8
0
 10
33.1455774106707111
 20
155.1121032654681073
 30
0.0
  0
VERTEX
  5
52E
  8
0
 10
32.9681477587586187
 20
155.2145423227617869
 30
0.0
  0
VERTEX
  5
52F
  8
0
 10
32.7904560781495888
 20
155.3171326623941866
 30
0.0
  0
VERTEX
  5
530
  8
0
 10
32.6124150259446424
 20
155.4199247118114897
 30
0.0
  0
VERTEX
  5
531
  8
0
 10
32.4339372592448001
 20
155.5229688984599932
 30
0.0
  0
VERTEX
  5
532
  8
0
 10
32.2549450959436399
 20
155.6263100721247952
 30
0.0
  0
VERTEX
  5
533
  8
0
 10
32.0754367549043309
 20
155.729949261145606
 30
0.0
  0
VERTEX
  5
534
  8
0
 10
31.8954463190264903
 20
155.8338667877513046
 30
0.0
  0
VERTEX
  5
535
  8
0
 10
31.715008083902859
 20
155.9380428513719892
 30
0.0
  0
VERTEX
  5
536
  8
0
 10
31.5341563451260107
 20
156.0424576514382125
 30
0.0
  0
VERTEX
  5
537
  8
0
 10
31.3529253982885905
 20
156.1470913873802999
 30
0.0
  0
VERTEX
  5
538
  8
0
 10
31.171349178080451
 20
156.251924466995888
 30
0.0
  0
VERTEX
  5
539
  8
0
 10
30.9894553648983617
 20
156.3569409090005138
 30
0.0
  0
VERTEX
  5
53A
  8
0
 10
30.8072663465483494
 20
156.4621277877882903
 30
0.0
  0
VERTEX
  5
53B
  8
0
 10
30.6248043439564412
 20
156.5674722741015898
 30
0.0
  0
VERTEX
  5
53C
  8
0
 10
30.442091578048629
 20
156.6729615386828982
 30
0.0
  0
VERTEX
  5
53D
  8
0
 10
30.2591502697509007
 20
156.7785827522745024
 30
0.0
  0
VERTEX
  5
53E
  8
0
 10
30.0760026703173686
 20
156.884323068108813
 30
0.0
  0
VERTEX
  5
53F
  8
0
 10
29.892676872846689
 20
156.9901662666279094
 30
0.0
  0
VERTEX
  5
540
  8
0
 10
29.7092137269224601
 20
157.096088763313702
 30
0.0
  0
VERTEX
  5
541
  8
0
 10
29.5256557659686507
 20
157.2020660014821942
 30
0.0
  0
VERTEX
  5
542
  8
0
 10
29.3420455234092117
 20
157.3080734244499013
 30
0.0
  0
VERTEX
  5
543
  8
0
 10
29.1584255326681898
 20
157.4140864755327982
 30
0.0
  0
VERTEX
  5
544
  8
0
 10
28.9748383271694898
 20
157.5200805980472865
 30
0.0
  0
VERTEX
  5
545
  8
0
 10
28.7913244932362318
 20
157.6260323594686099
 30
0.0
  0
VERTEX
  5
546
  8
0
 10
28.6079124299835108
 20
157.7319253635602081
 30
0.0
  0
VERTEX
  5
547
  8
0
 10
28.424625831017071
 20
157.8377459308123036
 30
0.0
  0
VERTEX
  5
548
  8
0
 10
28.2414883798807601
 20
157.9434803875246018
 30
0.0
  0
VERTEX
  5
549
  8
0
 10
28.058523760118451
 20
158.049115059996609
 30
0.0
  0
VERTEX
  5
54A
  8
0
 10
27.875756158096749
 20
158.1546359842230061
 30
0.0
  0
VERTEX
  5
54B
  8
0
 10
27.6932255317106488
 20
158.2600200905023087
 30
0.0
  0
VERTEX
  5
54C
  8
0
 10
27.5109903761552914
 20
158.3652336066180055
 30
0.0
  0
VERTEX
  5
54D
  8
0
 10
27.3291102471340608
 20
158.4702421480687065
 30
0.0
  0
VERTEX
  5
54E
  8
0
 10
27.1476447003502699
 20
158.5750113303529076
 30
0.0
  0
VERTEX
  5
54F
  8
0
 10
26.96665329129371
 20
158.6795067690927112
 30
0.0
  0
VERTEX
  5
550
  8
0
 10
26.7861763426106201
 20
158.7837051839973981
 30
0.0
  0
VERTEX
  5
551
  8
0
 10
26.6061823327384595
 20
158.8876247740496126
 30
0.0
  0
VERTEX
  5
552
  8
0
 10
26.42662296779611
 20
158.9912934217346958
 30
0.0
  0
VERTEX
  5
553
  8
0
 10
26.2474499539024997
 20
159.0947390095375908
 30
0.0
  0
VERTEX
  5
554
  8
0
 10
26.0686149971765211
 20
159.1979894199438945
 30
0.0
  0
VERTEX
  5
555
  8
0
 10
25.8900698037371093
 20
159.3010725354386068
 30
0.0
  0
VERTEX
  5
556
  8
0
 10
25.7117660797031284
 20
159.4040162385070971
 30
0.0
  0
VERTEX
  5
557
  8
0
 10
25.5336555311935207
 20
159.5068484116345928
 30
0.0
  0
VERTEX
  5
558
  8
0
 10
25.3556898643271893
 20
159.6095969373064065
 30
0.0
  0
VERTEX
  5
559
  8
0
 10
25.1778207852230516
 20
159.7122896980077087
 30
0.0
  0
VERTEX
  5
55A
  8
0
 10
24.9999999999999716
 20
159.814954576223812
 30
0.0
  0
SEQEND
  5
55B
  8
0
  0
POLYLINE
  5
416
  8
0
 66
     1
 10
0.0
 20
0.0
 30
0.0
  0
VERTEX
  5
55C
  8
0
 10
16.5000000000000284
 20
154.9074772881120055
 30
0.0
  0
VERTEX
  5
55D
  8
0
 10
16.6771676232151798
 20
155.0097650630669079
 30
0.0
  0
VERTEX
  5
55E
  8
0
 10
16.8544225893293387
 20
155.1121032654681073
 30
0.0
  0
VERTEX
  5
55F
  8
0
 10
17.0318522412414417
 20
155.2145423227617869
 30
0.0
  0
VERTEX
  5
560
  8
0
 10
17.2095439218504715
 20
155.3171326623941866
 30
0.0
  0
VERTEX
  5
561
  8
0
 10
17.3875849740554109
 20
155.4199247118114897
 30
0.0
  0
VERTEX
  5
562
  8
0
 10
17.5660627407552496
 20
155.5229688984599932
 30
0.0
  0
VERTEX
  5
563
  8
0
 10
17.7450549040564205
 20
155.6263100721247952
 30
0.0
  0
VERTEX
  5
564
  8
0
 10
17.9245632450957189
 20
155.729949261145606
 30
0.0
  0
VERTEX
  5
565
  8
0
 10
18.1045536809735701
 20
155.8338667877513046
 30
0.0
  0
VERTEX
  5
566
  8
0
 10
18.2849919160972014
 20
155.9380428513719892
 30
0.0
  0
VERTEX
  5
567
  8
0
 10
18.4658436548740497
 20
156.0424576514382125
 30
0.0
  0
VERTEX
  5
568
  8
0
 10
18.6470746017114593
 20
156.1470913873802999
 30
0.0
  0
VERTEX
  5
569
  8
0
 10
18.8286508219196094
 20
156.251924466995888
 30
0.0
  0
VERTEX
  5
56A
  8
0
 10
19.0105446351016916
 20
156.3569409090005138
 30
0.0
  0
VERTEX
  5
56B
  8
0
 10
19.192733653451711
 20
156.4621277877882903
 30
0.0
  0
VERTEX
  5
56C
  8
0
 10
19.3751956560436085
 20
156.5674722741015898
 30
0.0
  0
VERTEX
  5
56D
  8
0
 10
19.5579084219514208
 20
156.6729615386828982
 30
0.0
  0
VERTEX
  5
56E
  8
0
 10
19.740849730249149
 20
156.7785827522745024
 30
0.0
  0
VERTEX
  5
56F
  8
0
 10
19.9239973296826918
 20
156.884323068108813
 30
0.0
  0
VERTEX
  5
570
  8
0
 10
20.1073231271533714
 20
156.9901662666279094
 30
0.0
  0
VERTEX
  5
571
  8
0
 10
20.2907862730776003
 20
157.096088763313702
 30
0.0
  0
VERTEX
  5
572
  8
0
 10
20.474344234031399
 20
157.2020660014821942
 30
0.0
  0
VERTEX
  5
573
  8
0
 10
20.6579544765908416
 20
157.3080734244499013
 30
0.0
  0
VERTEX
  5
574
  8
0
 10
20.8415744673318706
 20
157.4140864755327982
 30
0.0
  0
VERTEX
  5
575
  8
0
 10
21.0251616728305599
 20
157.5200805980472865
 30
0.0
  0
VERTEX
  5
576
  8
0
 10
21.2086755067638286
 20
157.6260323594686099
 30
0.0
  0
VERTEX
  5
577
  8
0
 10
21.3920875700165389
 20
157.7319253635602081
 30
0.0
  0
VERTEX
  5
578
  8
0
 10
21.5753741689829894
 20
157.8377459308123036
 30
0.0
  0
VERTEX
  5
579
  8
0
 10
21.7585116201192896
 20
157.9434803875246018
 30
0.0
  0
VERTEX
  5
57A
  8
0
 10
21.9414762398816094
 20
158.049115059996609
 30
0.0
  0
VERTEX
  5
57B
  8
0
 10
22.1242438419033114
 20
158.1546359842230061
 30
0.0
  0
VERTEX
  5
57C
  8
0
 10
22.3067744682894009
 20
158.2600200905023087
 30
0.0
  0
VERTEX
  5
57D
  8
0
 10
22.4890096238447583
 20
158.3652336066180055
 30
0.0
  0
VERTEX
  5
57E
  8
0
 10
22.6708897528660103
 20
158.4702421480687065
 30
0.0
  0
VERTEX
  5
57F
  8
0
 10
22.8523552996497905
 20
158.5750113303529076
 30
0.0
  0
VERTEX
  5
580
  8
0
 10
23.0333467087063504
 20
158.6795067690927112
 30
0.0
  0
VERTEX
  5
581
  8
0
 10
23.2138236573894403
 20
158.7837051839973981
 30
0.0
  0
VERTEX
  5
582
  8
0
 10
23.3938176672616009
 20
158.8876247740496126
 30
0.0
  0
VERTEX
  5
583
  8
0
 10
23.5733770322039504
 20
158.9912934217346958
 30
0.0
  0
VERTEX
  5
584
  8
0
 10
23.7525500460975501
 20
159.0947390095375908
 30
0.0
  0
VERTEX
  5
585
  8
0
 10
23.9313850028235287
 20
159.1979894199438945
 30
0.0
  0
VERTEX
  5
586
  8
0
 10
24.1099301962629511
 20
159.3010725354386068
 30
0.0
  0
VERTEX
  5
587
  8
0
 10
24.2882339202969
 20
159.4040162385070971
 30
0.0
  0
VERTEX
  5
588
  8
0
 10
24.4663444688065113
 20
159.5068484116345928
 30
0.0
  0
VERTEX
  5
589
  8
0
 10
24.6443101356728391
 20
159.6095969373064065
 30
0.0
  0
VERTEX
  5
58A
  8
0
 10
24.8221792147769804
 20
159.7122896980077087
 30
0.0
  0
VERTEX
  5
58B
  8
0
 10
25.0000000000000284
 20
159.814954576223812
 30
0.0
  0
SEQEND
  5
58C
  8
0
  0
POLYLINE
  5
417
  8
0
 66
     1
 10
0.0
 20
0.0
 30
0.0
  0
VERTEX
  5
58D
  8
0
 10
16.5000000000000284
 20
145.0925227118883925
 30
0.0
  0
VERTEX
  5
58E
  8
0
 10
16.5000000000000284
 20
145.2970256942458889
 30
0.0
  0
VERTEX
  5
58F
  8
0
 10
16.5000000000000284
 20
145.5016384518474126
 30
0.0
  0
VERTEX
  5
590
  8
0
 10
16.5000000000000284
 20
145.7064707599371047
 30
0.0
  0
VERTEX
  5
591
  8
0
 10
16.5000000000000284
 20
145.9116323937589073
 30
0.0
  0
VERTEX
  5
592
  8
0
 10
16.5000000000000284
 20
146.1172331285569044
 30
0.0
  0
VERTEX
  5
593
  8
0
 10
16.5000000000000284
 20
146.323382370486712
 30
0.0
  0
VERTEX
  5
594
  8
0
 10
16.5000000000000284
 20
146.5301424018902878
 30
0.0
  0
VERTEX
  5
595
  8
0
 10
16.5000000000000284
 20
146.737482627450305
 30
0.0
  0
VERTEX
  5
596
  8
0
 10
16.5000000000000284
 20
146.9453615890560059
 30
0.0
  0
VERTEX
  5
597
  8
0
 10
16.5000000000000284
 20
147.1537378285964053
 30
0.0
  0
VERTEX
  5
598
  8
0
 10
16.5000000000000284
 20
147.3625698879606887
 30
0.0
  0
VERTEX
  5
599
  8
0
 10
16.5000000000000284
 20
147.5718164802476906
 30
0.0
  0
VERTEX
  5
59A
  8
0
 10
16.5000000000000284
 20
147.7814448489829999
 30
0.0
  0
VERTEX
  5
59B
  8
0
 10
16.5000000000000284
 20
147.9914345449629138
 30
0.0
  0
VERTEX
  5
59C
  8
0
 10
16.5000000000000284
 20
148.2017660775223078
 30
0.0
  0
VERTEX
  5
59D
  8
0
 10
16.5000000000000284
 20
148.4124199559958868
 30
0.0
  0
VERTEX
  5
59E
  8
0
 10
16.5000000000000284
 20
148.6233766897184125
 30
0.0
  0
VERTEX
  5
59F
  8
0
 10
16.5000000000000284
 20
148.8346162632309984
 30
0.0
  0
VERTEX
  5
5A0
  8
0
 10
16.5000000000000284
 20
149.0461052060246061
 30
0.0
  0
VERTEX
  5
5A1
  8
0
 10
16.5000000000000284
 20
149.2577957750459063
 30
0.0
  0
VERTEX
  5
5A2
  8
0
 10
16.5000000000000284
 20
149.4696395387705081
 30
0.0
  0
VERTEX
  5
5A3
  8
0
 10
16.5000000000000284
 20
149.6815880656741058
 30
0.0
  0
VERTEX
  5
5A4
  8
0
 10
16.5000000000000284
 20
149.8935929242327063
 30
0.0
  0
VERTEX
  5
5A5
  8
0
 10
16.5000000000000284
 20
150.1056059335878103
 30
0.0
  0
VERTEX
  5
5A6
  8
0
 10
16.5000000000000284
 20
150.3175863350265899
 30
0.0
  0
VERTEX
  5
5A7
  8
0
 10
16.5000000000000284
 20
150.5295018489815106
 30
0.0
  0
VERTEX
  5
5A8
  8
0
 10
16.5000000000000284
 20
150.7413206591263872
 30
0.0
  0
VERTEX
  5
5A9
  8
0
 10
16.5000000000000284
 20
150.9530109491352903
 30
0.0
  0
VERTEX
  5
5AA
  8
0
 10
16.5000000000000284
 20
151.1645409026818925
 30
0.0
  0
VERTEX
  5
5AB
  8
0
 10
16.5000000000000284
 20
151.37587850221351
 30
0.0
  0
VERTEX
  5
5AC
  8
0
 10
16.5000000000000284
 20
151.58698478158081
 30
0.0
  0
VERTEX
  5
5AD
  8
0
 10
16.5000000000000284
 20
151.7978122235975889
 30
0.0
  0
VERTEX
  5
5AE
  8
0
 10
16.5000000000000284
 20
152.0083127850300002
 30
0.0
  0
VERTEX
  5
5AF
  8
0
 10
16.5000000000000284
 20
152.2184384226445104
 30
0.0
  0
VERTEX
  5
5B0
  8
0
 10
16.5000000000000284
 20
152.4281410932073868
 30
0.0
  0
VERTEX
  5
5B1
  8
0
 10
16.5000000000000284
 20
152.6373727534850104
 30
0.0
  0
VERTEX
  5
5B2
  8
0
 10
16.5000000000000284
 20
152.8460853602437055
 30
0.0
  0
VERTEX
  5
5B3
  8
0
 10
16.5000000000000284
 20
153.054230870249711
 30
0.0
  0
VERTEX
  5
5B4
  8
0
 10
16.5000000000000284
 20
153.2617698347006865
 30
0.0
  0
VERTEX
  5
5B5
  8
0
 10
16.5000000000000284
 20
153.4687362833304007
 30
0.0
  0
VERTEX
  5
5B6
  8
0
 10
16.5000000000000284
 20
153.6752015251788919
 30
0.0
  0
VERTEX
  5
5B7
  8
0
 10
16.5000000000000284
 20
153.881237161214699
 30
0.0
  0
VERTEX
  5
5B8
  8
0
 10
16.5000000000000284
 20
154.0869147924067875
 30
0.0
  0
VERTEX
  5
5B9
  8
0
 10
16.5000000000000284
 20
154.2923060197238101
 30
0.0
  0
VERTEX
  5
5BA
  8
0
 10
16.5000000000000284
 20
154.4974824441345049
 30
0.0
  0
VERTEX
  5
5BB
  8
0
 10
16.5000000000000284
 20
154.70251566660761
 30
0.0
  0
VERTEX
  5
5BC
  8
0
 10
16.5000000000000284
 20
154.9074772881120055
 30
0.0
  0
SEQEND
  5
5BD
  8
0
  0
ENDSEC
  0
EOF
