  0
SECTION
  2
HEADER
  9
$ACADVER
  1
AC1009
  9
$INSBASE
 10
0.0
 20
0.0
 30
0.0
  9
$EXTMIN
 10
0.0
 20
-2.960436562073669
 30
0.0
  9
$EXTMAX
 10
141.3233287858116967
 20
227.9999999999992895
 30
0.0
  9
$LIMMIN
 10
0.0
 20
0.0
  9
$LIMMAX
 10
375.0
 20
270.0
  9
$ORTHOMODE
 70
     1
  9
$REGENMODE
 70
     1
  9
$FILLMODE
 70
     1
  9
$QTEXTMODE
 70
     0
  9
$MIRRTEXT
 70
     0
  9
$DRAGMODE
 70
     2
  9
$LTSCALE
 40
6.0
  9
$OSMODE
 70
    37
  9
$ATTMODE
 70
     1
  9
$TEXTSIZE
 40
0.2
  9
$TRACEWID
 40
0.05
  9
$TEXTSTYLE
  7
STANDARD
  9
$CLAYER
  8
0
  9
$CELTYPE
  6
BYLAYER
  9
$CECOLOR
 62
   256
  9
$DIMSCALE
 40
1.0
  9
$DIMASZ
 40
3.0
  9
$DIMEXO
 40
1.0
  9
$DIMDLI
 40
6.0
  9
$DIMRND
 40
0.0
  9
$DIMDLE
 40
0.0
  9
$DIMEXE
 40
1.0
  9
$DIMTP
 40
495.0
  9
$DIMTM
 40
0.0
  9
$DIMTXT
 40
3.0
  9
$DIMCEN
 40
0.0
  9
$DIMTSZ
 40
0.0
  9
$DIMTOL
 70
     0
  9
$DIMLIM
 70
     0
  9
$DIMTIH
 70
     0
  9
$DIMTOH
 70
     0
  9
$DIMSE1
 70
     0
  9
$DIMSE2
 70
     0
  9
$DIMTAD
 70
     1
  9
$DIMZIN
 70
     0
  9
$DIMBLK
  1

  9
$DIMASO
 70
     0
  9
$DIMSHO
 70
     0
  9
$DIMPOST
  1

  9
$DIMAPOST
  1

  9
$DIMALT
 70
     0
  9
$DIMALTD
 70
     2
  9
$DIMALTF
 40
25.3999999999999986
  9
$DIMLFAC
 40
1.0
  9
$DIMTOFL
 70
     1
  9
$DIMTVP
 40
0.0
  9
$DIMTIX
 70
     1
  9
$DIMSOXD
 70
     0
  9
$DIMSAH
 70
     0
  9
$DIMBLK1
  1

  9
$DIMBLK2
  1

  9
$DIMSTYLE
  2
STANDARD
  9
$DIMCLRD
 70
     0
  9
$DIMCLRE
 70
     0
  9
$DIMCLRT
 70
     4
  9
$DIMTFAC
 40
1.0
  9
$DIMGAP
 40
1.0
  9
$LUNITS
 70
     2
  9
$LUPREC
 70
     4
  9
$SKETCHINC
 40
0.1
  9
$FILLETRAD
 40
0.0
  9
$AUNITS
 70
     0
  9
$AUPREC
 70
     0
  9
$MENU
  1
C:\R13\WIN\SUPPORT\ACAD-I
  9
$ELEVATION
 40
0.0
  9
$PELEVATION
 40
0.0
  9
$THICKNESS
 40
0.0
  9
$LIMCHECK
 70
     0
  9
$BLIPMODE
 70
     0
  9
$CHAMFERA
 40
0.0
  9
$CHAMFERB
 40
0.0
  9
$SKPOLY
 70
     0
  9
$TDCREATE
 40
2451961.7115277778357267
  9
$TDUPDATE
 40
2460580.5716203697957098
  9
$TDINDWG
 40
0.1479776273
  9
$TDUSRTIMER
 40
2456598.1094534839503467
  9
$USRTIMER
 70
     1
  9
$ANGBASE
 50
0.0
  9
$ANGDIR
 70
     0
  9
$PDMODE
 70
     0
  9
$PDSIZE
 40
0.0
  9
$PLINEWID
 40
0.0
  9
$COORDS
 70
     1
  9
$SPLFRAME
 70
     0
  9
$SPLINETYPE
 70
     6
  9
$SPLINESEGS
 70
     8
  9
$ATTDIA
 70
     1
  9
$ATTREQ
 70
     1
  9
$HANDLING
 70
     1
  9
$HANDSEED
  5
726
  9
$SURFTAB1
 70
     6
  9
$SURFTAB2
 70
     6
  9
$SURFTYPE
 70
     6
  9
$SURFU
 70
     6
  9
$SURFV
 70
     6
  9
$UCSNAME
  2

  9
$UCSORG
 10
0.0
 20
0.0
 30
0.0
  9
$UCSXDIR
 10
1.0
 20
0.0
 30
0.0
  9
$UCSYDIR
 10
0.0
 20
1.0
 30
0.0
  9
$PUCSNAME
  2

  9
$PUCSORG
 10
0.0
 20
0.0
 30
0.0
  9
$PUCSXDIR
 10
1.0
 20
0.0
 30
0.0
  9
$PUCSYDIR
 10
0.0
 20
1.0
 30
0.0
  9
$USERI1
 70
     4
  9
$USERI2
 70
     1
  9
$USERI3
 70
     0
  9
$USERI4
 70
     0
  9
$USERI5
 70
     0
  9
$USERR1
 40
1.0
  9
$USERR2
 40
3.0
  9
$USERR3
 40
3.0
  9
$USERR4
 40
3.0
  9
$USERR5
 40
10.0
  9
$WORLDVIEW
 70
     1
  9
$SHADEDGE
 70
     3
  9
$SHADEDIF
 70
    70
  9
$TILEMODE
 70
     1
  9
$MAXACTVP
 70
    16
  9
$PLIMCHECK
 70
     0
  9
$PEXTMIN
 10
1.0000000000000000E+20
 20
1.0000000000000000E+20
 30
1.0000000000000000E+20
  9
$PEXTMAX
 10
-1.0000000000000000E+20
 20
-1.0000000000000000E+20
 30
-1.0000000000000000E+20
  9
$PLIMMIN
 10
0.0
 20
0.0
  9
$PLIMMAX
 10
12.0
 20
9.0
  9
$UNITMODE
 70
     0
  9
$VISRETAIN
 70
     0
  9
$PLINEGEN
 70
     0
  9
$PSLTSCALE
 70
     0
  0
ENDSEC
  0
SECTION
  2
TABLES
  0
TABLE
  2
VPORT
 70
     1
  0
VPORT
  2
*ACTIVE
 70
     0
 10
0.0
 20
0.0
 11
1.0
 21
1.0
 12
281.8226600985220784
 22
120.0
 13
0.0
 23
0.0
 14
10.0
 24
10.0
 15
10.0
 25
10.0
 16
0.0
 26
0.0
 36
1.0
 17
0.0
 27
0.0
 37
0.0
 40
240.0
 41
2.3485221674876842
 42
50.0
 43
0.0
 44
0.0
 50
0.0
 51
0.0
 71
    16
 72
   100
 73
     1
 74
     0
 75
     0
 76
     0
 77
     0
 78
     0
  0
ENDTAB
  0
TABLE
  2
LTYPE
 70
     3
  0
LTYPE
  2
CONTINUOUS
 70
     0
  3
Solid Line
 72
    65
 73
     0
 40
0.0
  0
LTYPE
  2
CENTER
 70
     0
  3
____ _ ____ _ ____ _ ____ _ ____ _ ____ _ ____
 72
    65
 73
     4
 40
2.0
 49
1.25
 49
-0.25
 49
0.25
 49
-0.25
  0
LTYPE
  2
HIDDEN
 70
     0
  3
Hidden __ __ __ __ __ __ __ __ __ __ __ __ __ __
 72
    65
 73
     2
 40
1.905
 49
1.27
 49
-0.635
  0
ENDTAB
  0
TABLE
  2
LAYER
 70
     4
  0
LAYER
  2
0
 70
     0
 62
     7
  6
CONTINUOUS
  0
LAYER
  2
1
 70
     0
 62
     1
  6
CENTER
  0
LAYER
  2
3
 70
     0
 62
     3
  6
CONTINUOUS
  0
LAYER
  2
2
 70
     0
 62
     2
  6
HIDDEN
  0
ENDTAB
  0
TABLE
  2
STYLE
 70
     2
  0
STYLE
  2
STANDARD
 70
     0
 40
0.0
 41
1.0
 50
0.0
 71
     0
 42
0.2
  3
SIMPLEX
  4
BIGFONT
  0
STYLE
  2
STANDARD1
 70
     0
 40
0.0
 41
1.0
 50
0.0
 71
     0
 42
3.0
  3
txt
  4

  0
ENDTAB
  0
TABLE
  2
VIEW
 70
     0
  0
ENDTAB
  0
TABLE
  2
UCS
 70
     0
  0
ENDTAB
  0
TABLE
  2
APPID
 70
     7
  0
APPID
  2
ACAD
 70
     0
  0
APPID
  2
ACAD_NAV_VCDISPLAY
 70
     0
  0
APPID
  2
ACAECLAYERSTANDARD
 70
     0
  0
APPID
  2
ACCMTRANSPARENCY
 70
     0
  0
APPID
  2
ACAD_EXEMPT_FROM_CAD_STANDARDS
 70
     0
  0
APPID
  2
ACAD_TC
 70
     0
  0
APPID
  2
ACAD_MLEADERVER
 70
     0
  0
ENDTAB
  0
TABLE
  2
DIMSTYLE
 70
     1
  0
DIMSTYLE
  2
STANDARD
 70
     0
  3

  4

  5

  6

  7

 40
1.0
 41
0.18
 42
0.0625
 43
0.38
 44
0.18
 45
0.0
 46
0.0
 47
0.0
 48
0.0
140
0.18
141
0.09
142
0.0
143
25.3999999999999986
144
1.0
145
0.0
146
1.0
147
0.09
 71
     0
 72
     0
 73
     1
 74
     1
 75
     0
 76
     0
 77
     0
 78
     0
170
     0
171
     2
172
     0
173
     0
174
     0
175
     0
176
     0
177
     0
178
     0
  0
ENDTAB
  0
ENDSEC
  0
SECTION
  2
BLOCKS
  0
BLOCK
  8
0
  2
$MODEL_SPACE
 70
     0
 10
0.0
 20
0.0
 30
0.0
  3
$MODEL_SPACE
  1

  0
ENDBLK
  5
F
  8
0
  0
BLOCK
 67
     1
  8
0
  2
$PAPER_SPACE
 70
     0
 10
0.0
 20
0.0
 30
0.0
  3
$PAPER_SPACE
  1

  0
ENDBLK
  5
14
 67
     1
  8
0
  0
ENDSEC
  0
SECTION
  2
ENTITIES
  0
TEXT
  5
59
  8
0
 62
     3
 10
0.0
 20
0.0
 30
0.0
 40
10.0
  1
LSVA40-M12X98-SUS
  7
STANDARD1
  0
LINE
  5
4B4
  8
0
 10
15.5
 20
66.2886751345948824
 30
0.0
 11
16.0
 21
66.0
 31
0.0
  0
LINE
  5
4B5
  8
0
 10
34.0
 20
66.0
 30
0.0
 11
34.5
 21
66.2886751345948824
 31
0.0
  0
LINE
  5
4B6
  8
0
 10
34.5
 20
75.7113248654052313
 30
0.0
 11
34.0
 21
76.0
 31
0.0
  0
LINE
  5
4B7
  8
0
 10
16.0
 20
76.0
 30
0.0
 11
15.5
 21
75.7113248654052313
 31
0.0
  0
LINE
  5
4B8
  8
0
 10
31.0
 20
152.9265000000000896
 30
0.0
 11
29.9265000000000114
 21
154.0
 31
0.0
  0
LINE
  5
4B9
  8
0
 10
20.0735000000000205
 20
154.0
 30
0.0
 11
19.0
 21
152.9265000000000896
 31
0.0
  0
LINE
  5
4BA
  8
0
 10
31.0
 20
56.0
 30
0.0
 11
31.0
 21
66.0
 31
0.0
  0
LINE
  5
4BB
  8
0
 10
31.0
 20
76.0
 30
0.0
 11
31.0
 21
152.9265000000000896
 31
0.0
  0
LINE
  5
4BC
  8
0
 10
19.0
 20
152.9265000000000896
 30
0.0
 11
19.0
 21
76.0
 31
0.0
  0
LINE
  5
4BD
  8
0
 10
19.0
 20
66.0
 30
0.0
 11
19.0
 21
56.0
 31
0.0
  0
LINE
  5
4BE
  8
0
 10
30.5
 20
48.0
 30
0.0
 11
30.5
 21
51.0
 31
0.0
  0
LINE
  5
4BF
  8
0
 10
19.5
 20
51.0
 30
0.0
 11
19.5
 21
48.0
 31
0.0
  0
LINE
  5
4C0
  8
0
 10
5.0
 20
36.6666666666667425
 30
0.0
 11
5.0
 21
31.6000000000000192
 31
0.0
  0
LINE
  5
4C1
  8
0
 10
45.0
 20
31.6000000000000192
 30
0.0
 11
45.0
 21
36.6666666666667425
 31
0.0
  0
LINE
  5
4C2
  8
0
 10
5.0
 20
31.6000000000000192
 30
0.0
 11
5.5999999999999943
 21
31.0
 31
0.0
  0
LINE
  5
4C3
  8
0
 10
44.3999999999999986
 20
31.0
 30
0.0
 11
45.0
 21
31.6000000000000192
 31
0.0
  0
LINE
  5
4C4
  8
0
 10
45.0000000000000568
 20
36.6666666666667425
 30
0.0
 11
36.2000000000000171
 21
42.333333333333357
 31
0.0
  0
LINE
  5
4C5
  8
0
 10
13.7999999999999794
 20
42.333333333333357
 30
0.0
 11
4.9999999999999707
 21
36.6666666666667425
 31
0.0
  0
LINE
  5
4C6
  8
0
 10
10.0
 20
31.0
 30
0.0
 11
10.0
 21
25.0
 31
0.0
  0
LINE
  5
4C7
  8
0
 10
40.0
 20
25.0
 30
0.0
 11
40.0
 21
31.0
 31
0.0
  0
LINE
  5
4C8
  8
0
 10
36.1999999999999886
 20
42.333333333333357
 30
0.0
 11
35.200813775985381
 21
48.0
 31
0.0
  0
LINE
  5
4C9
  8
0
 10
14.7991862240146492
 20
48.0
 30
0.0
 11
13.7999999999999794
 21
42.333333333333357
 31
0.0
  0
LINE
  5
4CA
  8
0
 10
34.0
 20
66.0
 30
0.0
 11
16.0
 21
66.0
 31
0.0
  0
LINE
  5
4CB
  8
0
 10
16.0
 20
76.0
 30
0.0
 11
34.0
 21
76.0
 31
0.0
  0
LINE
  5
4CC
  8
0
 10
25.0
 20
74.8628190893733745
 30
0.0
 11
25.0
 21
67.137180910626725
 31
0.0
  0
LINE
  5
4CD
  8
0
 10
34.5
 20
75.7113248654052313
 30
0.0
 11
34.5
 21
66.2886751345948824
 31
0.0
  0
LINE
  5
4CE
  8
0
 10
15.5
 20
75.7113248654052313
 30
0.0
 11
15.5
 21
66.2886751345948824
 31
0.0
  0
LINE
  5
4CF
  8
0
 10
32.0
 20
51.0
 30
0.0
 11
32.0
 21
56.0
 31
0.0
  0
LINE
  5
4D0
  8
0
 10
25.0
 20
51.6252147823392988
 30
0.0
 11
25.0
 21
55.3747852176607012
 31
0.0
  0
LINE
  5
4D1
  8
0
 10
18.0
 20
51.0
 30
0.0
 11
18.0
 21
56.0
 31
0.0
  0
LINE
  5
4D2
  8
0
 10
32.0
 20
56.0
 30
0.0
 11
18.0
 21
56.0
 31
0.0
  0
LINE
  5
4D3
  8
0
 10
32.0
 20
51.0
 30
0.0
 11
18.0
 21
51.0
 31
0.0
  0
LINE
  5
4D4
  8
0
 10
29.9265000000000114
 20
154.0
 30
0.0
 11
20.0735000000000205
 21
154.0
 31
0.0
  0
LINE
  5
4D5
  8
0
 10
31.0
 20
152.9265000000000896
 30
0.0
 11
19.0
 21
152.9265000000000896
 31
0.0
  0
LINE
  5
4D6
  8
0
 10
44.3999999999999986
 20
31.0
 30
0.0
 11
5.5999999999999943
 21
31.0
 31
0.0
  0
LINE
  5
4D7
  8
0
 10
40.0
 20
25.0
 30
0.0
 11
10.0000000000000302
 21
25.0
 31
0.0
  0
LINE
  5
4D8
  8
0
 10
14.7991862240146492
 20
48.0
 30
0.0
 11
35.200813775985381
 21
48.0
 31
0.0
  0
LINE
  5
4D9
  8
2
 10
34.0
 20
25.0
 30
0.0
 11
34.0
 21
31.0
 31
0.0
  0
LINE
  5
4DA
  8
2
 10
16.0
 20
31.0
 30
0.0
 11
16.0
 21
25.0
 31
0.0
  0
LINE
  5
4DB
  8
0
 10
110.9696551146032988
 20
74.8628190893733461
 30
0.0
 11
109.0000000000004974
 21
75.9999999999999716
 31
0.0
  0
LINE
  5
4DC
  8
0
 10
91.0000000000004832
 20
75.9999999999999716
 30
0.0
 11
89.0303448853976249
 21
74.8628190893733461
 31
0.0
  0
LINE
  5
4DD
  8
0
 10
89.0303448853976249
 20
67.1371809106265971
 30
0.0
 11
91.0000000000004832
 21
65.9999999999999716
 31
0.0
  0
LINE
  5
4DE
  8
0
 10
109.0000000000004974
 20
65.9999999999999716
 30
0.0
 11
110.9696551146032988
 21
67.1371809106265971
 31
0.0
  0
LINE
  5
4DF
  8
0
 10
106.000000000000199
 20
55.9999999999999716
 30
0.0
 11
106.000000000000199
 21
65.9999999999999716
 31
0.0
  0
LINE
  5
4E0
  8
0
 10
106.0000000000000995
 20
75.9999999999999716
 30
0.0
 11
106.0000000000000995
 21
152.9265000000000896
 31
0.0
  0
LINE
  5
4E1
  8
0
 10
94.0000000000000568
 20
152.9265000000000043
 30
0.0
 11
94.0000000000001421
 21
75.9999999999999716
 31
0.0
  0
LINE
  5
4E2
  8
0
 10
94.0000000000001847
 20
65.9999999999999716
 30
0.0
 11
94.0000000000002274
 21
55.9999999999999716
 31
0.0
  0
LINE
  5
4E3
  8
0
 10
106.0000000000000995
 20
152.9265000000000896
 30
0.0
 11
104.9265000000000043
 21
154.0
 31
0.0
  0
LINE
  5
4E4
  8
0
 10
95.0735000000000667
 20
154.0
 30
0.0
 11
94.0000000000000568
 21
152.9265000000000043
 31
0.0
  0
LINE
  5
4E5
  8
0
 10
105.500000000000199
 20
47.9999999999999716
 30
0.0
 11
105.500000000000199
 21
51.0000000000000782
 31
0.0
  0
LINE
  5
4E6
  8
0
 10
94.5000000000002132
 20
50.9999999999999716
 30
0.0
 11
94.5000000000002558
 21
47.9999999999999716
 31
0.0
  0
LINE
  5
4E7
  8
0
 10
107.0
 20
50.9999999999999716
 30
0.0
 11
108.0829037686550009
 21
51.6252147823392704
 31
0.0
  0
LINE
  5
4E8
  8
0
 10
108.0829037686550009
 20
55.3747852176607935
 30
0.0
 11
107.000000000000199
 21
55.9999999999999716
 31
0.0
  0
LINE
  5
4E9
  8
0
 10
91.917096231345468
 20
51.6252147823391567
 30
0.0
 11
93.0000000000002274
 21
50.9999999999999716
 31
0.0
  0
LINE
  5
4EA
  8
0
 10
93.0000000000002274
 20
55.9999999999999716
 30
0.0
 11
91.9170962313454538
 21
55.3747852176607935
 31
0.0
  0
LINE
  5
4EB
  8
0
 10
80.0000000000003126
 20
31.6000000000000014
 30
0.0
 11
80.6000000000003354
 21
30.9999999999999787
 31
0.0
  0
LINE
  5
4EC
  8
0
 10
119.4000000000003041
 20
31.0000000000000888
 30
0.0
 11
120.0000000000002984
 21
31.6000000000001116
 31
0.0
  0
LINE
  5
4ED
  8
0
 10
80.0000000000003126
 20
36.6666666666666003
 30
0.0
 11
80.0000000000003126
 21
31.6000000000000014
 31
0.0
  0
LINE
  5
4EE
  8
0
 10
120.0000000000002984
 20
31.6000000000001116
 30
0.0
 11
120.0000000000002984
 21
36.6666666666667069
 31
0.0
  0
LINE
  5
4EF
  8
0
 10
120.0000000000002984
 20
36.6666666666667069
 30
0.0
 11
111.2000000000003013
 21
42.3333333333333428
 31
0.0
  0
LINE
  5
4F0
  8
0
 10
88.8000000000002672
 20
42.3333333333333428
 30
0.0
 11
80.0000000000002558
 21
36.6666666666666003
 31
0.0
  0
LINE
  5
4F1
  8
0
 10
85.0000000000003126
 20
30.9999999999999787
 30
0.0
 11
85.0000000000003268
 21
24.9999999999999787
 31
0.0
  0
LINE
  5
4F2
  8
0
 10
115.0000000000002984
 20
25.0000000000000888
 30
0.0
 11
115.0000000000002984
 21
31.0000000000000888
 31
0.0
  0
LINE
  5
4F3
  8
0
 10
111.2000000000002018
 20
42.3333333333333428
 30
0.0
 11
110.2008137759855941
 21
48.0000000000000782
 31
0.0
  0
LINE
  5
4F4
  8
0
 10
89.7991862240148748
 20
47.9999999999999716
 30
0.0
 11
88.8000000000002956
 21
42.3333333333333428
 31
0.0
  0
LINE
  5
4F5
  8
0
 10
100.0000000000004974
 20
75.9999999999999716
 30
0.0
 11
109.0000000000004974
 21
75.9999999999999716
 31
0.0
  0
LINE
  5
4F6
  8
0
 10
91.0000000000004832
 20
75.9999999999999716
 30
0.0
 11
100.0000000000004974
 21
75.9999999999999716
 31
0.0
  0
LINE
  5
4F7
  8
0
 10
109.0000000000004974
 20
65.9999999999999716
 30
0.0
 11
91.0000000000004832
 21
65.9999999999999716
 31
0.0
  0
LINE
  5
4F8
  8
0
 10
110.9696551146032988
 20
74.8628190893733461
 30
0.0
 11
110.9696551146032988
 21
67.1371809106267108
 31
0.0
  0
LINE
  5
4F9
  8
0
 10
105.4848275573018981
 20
74.8628190893733461
 30
0.0
 11
105.4848275573018981
 21
67.1371809106267108
 31
0.0
  0
LINE
  5
4FA
  8
0
 10
94.5151724426990256
 20
74.8628190893733461
 30
0.0
 11
94.5151724426990256
 21
67.1371809106267108
 31
0.0
  0
LINE
  5
4FB
  8
0
 10
89.0303448853976249
 20
74.8628190893733461
 30
0.0
 11
89.0303448853976249
 21
67.1371809106267108
 31
0.0
  0
LINE
  5
4FC
  8
0
 10
108.0829037686550009
 20
51.6252147823392704
 30
0.0
 11
108.0829037686550009
 21
55.3747852176607935
 31
0.0
  0
LINE
  5
4FD
  8
0
 10
104.0414518843275999
 20
51.6252147823392704
 30
0.0
 11
104.0414518843275999
 21
55.3747852176607935
 31
0.0
  0
LINE
  5
4FE
  8
0
 10
95.9585481156728264
 20
51.6252147823392704
 30
0.0
 11
95.9585481156728264
 21
55.3747852176607935
 31
0.0
  0
LINE
  5
4FF
  8
0
 10
107.000000000000199
 20
55.9999999999999716
 30
0.0
 11
93.0000000000002274
 21
55.9999999999999716
 31
0.0
  0
LINE
  5
500
  8
0
 10
107.0
 20
50.9999999999999716
 30
0.0
 11
93.0000000000002274
 21
50.9999999999999716
 31
0.0
  0
LINE
  5
501
  8
0
 10
91.917096231345468
 20
51.6252147823392704
 30
0.0
 11
91.9170962313454538
 21
55.3747852176606727
 31
0.0
  0
LINE
  5
502
  8
0
 10
106.0000000000000995
 20
152.9265000000000896
 30
0.0
 11
94.0000000000000568
 21
152.9265000000000043
 31
0.0
  0
LINE
  5
503
  8
0
 10
104.9265000000000043
 20
154.0
 30
0.0
 11
95.0735000000000667
 21
154.0
 31
0.0
  0
LINE
  5
504
  8
0
 10
119.4000000000003041
 20
31.0000000000000888
 30
0.0
 11
80.6000000000003354
 21
30.9999999999999787
 31
0.0
  0
LINE
  5
505
  8
0
 10
115.0000000000002984
 20
25.0000000000000888
 30
0.0
 11
85.0000000000003695
 21
24.9999999999999787
 31
0.0
  0
LINE
  5
506
  8
0
 10
110.2008137759855941
 20
48.0000000000000782
 30
0.0
 11
89.7991862240148748
 21
47.9999999999999716
 31
0.0
  0
LINE
  5
507
  8
2
 10
109.0000000000002984
 20
25.0000000000000888
 30
0.0
 11
109.0000000000002984
 21
31.0000000000000888
 31
0.0
  0
LINE
  5
508
  8
2
 10
91.0000000000003126
 20
30.9999999999999787
 30
0.0
 11
91.0000000000003553
 21
24.9999999999999787
 31
0.0
  0
CIRCLE
  5
509
  8
0
 10
25.0000000000000284
 20
204.9999999999996874
 30
0.0
 40
9.0
  0
CIRCLE
  5
510
  8
0
 10
25.0000000000000284
 20
204.9999999999992895
 30
0.0
 40
6.0
  0
CIRCLE
  5
511
  8
0
 10
25.0000000000000284
 20
204.9999999999996021
 30
0.0
 40
11.1999999999999993
  0
CIRCLE
  5
512
  8
0
 10
25.0000000000000284
 20
204.9999999999996021
 30
0.0
 40
20.0000000000001101
  0
LINE
  5
513
  8
3
 10
19.9470000000000596
 20
76.0
 30
0.0
 11
19.9469999999999992
 21
153.873500000000007
 31
0.0
  0
LINE
  5
514
  8
3
 10
30.0530000000001714
 20
76.0
 30
0.0
 11
30.0530000000000506
 21
153.8734999999998934
 31
0.0
  0
LINE
  5
515
  8
1
 10
24.9999999999998899
 20
21.9999999999997691
 30
0.0
 11
25.0
 21
157.0
 31
0.0
  0
LINE
  5
516
  8
3
 10
30.0530000000002815
 20
58.0000000000004619
 30
0.0
 11
30.0530000000002815
 21
65.9999999999998863
 31
0.0
  0
LINE
  5
517
  8
3
 10
19.9470000000002301
 20
58.0000000000004619
 30
0.0
 11
19.9470000000002301
 21
66.0
 31
0.0
  0
LINE
  5
518
  8
0
 10
31.0000000000002309
 20
58.0000000000004619
 30
0.0
 11
19.0000000000002309
 21
58.0000000000004619
 31
0.0
  0
LINE
  5
519
  8
3
 10
19.9470000000002301
 20
58.0000000000004619
 30
0.0
 11
19.0000000000002309
 21
56.3597478852327569
 31
0.0
  0
LINE
  5
51A
  8
3
 10
30.0530000000002318
 20
58.0000000000004619
 30
0.0
 11
31.0000000000002309
 21
56.3597478852327569
 31
0.0
  0
ARC
  5
51B
  8
0
 10
20.2500000000762803
 20
61.989415158945242
 30
0.0
 40
13.7217720705704505
 50
69.7470597421210954
 51
110.2529402581913018
  0
ARC
  5
51C
  8
0
 10
29.7500000000056808
 20
61.9894151594043024
 30
0.0
 40
13.7217720701113794
 50
69.7470597414632749
 51
110.2529402582208036
  0
ARC
  5
51D
  8
0
 10
29.7499999999998295
 20
80.0105848406250146
 30
0.0
 40
13.7217720701408208
 50
249.7470597414840938
 51
290.2529402585158778
  0
ARC
  5
51E
  8
0
 10
20.2499999999998295
 20
80.0105848406250146
 30
0.0
 40
13.7217720701408297
 50
249.7470597414840938
 51
290.2529402585158778
  0
ARC
  5
51F
  8
0
 10
21.4999999999998295
 20
45.8907592389598378
 30
0.0
 40
10.1092407610401498
 50
69.7438419995884118
 51
110.2561580004098971
  0
ARC
  5
520
  8
0
 10
28.5000000000002309
 20
45.8907592389616568
 30
0.0
 40
10.1092407610383308
 50
69.7438419995849159
 51
110.2561580004168036
  0
ARC
  5
521
  8
0
 10
28.5000000000001705
 20
61.1092407610385635
 30
0.0
 40
10.1092407610385706
 50
249.7438419995831964
 51
290.2561580004150983
  0
ARC
  5
522
  8
0
 10
21.5
 20
61.1092407610377677
 30
0.0
 40
10.1092407610377606
 50
249.7438419995831111
 51
290.2561580004168036
  0
LINE
  5
523
  8
0
 10
45.0000000000000568
 20
36.6666666666667425
 30
0.0
 11
5.0
 21
36.6666666666667425
 31
0.0
  0
LINE
  5
524
  8
0
 10
13.7999999999999794
 20
42.333333333333357
 30
0.0
 11
36.2000000000000171
 21
42.333333333333357
 31
0.0
  0
CIRCLE
  5
525
  8
3
 10
25.0000000000000284
 20
204.9999999999992895
 30
0.0
 40
5.052999999999999
  0
LINE
  5
526
  8
1
 10
48.0000000000000284
 20
204.9999999999992895
 30
0.0
 11
2.000000000000028
 21
204.9999999999992895
 31
0.0
  0
LINE
  5
527
  8
1
 10
25.0000000000000284
 20
227.9999999999992895
 30
0.0
 11
25.0000000000000284
 21
181.9999999999990905
 31
0.0
  0
ARC
  5
528
  8
0
 10
25.0000000000000284
 20
204.9999999999992895
 30
0.0
 40
10.2008137759853792
 50
38.6381009356089535
 51
81.3618990643874866
  0
ARC
  5
529
  8
0
 10
25.0000000000000284
 20
204.9999999999992895
 30
0.0
 40
10.2008137759853792
 50
98.6381009356092164
 51
141.3618990644528139
  0
ARC
  5
52A
  8
0
 10
25.0000000000000284
 20
204.9999999999992895
 30
0.0
 40
10.2008137759853792
 50
158.6381009356003915
 51
201.3618990643994948
  0
ARC
  5
52B
  8
0
 10
25.0000000000000284
 20
204.9999999999992895
 30
0.0
 40
10.2008137759853792
 50
218.6381009355987999
 51
261.3618990644022801
  0
ARC
  5
52C
  8
0
 10
25.0000000000000284
 20
204.9999999999992895
 30
0.0
 40
10.2008137759853792
 50
278.6381009355828837
 51
321.3618990644012001
  0
ARC
  5
52D
  8
0
 10
25.0000000000000284
 20
204.9999999999992895
 30
0.0
 40
10.2008137759853792
 50
338.6381009356005052
 51
21.361899064399541
  0
LINE
  5
52E
  8
0
 10
120.0000000000002984
 20
36.6666666666667069
 30
0.0
 11
80.0000000000003126
 21
36.6666666666666003
 31
0.0
  0
LINE
  5
52F
  8
0
 10
88.8000000000002956
 20
42.3333333333333428
 30
0.0
 11
111.2000000000003013
 21
42.3333333333333428
 31
0.0
  0
LINE
  5
530
  8
3
 10
94.9470000000001164
 20
75.9999999999999716
 30
0.0
 11
94.9470000000000738
 21
153.873500000000007
 31
0.0
  0
LINE
  5
531
  8
3
 10
105.0530000000001962
 20
75.9999999999999716
 30
0.0
 11
105.0530000000000967
 21
153.8734999999998934
 31
0.0
  0
LINE
  5
532
  8
1
 10
99.9999999999999147
 20
21.9999999999997513
 30
0.0
 11
100.0
 21
157.0
 31
0.0
  0
LINE
  5
533
  8
3
 10
105.0530000000002957
 20
58.0000000000004334
 30
0.0
 11
105.0530000000002957
 21
65.9999999999998579
 31
0.0
  0
LINE
  5
534
  8
3
 10
94.9470000000002869
 20
58.0000000000004334
 30
0.0
 11
94.9470000000002869
 21
65.9999999999999716
 31
0.0
  0
LINE
  5
535
  8
0
 10
106.000000000000199
 20
58.0000000000004334
 30
0.0
 11
94.0000000000002842
 21
58.0000000000004334
 31
0.0
  0
LINE
  5
536
  8
3
 10
94.9470000000002869
 20
58.0000000000004334
 30
0.0
 11
94.0000000000002842
 21
56.3597478852327427
 31
0.0
  0
LINE
  5
537
  8
3
 10
105.0530000000001962
 20
58.0000000000004334
 30
0.0
 11
106.000000000000199
 21
56.3597478852327427
 31
0.0
  0
ARC
  5
538
  8
0
 10
106.0621778264912933
 20
52.4218481522072821
 30
0.0
 40
3.5781518477927321
 50
64.3842474680464534
 51
124.3842474680383958
  0
ARC
  5
539
  8
0
 10
100.000000000000199
 20
42.6252147823372169
 30
0.0
 40
13.3747852176627493
 50
72.412046226009025
 51
107.587953773990904
  0
ARC
  5
53A
  8
0
 10
93.9378221735092609
 20
52.4218481522073816
 30
0.0
 40
3.578151847792574
 50
55.6157525319616681
 51
115.615752531975204
  0
ARC
  5
53B
  8
0
 10
93.9378221735091472
 20
54.5781518477920997
 30
0.0
 40
3.578151847792153
 50
244.3842474680301962
 51
304.3842474680424175
  0
ARC
  5
53C
  8
0
 10
100.000000000000199
 20
64.3747852176602038
 30
0.0
 40
13.3747852176602606
 50
252.4120462260056001
 51
287.5879537739943999
  0
ARC
  5
53D
  8
0
 10
106.0621778264912933
 20
54.5781518477930092
 30
0.0
 40
3.5781518477929191
 50
235.6157525319617889
 51
295.6157525319571846
  0
ARC
  5
53E
  8
0
 10
91.7727586640482969
 20
70.8544740192683946
 30
0.0
 40
4.8567132439920524
 50
55.6209999762349625
 51
115.6209999762306069
  0
ARC
  5
53F
  8
0
 10
100.0000000000004974
 20
57.5479255819426214
 30
0.0
 40
18.1628431284036616
 50
72.4233942689224364
 51
107.5766057310776063
  0
ARC
  5
540
  8
0
 10
108.2272413359525984
 20
70.8544740192683946
 30
0.0
 40
4.8567132439920444
 50
64.3790000237603266
 51
124.379000023765002
  0
ARC
  5
541
  8
0
 10
108.2272413359526979
 20
71.1455259807318754
 30
0.0
 40
4.8567132439923091
 50
235.620999976234998
 51
295.6209999762342022
  0
ARC
  5
542
  8
0
 10
100.0000000000004974
 20
84.4524280463926686
 30
0.0
 40
18.1631802475773583
 50
252.4237311347364994
 51
287.5762688652636143
  0
ARC
  5
543
  8
0
 10
91.7727586640482969
 20
71.1455259807314349
 30
0.0
 40
4.8567132439918881
 50
244.3790000237567028
 51
304.3790000237668778
  0
POLYLINE
  5
551
  8
0
 66
     1
 10
0.0
 20
0.0
 30
0.0
  0
VERTEX
  5
5E8
  8
0
 10
15.5000000000000302
 20
199.5151724426982867
 30
0.0
  0
VERTEX
  5
5E9
  8
0
 10
15.6756077825755806
 20
199.4137852421565071
 30
0.0
  0
VERTEX
  5
5EA
  8
0
 10
15.8512836332418505
 20
199.3123587424842071
 30
0.0
  0
VERTEX
  5
5EB
  8
0
 10
16.0270956200895114
 20
199.2108536445508946
 30
0.0
  0
VERTEX
  5
5EC
  8
0
 10
16.2031118112092791
 20
199.1092306492261059
 30
0.0
  0
VERTEX
  5
5ED
  8
0
 10
16.3794002746918395
 20
199.0074504573794059
 30
0.0
  0
VERTEX
  5
5EE
  8
0
 10
16.5560290786279403
 20
198.9054737698803024
 30
0.0
  0
VERTEX
  5
5EF
  8
0
 10
16.73306629110823
 20
198.8032612875981897
 30
0.0
  0
VERTEX
  5
5F0
  8
0
 10
16.9105647723248715
 20
198.7007824916871073
 30
0.0
  0
VERTEX
  5
5F1
  8
0
 10
17.0885142826470009
 20
198.5980432940004903
 30
0.0
  0
VERTEX
  5
5F2
  8
0
 10
17.2668882194458888
 20
198.4950590535731862
 30
0.0
  0
VERTEX
  5
5F3
  8
0
 10
17.4456599800642493
 20
198.3918451294566978
 30
0.0
  0
VERTEX
  5
5F4
  8
0
 10
17.62480296184469
 20
198.2884168807023002
 30
0.0
  0
VERTEX
  5
5F5
  8
0
 10
17.8042905621298893
 20
198.1847896663614961
 30
0.0
  0
VERTEX
  5
5F6
  8
0
 10
17.9840961782624902
 20
198.0809788454855038
 30
0.0
  0
VERTEX
  5
5F7
  8
0
 10
18.1641945746036413
 20
197.9769989878772947
 30
0.0
  0
VERTEX
  5
5F8
  8
0
 10
18.3445663641549288
 20
197.8728612866256071
 30
0.0
  0
VERTEX
  5
5F9
  8
0
 10
18.5251937237491688
 20
197.7685760319409098
 30
0.0
  0
VERTEX
  5
5FA
  8
0
 10
18.7060588302356301
 20
197.664153514024008
 30
0.0
  0
VERTEX
  5
5FB
  8
0
 10
18.8871438604635884
 20
197.5596040230755932
 30
0.0
  0
VERTEX
  5
5FC
  8
0
 10
19.0684309912823799
 20
197.4549378492968117
 30
0.0
  0
VERTEX
  5
5FD
  8
0
 10
19.2499023995412983
 20
197.3501652828882982
 30
0.0
  0
VERTEX
  5
5FE
  8
0
 10
19.4315390659367893
 20
197.2452973046501938
 30
0.0
  0
VERTEX
  5
5FF
  8
0
 10
19.6133134239292986
 20
197.140349830131413
 30
0.0
  0
VERTEX
  5
600
  8
0
 10
19.7951941878344186
 20
197.0353409221303878
 30
0.0
  0
VERTEX
  5
601
  8
0
 10
19.9771500566906184
 20
196.9302886522656024
 30
0.0
  0
VERTEX
  5
602
  8
0
 10
20.1591497295363205
 20
196.8252110921557971
 30
0.0
  0
VERTEX
  5
603
  8
0
 10
20.3411619054100186
 20
196.7201263134193141
 30
0.0
  0
VERTEX
  5
604
  8
0
 10
20.5231552833501816
 20
196.6150523876748082
 30
0.0
  0
VERTEX
  5
605
  8
0
 10
20.7050987488757698
 20
196.5100072788762873
 30
0.0
  0
VERTEX
  5
606
  8
0
 10
20.8869635369502511
 20
196.4050075945253866
 30
0.0
  0
VERTEX
  5
607
  8
0
 10
21.0687224892498612
 20
196.3000690144874909
 30
0.0
  0
VERTEX
  5
608
  8
0
 10
21.2503484786286094
 20
196.1952072006278911
 30
0.0
  0
VERTEX
  5
609
  8
0
 10
21.4318143779405297
 20
196.0904378148113949
 30
0.0
  0
VERTEX
  5
60A
  8
0
 10
21.6130930600395708
 20
195.9857765189032079
 30
0.0
  0
VERTEX
  5
60B
  8
0
 10
21.794157756069751
 20
195.8812387679093945
 30
0.0
  0
VERTEX
  5
60C
  8
0
 10
21.9749885833890097
 20
195.7768360410788944
 30
0.0
  0
VERTEX
  5
60D
  8
0
 10
22.1555718678424114
 20
195.6725762331886074
 30
0.0
  0
VERTEX
  5
60E
  8
0
 10
22.3358941575633914
 20
195.5684671106772896
 30
0.0
  0
VERTEX
  5
60F
  8
0
 10
22.5159420006853601
 20
195.4645164399838109
 30
0.0
  0
VERTEX
  5
610
  8
0
 10
22.6957019453417708
 20
195.3607319875468988
 30
0.0
  0
VERTEX
  5
611
  8
0
 10
22.8751603512798489
 20
195.2571216285701894
 30
0.0
  0
VERTEX
  5
612
  8
0
 10
23.0542975248183701
 20
195.1536967332058055
 30
0.0
  0
VERTEX
  5
613
  8
0
 10
23.2330865734082899
 20
195.0504728278743016
 30
0.0
  0
VERTEX
  5
614
  8
0
 10
23.4115001848675206
 20
194.9474656812712112
 30
0.0
  0
VERTEX
  5
615
  8
0
 10
23.5895110470140388
 20
194.8446910620922949
 30
0.0
  0
VERTEX
  5
616
  8
0
 10
23.7670918476658493
 20
194.7421647390330008
 30
0.0
  0
VERTEX
  5
617
  8
0
 10
23.9442154533435598
 20
194.6399023776153001
 30
0.0
  0
VERTEX
  5
618
  8
0
 10
24.1208853859236889
 20
194.5379019444823996
 30
0.0
  0
VERTEX
  5
619
  8
0
 10
24.2971703140652302
 20
194.4361237937658018
 30
0.0
  0
VERTEX
  5
61A
  8
0
 10
24.4731472386559403
 20
194.3345234689822973
 30
0.0
  0
VERTEX
  5
61B
  8
0
 10
24.6488931605835013
 20
194.2330565136483926
 30
0.0
  0
VERTEX
  5
61C
  8
0
 10
24.8244850807356308
 20
194.131678471280992
 30
0.0
  0
VERTEX
  5
61D
  8
0
 10
25.0000000000000284
 20
194.030344885396886
 30
0.0
  0
SEQEND
  5
61E
  8
0
  0
POLYLINE
  5
552
  8
0
 66
     1
 10
0.0
 20
0.0
 30
0.0
  0
VERTEX
  5
61F
  8
0
 10
34.5000000000000284
 20
199.5151724426982867
 30
0.0
  0
VERTEX
  5
620
  8
0
 10
34.3243922174244673
 20
199.4137852421565071
 30
0.0
  0
VERTEX
  5
621
  8
0
 10
34.1487163667582081
 20
199.3123587424842071
 30
0.0
  0
VERTEX
  5
622
  8
0
 10
33.9729043799105526
 20
199.2108536445508946
 30
0.0
  0
VERTEX
  5
623
  8
0
 10
33.7968881887907813
 20
199.1092306492261059
 30
0.0
  0
VERTEX
  5
624
  8
0
 10
33.6205997253081819
 20
199.0074504573794059
 30
0.0
  0
VERTEX
  5
625
  8
0
 10
33.443970921372113
 20
198.9054737698803024
 30
0.0
  0
VERTEX
  5
626
  8
0
 10
33.2669337088918269
 20
198.8032612875981897
 30
0.0
  0
VERTEX
  5
627
  8
0
 10
33.0894352276751817
 20
198.7007824916871073
 30
0.0
  0
VERTEX
  5
628
  8
0
 10
32.9114857173530879
 20
198.5980432940004903
 30
0.0
  0
VERTEX
  5
629
  8
0
 10
32.733111780554168
 20
198.4950590535731862
 30
0.0
  0
VERTEX
  5
62A
  8
0
 10
32.554340019935843
 20
198.3918451294566978
 30
0.0
  0
VERTEX
  5
62B
  8
0
 10
32.3751970381553917
 20
198.2884168807023002
 30
0.0
  0
VERTEX
  5
62C
  8
0
 10
32.1957094378701925
 20
198.1847896663614961
 30
0.0
  0
VERTEX
  5
62D
  8
0
 10
32.0159038217376022
 20
198.0809788454855038
 30
0.0
  0
VERTEX
  5
62E
  8
0
 10
31.8358054253964191
 20
197.9769989878772947
 30
0.0
  0
VERTEX
  5
62F
  8
0
 10
31.6554336358451316
 20
197.8728612866256071
 30
0.0
  0
VERTEX
  5
630
  8
0
 10
31.4748062762508916
 20
197.7685760319409098
 30
0.0
  0
VERTEX
  5
631
  8
0
 10
31.2939411697644196
 20
197.664153514024008
 30
0.0
  0
VERTEX
  5
632
  8
0
 10
31.1128561395364613
 20
197.5596040230755932
 30
0.0
  0
VERTEX
  5
633
  8
0
 10
30.9315690087176698
 20
197.4549378492968117
 30
0.0
  0
VERTEX
  5
634
  8
0
 10
30.7500976004587585
 20
197.3501652828882982
 30
0.0
  0
VERTEX
  5
635
  8
0
 10
30.5684609340632996
 20
197.2452973046501938
 30
0.0
  0
VERTEX
  5
636
  8
0
 10
30.3866865760707903
 20
197.140349830131413
 30
0.0
  0
VERTEX
  5
637
  8
0
 10
30.2048058121656595
 20
197.0353409221303878
 30
0.0
  0
VERTEX
  5
638
  8
0
 10
30.0228499433094704
 20
196.9302886522656877
 30
0.0
  0
VERTEX
  5
639
  8
0
 10
29.8408502704637613
 20
196.8252110921557971
 30
0.0
  0
VERTEX
  5
63A
  8
0
 10
29.6588380945900703
 20
196.7201263134193141
 30
0.0
  0
VERTEX
  5
63B
  8
0
 10
29.4768447166499108
 20
196.6150523876748082
 30
0.0
  0
VERTEX
  5
63C
  8
0
 10
29.2949012511242906
 20
196.5100072788762873
 30
0.0
  0
VERTEX
  5
63D
  8
0
 10
29.1130364630498093
 20
196.4050075945253866
 30
0.0
  0
VERTEX
  5
63E
  8
0
 10
28.9312775107501885
 20
196.3000690144874909
 30
0.0
  0
VERTEX
  5
63F
  8
0
 10
28.749651521371451
 20
196.1952072006278911
 30
0.0
  0
VERTEX
  5
640
  8
0
 10
28.5681856220595307
 20
196.0904378148113949
 30
0.0
  0
VERTEX
  5
641
  8
0
 10
28.386906939960479
 20
195.9857765189032079
 30
0.0
  0
VERTEX
  5
642
  8
0
 10
28.2058422439302987
 20
195.8812387679093945
 30
0.0
  0
VERTEX
  5
643
  8
0
 10
28.0250114166110507
 20
195.7768360410788944
 30
0.0
  0
VERTEX
  5
644
  8
0
 10
27.844428132157649
 20
195.6725762331886074
 30
0.0
  0
VERTEX
  5
645
  8
0
 10
27.664105842436669
 20
195.5684671106772896
 30
0.0
  0
VERTEX
  5
646
  8
0
 10
27.4840579993147003
 20
195.4645164399838109
 30
0.0
  0
VERTEX
  5
647
  8
0
 10
27.3042980546582896
 20
195.3607319875468988
 30
0.0
  0
VERTEX
  5
648
  8
0
 10
27.1248396487202115
 20
195.2571216285701894
 30
0.0
  0
VERTEX
  5
649
  8
0
 10
26.9457024751816903
 20
195.1536967332058055
 30
0.0
  0
VERTEX
  5
64A
  8
0
 10
26.7669134265917705
 20
195.0504728278743016
 30
0.0
  0
VERTEX
  5
64B
  8
0
 10
26.5884998151325398
 20
194.9474656812712112
 30
0.0
  0
VERTEX
  5
64C
  8
0
 10
26.410488952986011
 20
194.8446910620922949
 30
0.0
  0
VERTEX
  5
64D
  8
0
 10
26.2329081523342111
 20
194.7421647390330008
 30
0.0
  0
VERTEX
  5
64E
  8
0
 10
26.0557845466565006
 20
194.6399023776153001
 30
0.0
  0
VERTEX
  5
64F
  8
0
 10
25.8791146140763715
 20
194.5379019444823996
 30
0.0
  0
VERTEX
  5
650
  8
0
 10
25.7028296859348302
 20
194.4361237937658018
 30
0.0
  0
VERTEX
  5
651
  8
0
 10
25.5268527613441201
 20
194.3345234689822973
 30
0.0
  0
VERTEX
  5
652
  8
0
 10
25.3511068394165591
 20
194.2330565136483926
 30
0.0
  0
VERTEX
  5
653
  8
0
 10
25.1755149192644296
 20
194.131678471280992
 30
0.0
  0
VERTEX
  5
654
  8
0
 10
25.0000000000000284
 20
194.030344885396886
 30
0.0
  0
SEQEND
  5
655
  8
0
  0
POLYLINE
  5
553
  8
0
 66
     1
 10
0.0
 20
0.0
 30
0.0
  0
VERTEX
  5
656
  8
0
 10
34.5000000000000284
 20
199.5151724426982867
 30
0.0
  0
VERTEX
  5
657
  8
0
 10
34.5000000000000284
 20
199.7437408928363141
 30
0.0
  0
VERTEX
  5
658
  8
0
 10
34.5000000000000284
 20
199.9724312565568027
 30
0.0
  0
VERTEX
  5
659
  8
0
 10
34.5000000000000284
 20
200.2013654474424129
 30
0.0
  0
VERTEX
  5
65A
  8
0
 10
34.5000000000000284
 20
200.4306653790756059
 30
0.0
  0
VERTEX
  5
65B
  8
0
 10
34.5000000000000284
 20
200.6604529650390134
 30
0.0
  0
VERTEX
  5
65C
  8
0
 10
34.5000000000000284
 20
200.8908498729815051
 30
0.0
  0
VERTEX
  5
65D
  8
0
 10
34.5000000000000284
 20
201.1219294881666997
 30
0.0
  0
VERTEX
  5
65E
  8
0
 10
34.5000000000000284
 20
201.3536593060223083
 30
0.0
  0
VERTEX
  5
65F
  8
0
 10
34.5000000000000284
 20
201.5859927744627953
 30
0.0
  0
VERTEX
  5
660
  8
0
 10
34.5000000000000284
 20
201.8188833414023975
 30
0.0
  0
VERTEX
  5
661
  8
0
 10
34.5000000000000284
 20
202.0522844547554939
 30
0.0
  0
VERTEX
  5
662
  8
0
 10
34.5000000000000284
 20
202.2861497020167008
 30
0.0
  0
VERTEX
  5
663
  8
0
 10
34.5000000000000284
 20
202.5204416527514013
 30
0.0
  0
VERTEX
  5
664
  8
0
 10
34.5000000000000284
 20
202.7551371596096033
 30
0.0
  0
VERTEX
  5
665
  8
0
 10
34.5000000000000284
 20
202.9902143470615954
 30
0.0
  0
VERTEX
  5
666
  8
0
 10
34.5000000000000284
 20
203.2256513395776096
 30
0.0
  0
VERTEX
  5
667
  8
0
 10
34.5000000000000284
 20
203.4614262616277927
 30
0.0
  0
VERTEX
  5
668
  8
0
 10
34.5000000000000284
 20
203.6975167700273914
 30
0.0
  0
VERTEX
  5
669
  8
0
 10
34.5000000000000284
 20
203.9338862209015986
 30
0.0
  0
VERTEX
  5
66A
  8
0
 10
34.5000000000000284
 20
204.1704813697502061
 30
0.0
  0
VERTEX
  5
66B
  8
0
 10
34.5000000000000284
 20
204.4072480412216919
 30
0.0
  0
VERTEX
  5
66C
  8
0
 10
34.5000000000000284
 20
204.6441320599647042
 30
0.0
  0
VERTEX
  5
66D
  8
0
 10
34.5000000000000284
 20
204.8810792506276073
 30
0.0
  0
VERTEX
  5
66E
  8
0
 10
34.5000000000000284
 20
205.1180356623760019
 30
0.0
  0
VERTEX
  5
66F
  8
0
 10
34.5000000000000284
 20
205.3549552789440895
 30
0.0
  0
VERTEX
  5
670
  8
0
 10
34.5000000000000284
 20
205.5918019544274102
 30
0.0
  0
VERTEX
  5
671
  8
0
 10
34.5000000000000284
 20
205.8285401603903892
 30
0.0
  0
VERTEX
  5
672
  8
0
 10
34.5000000000000284
 20
206.0651343683973948
 30
0.0
  0
VERTEX
  5
673
  8
0
 10
34.5000000000000284
 20
206.301549050012909
 30
0.0
  0
VERTEX
  5
674
  8
0
 10
34.5000000000000284
 20
206.5377484976762901
 30
0.0
  0
VERTEX
  5
675
  8
0
 10
34.5000000000000284
 20
206.7736896134449012
 30
0.0
  0
VERTEX
  5
676
  8
0
 10
34.5000000000000284
 20
207.0093194444658025
 30
0.0
  0
VERTEX
  5
677
  8
0
 10
34.5000000000000284
 20
207.2445843530225886
 30
0.0
  0
VERTEX
  5
678
  8
0
 10
34.5000000000000284
 20
207.4794307013989112
 30
0.0
  0
VERTEX
  5
679
  8
0
 10
34.5000000000000284
 20
207.713804851878308
 30
0.0
  0
VERTEX
  5
67A
  8
0
 10
34.5000000000000284
 20
207.9476531667446011
 30
0.0
  0
VERTEX
  5
67B
  8
0
 10
34.5000000000000284
 20
208.1809220082814136
 30
0.0
  0
VERTEX
  5
67C
  8
0
 10
34.5000000000000284
 20
208.4135577387723117
 30
0.0
  0
VERTEX
  5
67D
  8
0
 10
34.5000000000000284
 20
208.645515751297097
 30
0.0
  0
VERTEX
  5
67E
  8
0
 10
34.5000000000000284
 20
208.8768327669363032
 30
0.0
  0
VERTEX
  5
67F
  8
0
 10
34.5000000000000284
 20
209.1075885666199099
 30
0.0
  0
VERTEX
  5
680
  8
0
 10
34.5000000000000284
 20
209.3378633240560873
 30
0.0
  0
VERTEX
  5
681
  8
0
 10
34.5000000000000284
 20
209.5677372129526077
 30
0.0
  0
VERTEX
  5
682
  8
0
 10
34.5000000000000284
 20
209.7972904070174991
 30
0.0
  0
VERTEX
  5
683
  8
0
 10
34.5000000000000284
 20
210.0266030799585906
 30
0.0
  0
VERTEX
  5
684
  8
0
 10
34.5000000000000284
 20
210.2557554054837965
 30
0.0
  0
VERTEX
  5
685
  8
0
 10
34.5000000000000284
 20
210.4848275573012018
 30
0.0
  0
SEQEND
  5
686
  8
0
  0
POLYLINE
  5
554
  8
0
 66
     1
 10
0.0
 20
0.0
 30
0.0
  0
VERTEX
  5
687
  8
0
 10
34.5000000000000284
 20
210.4848275573010881
 30
0.0
  0
VERTEX
  5
688
  8
0
 10
34.3243922174244673
 20
210.5862147578430097
 30
0.0
  0
VERTEX
  5
689
  8
0
 10
34.1487163667582081
 20
210.687641257515196
 30
0.0
  0
VERTEX
  5
68A
  8
0
 10
33.9729043799105526
 20
210.7891463554485085
 30
0.0
  0
VERTEX
  5
68B
  8
0
 10
33.7968881887907813
 20
210.8907693507732972
 30
0.0
  0
VERTEX
  5
68C
  8
0
 10
33.6205997253081819
 20
210.9925495426199973
 30
0.0
  0
VERTEX
  5
68D
  8
0
 10
33.443970921372113
 20
211.0945262301191008
 30
0.0
  0
VERTEX
  5
68E
  8
0
 10
33.2669337088918269
 20
211.1967387124012134
 30
0.0
  0
VERTEX
  5
68F
  8
0
 10
33.0894352276751817
 20
211.2992175083124096
 30
0.0
  0
VERTEX
  5
690
  8
0
 10
32.9114857173530595
 20
211.4019567059989981
 30
0.0
  0
VERTEX
  5
691
  8
0
 10
32.733111780554168
 20
211.5049409464261885
 30
0.0
  0
VERTEX
  5
692
  8
0
 10
32.554340019935843
 20
211.6081548705427906
 30
0.0
  0
VERTEX
  5
693
  8
0
 10
32.3751970381553917
 20
211.7115831192971029
 30
0.0
  0
VERTEX
  5
694
  8
0
 10
32.1957094378701925
 20
211.8152103336379923
 30
0.0
  0
VERTEX
  5
695
  8
0
 10
32.0159038217376022
 20
211.919021154514013
 30
0.0
  0
VERTEX
  5
696
  8
0
 10
31.8358054253964191
 20
212.0230010121221085
 30
0.0
  0
VERTEX
  5
697
  8
0
 10
31.6554336358451316
 20
212.127138713373796
 30
0.0
  0
VERTEX
  5
698
  8
0
 10
31.4748062762508916
 20
212.2314239680584933
 30
0.0
  0
VERTEX
  5
699
  8
0
 10
31.2939411697644196
 20
212.3358464859755088
 30
0.0
  0
VERTEX
  5
69A
  8
0
 10
31.1128561395364613
 20
212.4403959769238099
 30
0.0
  0
VERTEX
  5
69B
  8
0
 10
30.9315690087176698
 20
212.5450621507025915
 30
0.0
  0
VERTEX
  5
69C
  8
0
 10
30.7500976004587585
 20
212.649834717111105
 30
0.0
  0
VERTEX
  5
69D
  8
0
 10
30.5684609340632711
 20
212.7547026953492946
 30
0.0
  0
VERTEX
  5
69E
  8
0
 10
30.3866865760707583
 20
212.8596501698679901
 30
0.0
  0
VERTEX
  5
69F
  8
0
 10
30.2048058121656311
 20
212.9646590778691007
 30
0.0
  0
VERTEX
  5
6A0
  8
0
 10
30.0228499433094385
 20
213.0697113477338007
 30
0.0
  0
VERTEX
  5
6A1
  8
0
 10
29.8408502704637293
 20
213.1747889078436913
 30
0.0
  0
VERTEX
  5
6A2
  8
0
 10
29.6588380945900383
 20
213.2798736865802027
 30
0.0
  0
VERTEX
  5
6A3
  8
0
 10
29.4768447166498788
 20
213.3849476123247086
 30
0.0
  0
VERTEX
  5
6A4
  8
0
 10
29.2949012511242906
 20
213.4899927211232011
 30
0.0
  0
VERTEX
  5
6A5
  8
0
 10
29.1130364630498093
 20
213.5949924054741018
 30
0.0
  0
VERTEX
  5
6A6
  8
0
 10
28.9312775107501885
 20
213.6999309855119122
 30
0.0
  0
VERTEX
  5
6A7
  8
0
 10
28.749651521371451
 20
213.804792799371512
 30
0.0
  0
VERTEX
  5
6A8
  8
0
 10
28.5681856220595307
 20
213.9095621851880082
 30
0.0
  0
VERTEX
  5
6A9
  8
0
 10
28.386906939960479
 20
214.0142234810963089
 30
0.0
  0
VERTEX
  5
6AA
  8
0
 10
28.2058422439302987
 20
214.1187612320900087
 30
0.0
  0
VERTEX
  5
6AB
  8
0
 10
28.0250114166110507
 20
214.223163958920594
 30
0.0
  0
VERTEX
  5
6AC
  8
0
 10
27.844428132157649
 20
214.3274237668109095
 30
0.0
  0
VERTEX
  5
6AD
  8
0
 10
27.664105842436669
 20
214.4315328893221988
 30
0.0
  0
VERTEX
  5
6AE
  8
0
 10
27.4840579993147003
 20
214.535483560015706
 30
0.0
  0
VERTEX
  5
6AF
  8
0
 10
27.3042980546582896
 20
214.6392680124525896
 30
0.0
  0
VERTEX
  5
6B0
  8
0
 10
27.1248396487202115
 20
214.742878371429299
 30
0.0
  0
VERTEX
  5
6B1
  8
0
 10
26.9457024751816903
 20
214.8463032667935977
 30
0.0
  0
VERTEX
  5
6B2
  8
0
 10
26.7669134265917705
 20
214.9495271721251868
 30
0.0
  0
VERTEX
  5
6B3
  8
0
 10
26.5884998151325398
 20
215.0525343187281919
 30
0.0
  0
VERTEX
  5
6B4
  8
0
 10
26.410488952986011
 20
215.1553089379071935
 30
0.0
  0
VERTEX
  5
6B5
  8
0
 10
26.2329081523342111
 20
215.2578352609664023
 30
0.0
  0
VERTEX
  5
6B6
  8
0
 10
26.0557845466565006
 20
215.360097622384302
 30
0.0
  0
VERTEX
  5
6B7
  8
0
 10
25.8791146140763715
 20
215.4620980555170888
 30
0.0
  0
VERTEX
  5
6B8
  8
0
 10
25.7028296859348302
 20
215.5638762062336866
 30
0.0
  0
VERTEX
  5
6B9
  8
0
 10
25.5268527613441201
 20
215.6654765310173048
 30
0.0
  0
VERTEX
  5
6BA
  8
0
 10
25.3511068394165591
 20
215.7669434863510958
 30
0.0
  0
VERTEX
  5
6BB
  8
0
 10
25.1755149192644296
 20
215.8683215287184112
 30
0.0
  0
VERTEX
  5
6BC
  8
0
 10
25.0000000000000284
 20
215.9696551146024888
 30
0.0
  0
SEQEND
  5
6BD
  8
0
  0
POLYLINE
  5
555
  8
0
 66
     1
 10
0.0
 20
0.0
 30
0.0
  0
VERTEX
  5
6BE
  8
0
 10
15.5000000000000302
 20
210.4848275573010881
 30
0.0
  0
VERTEX
  5
6BF
  8
0
 10
15.6756077825755806
 20
210.5862147578430097
 30
0.0
  0
VERTEX
  5
6C0
  8
0
 10
15.8512836332418505
 20
210.687641257515196
 30
0.0
  0
VERTEX
  5
6C1
  8
0
 10
16.0270956200895114
 20
210.7891463554485085
 30
0.0
  0
VERTEX
  5
6C2
  8
0
 10
16.2031118112092791
 20
210.8907693507732972
 30
0.0
  0
VERTEX
  5
6C3
  8
0
 10
16.3794002746918395
 20
210.9925495426199973
 30
0.0
  0
VERTEX
  5
6C4
  8
0
 10
16.5560290786279403
 20
211.0945262301191008
 30
0.0
  0
VERTEX
  5
6C5
  8
0
 10
16.73306629110823
 20
211.1967387124012134
 30
0.0
  0
VERTEX
  5
6C6
  8
0
 10
16.9105647723248715
 20
211.2992175083124096
 30
0.0
  0
VERTEX
  5
6C7
  8
0
 10
17.0885142826470009
 20
211.4019567059989981
 30
0.0
  0
VERTEX
  5
6C8
  8
0
 10
17.2668882194458888
 20
211.5049409464261885
 30
0.0
  0
VERTEX
  5
6C9
  8
0
 10
17.4456599800642493
 20
211.6081548705427906
 30
0.0
  0
VERTEX
  5
6CA
  8
0
 10
17.62480296184469
 20
211.7115831192971029
 30
0.0
  0
VERTEX
  5
6CB
  8
0
 10
17.8042905621298893
 20
211.8152103336379923
 30
0.0
  0
VERTEX
  5
6CC
  8
0
 10
17.9840961782624902
 20
211.919021154514013
 30
0.0
  0
VERTEX
  5
6CD
  8
0
 10
18.1641945746036413
 20
212.0230010121221085
 30
0.0
  0
VERTEX
  5
6CE
  8
0
 10
18.3445663641549288
 20
212.127138713373796
 30
0.0
  0
VERTEX
  5
6CF
  8
0
 10
18.5251937237491688
 20
212.2314239680584933
 30
0.0
  0
VERTEX
  5
6D0
  8
0
 10
18.7060588302356301
 20
212.3358464859755088
 30
0.0
  0
VERTEX
  5
6D1
  8
0
 10
18.8871438604635884
 20
212.4403959769238099
 30
0.0
  0
VERTEX
  5
6D2
  8
0
 10
19.0684309912823799
 20
212.5450621507025915
 30
0.0
  0
VERTEX
  5
6D3
  8
0
 10
19.2499023995412983
 20
212.649834717111105
 30
0.0
  0
VERTEX
  5
6D4
  8
0
 10
19.4315390659367893
 20
212.7547026953492946
 30
0.0
  0
VERTEX
  5
6D5
  8
0
 10
19.6133134239292986
 20
212.8596501698679901
 30
0.0
  0
VERTEX
  5
6D6
  8
0
 10
19.7951941878344186
 20
212.9646590778691007
 30
0.0
  0
VERTEX
  5
6D7
  8
0
 10
19.9771500566906184
 20
213.0697113477338007
 30
0.0
  0
VERTEX
  5
6D8
  8
0
 10
20.1591497295363205
 20
213.1747889078436913
 30
0.0
  0
VERTEX
  5
6D9
  8
0
 10
20.3411619054100186
 20
213.2798736865802027
 30
0.0
  0
VERTEX
  5
6DA
  8
0
 10
20.5231552833501816
 20
213.3849476123247086
 30
0.0
  0
VERTEX
  5
6DB
  8
0
 10
20.7050987488757698
 20
213.4899927211232011
 30
0.0
  0
VERTEX
  5
6DC
  8
0
 10
20.8869635369502511
 20
213.5949924054741018
 30
0.0
  0
VERTEX
  5
6DD
  8
0
 10
21.0687224892498612
 20
213.6999309855119122
 30
0.0
  0
VERTEX
  5
6DE
  8
0
 10
21.2503484786286414
 20
213.804792799371512
 30
0.0
  0
VERTEX
  5
6DF
  8
0
 10
21.4318143779405297
 20
213.9095621851880082
 30
0.0
  0
VERTEX
  5
6E0
  8
0
 10
21.6130930600395708
 20
214.0142234810963089
 30
0.0
  0
VERTEX
  5
6E1
  8
0
 10
21.794157756069751
 20
214.1187612320900087
 30
0.0
  0
VERTEX
  5
6E2
  8
0
 10
21.9749885833890097
 20
214.223163958920594
 30
0.0
  0
VERTEX
  5
6E3
  8
0
 10
22.1555718678424114
 20
214.3274237668109095
 30
0.0
  0
VERTEX
  5
6E4
  8
0
 10
22.3358941575633914
 20
214.4315328893221988
 30
0.0
  0
VERTEX
  5
6E5
  8
0
 10
22.5159420006853601
 20
214.535483560015706
 30
0.0
  0
VERTEX
  5
6E6
  8
0
 10
22.6957019453417708
 20
214.6392680124525896
 30
0.0
  0
VERTEX
  5
6E7
  8
0
 10
22.8751603512798489
 20
214.742878371429299
 30
0.0
  0
VERTEX
  5
6E8
  8
0
 10
23.0542975248183701
 20
214.8463032667935977
 30
0.0
  0
VERTEX
  5
6E9
  8
0
 10
23.2330865734082899
 20
214.9495271721251868
 30
0.0
  0
VERTEX
  5
6EA
  8
0
 10
23.4115001848675206
 20
215.0525343187281919
 30
0.0
  0
VERTEX
  5
6EB
  8
0
 10
23.5895110470140388
 20
215.1553089379071935
 30
0.0
  0
VERTEX
  5
6EC
  8
0
 10
23.7670918476658493
 20
215.2578352609664023
 30
0.0
  0
VERTEX
  5
6ED
  8
0
 10
23.9442154533435598
 20
215.360097622384302
 30
0.0
  0
VERTEX
  5
6EE
  8
0
 10
24.1208853859236889
 20
215.4620980555170888
 30
0.0
  0
VERTEX
  5
6EF
  8
0
 10
24.2971703140652302
 20
215.5638762062336866
 30
0.0
  0
VERTEX
  5
6F0
  8
0
 10
24.4731472386559403
 20
215.6654765310173048
 30
0.0
  0
VERTEX
  5
6F1
  8
0
 10
24.6488931605835013
 20
215.7669434863510958
 30
0.0
  0
VERTEX
  5
6F2
  8
0
 10
24.8244850807356308
 20
215.8683215287184112
 30
0.0
  0
VERTEX
  5
6F3
  8
0
 10
25.0000000000000284
 20
215.9696551146024888
 30
0.0
  0
SEQEND
  5
6F4
  8
0
  0
POLYLINE
  5
556
  8
0
 66
     1
 10
0.0
 20
0.0
 30
0.0
  0
VERTEX
  5
6F5
  8
0
 10
15.5000000000000302
 20
199.5151724426982867
 30
0.0
  0
VERTEX
  5
6F6
  8
0
 10
15.5000000000000302
 20
199.7437408928363141
 30
0.0
  0
VERTEX
  5
6F7
  8
0
 10
15.5000000000000302
 20
199.9724312565568027
 30
0.0
  0
VERTEX
  5
6F8
  8
0
 10
15.5000000000000302
 20
200.2013654474424129
 30
0.0
  0
VERTEX
  5
6F9
  8
0
 10
15.5000000000000302
 20
200.4306653790756059
 30
0.0
  0
VERTEX
  5
6FA
  8
0
 10
15.5000000000000302
 20
200.6604529650390134
 30
0.0
  0
VERTEX
  5
6FB
  8
0
 10
15.5000000000000302
 20
200.8908498729815051
 30
0.0
  0
VERTEX
  5
6FC
  8
0
 10
15.5000000000000302
 20
201.1219294881666997
 30
0.0
  0
VERTEX
  5
6FD
  8
0
 10
15.5000000000000302
 20
201.3536593060223083
 30
0.0
  0
VERTEX
  5
6FE
  8
0
 10
15.5000000000000302
 20
201.5859927744627953
 30
0.0
  0
VERTEX
  5
6FF
  8
0
 10
15.5000000000000302
 20
201.8188833414023975
 30
0.0
  0
VERTEX
  5
700
  8
0
 10
15.5000000000000302
 20
202.0522844547554939
 30
0.0
  0
VERTEX
  5
701
  8
0
 10
15.5000000000000302
 20
202.2861497020167008
 30
0.0
  0
VERTEX
  5
702
  8
0
 10
15.5000000000000302
 20
202.5204416527514013
 30
0.0
  0
VERTEX
  5
703
  8
0
 10
15.5000000000000302
 20
202.7551371596096033
 30
0.0
  0
VERTEX
  5
704
  8
0
 10
15.5000000000000302
 20
202.9902143470615954
 30
0.0
  0
VERTEX
  5
705
  8
0
 10
15.5000000000000302
 20
203.2256513395776096
 30
0.0
  0
VERTEX
  5
706
  8
0
 10
15.5000000000000302
 20
203.4614262616277927
 30
0.0
  0
VERTEX
  5
707
  8
0
 10
15.5000000000000302
 20
203.6975167700273914
 30
0.0
  0
VERTEX
  5
708
  8
0
 10
15.5000000000000302
 20
203.9338862209015986
 30
0.0
  0
VERTEX
  5
709
  8
0
 10
15.5000000000000302
 20
204.1704813697502061
 30
0.0
  0
VERTEX
  5
70A
  8
0
 10
15.5000000000000302
 20
204.4072480412216919
 30
0.0
  0
VERTEX
  5
70B
  8
0
 10
15.5000000000000302
 20
204.6441320599647042
 30
0.0
  0
VERTEX
  5
70C
  8
0
 10
15.5000000000000302
 20
204.8810792506276073
 30
0.0
  0
VERTEX
  5
70D
  8
0
 10
15.5000000000000302
 20
205.1180356623760019
 30
0.0
  0
VERTEX
  5
70E
  8
0
 10
15.5000000000000302
 20
205.3549552789440895
 30
0.0
  0
VERTEX
  5
70F
  8
0
 10
15.5000000000000302
 20
205.5918019544274102
 30
0.0
  0
VERTEX
  5
710
  8
0
 10
15.5000000000000302
 20
205.8285401603903892
 30
0.0
  0
VERTEX
  5
711
  8
0
 10
15.5000000000000302
 20
206.0651343683973948
 30
0.0
  0
VERTEX
  5
712
  8
0
 10
15.5000000000000302
 20
206.301549050012909
 30
0.0
  0
VERTEX
  5
713
  8
0
 10
15.5000000000000302
 20
206.5377484976762901
 30
0.0
  0
VERTEX
  5
714
  8
0
 10
15.5000000000000302
 20
206.7736896134449012
 30
0.0
  0
VERTEX
  5
715
  8
0
 10
15.5000000000000302
 20
207.0093194444658025
 30
0.0
  0
VERTEX
  5
716
  8
0
 10
15.5000000000000302
 20
207.2445843530225886
 30
0.0
  0
VERTEX
  5
717
  8
0
 10
15.5000000000000302
 20
207.4794307013989112
 30
0.0
  0
VERTEX
  5
718
  8
0
 10
15.5000000000000302
 20
207.713804851878308
 30
0.0
  0
VERTEX
  5
719
  8
0
 10
15.5000000000000302
 20
207.9476531667446011
 30
0.0
  0
VERTEX
  5
71A
  8
0
 10
15.5000000000000302
 20
208.1809220082814136
 30
0.0
  0
VERTEX
  5
71B
  8
0
 10
15.5000000000000302
 20
208.4135577387723117
 30
0.0
  0
VERTEX
  5
71C
  8
0
 10
15.5000000000000302
 20
208.645515751297097
 30
0.0
  0
VERTEX
  5
71D
  8
0
 10
15.5000000000000302
 20
208.8768327669363032
 30
0.0
  0
VERTEX
  5
71E
  8
0
 10
15.5000000000000302
 20
209.1075885666199099
 30
0.0
  0
VERTEX
  5
71F
  8
0
 10
15.5000000000000302
 20
209.3378633240560873
 30
0.0
  0
VERTEX
  5
720
  8
0
 10
15.5000000000000302
 20
209.5677372129526077
 30
0.0
  0
VERTEX
  5
721
  8
0
 10
15.5000000000000302
 20
209.7972904070174991
 30
0.0
  0
VERTEX
  5
722
  8
0
 10
15.5000000000000302
 20
210.0266030799585906
 30
0.0
  0
VERTEX
  5
723
  8
0
 10
15.5000000000000302
 20
210.2557554054837965
 30
0.0
  0
VERTEX
  5
724
  8
0
 10
15.5000000000000302
 20
210.4848275573012018
 30
0.0
  0
SEQEND
  5
725
  8
0
  0
ENDSEC
  0
EOF
