  0
SECTION
  2
HEADER
  9
$ACADVER
  1
AC1009
  9
$INSBASE
 10
0.0
 20
0.0
 30
0.0
  9
$EXTMIN
 10
0.0
 20
-2.960436562073669
 30
0.0
  9
$EXTMAX
 10
120.0000000000006963
 20
297.9999999999990905
 30
0.0
  9
$LIMMIN
 10
0.0
 20
0.0
  9
$LIMMAX
 10
375.0
 20
270.0
  9
$ORTHOMODE
 70
     1
  9
$REGENMODE
 70
     1
  9
$FILLMODE
 70
     1
  9
$QTEXTMODE
 70
     0
  9
$MIRRTEXT
 70
     0
  9
$DRAGMODE
 70
     2
  9
$LTSCALE
 40
6.0
  9
$OSMODE
 70
    37
  9
$ATTMODE
 70
     1
  9
$TEXTSIZE
 40
0.2
  9
$TRACEWID
 40
0.05
  9
$TEXTSTYLE
  7
STANDARD
  9
$CLAYER
  8
0
  9
$CELTYPE
  6
BYLAYER
  9
$CECOLOR
 62
   256
  9
$DIMSCALE
 40
1.0
  9
$DIMASZ
 40
3.0
  9
$DIMEXO
 40
1.0
  9
$DIMDLI
 40
6.0
  9
$DIMRND
 40
0.0
  9
$DIMDLE
 40
0.0
  9
$DIMEXE
 40
1.0
  9
$DIMTP
 40
495.0
  9
$DIMTM
 40
0.0
  9
$DIMTXT
 40
3.0
  9
$DIMCEN
 40
0.0
  9
$DIMTSZ
 40
0.0
  9
$DIMTOL
 70
     0
  9
$DIMLIM
 70
     0
  9
$DIMTIH
 70
     0
  9
$DIMTOH
 70
     0
  9
$DIMSE1
 70
     0
  9
$DIMSE2
 70
     0
  9
$DIMTAD
 70
     1
  9
$DIMZIN
 70
     0
  9
$DIMBLK
  1

  9
$DIMASO
 70
     0
  9
$DIMSHO
 70
     0
  9
$DIMPOST
  1

  9
$DIMAPOST
  1

  9
$DIMALT
 70
     0
  9
$DIMALTD
 70
     2
  9
$DIMALTF
 40
25.3999999999999986
  9
$DIMLFAC
 40
1.0
  9
$DIMTOFL
 70
     1
  9
$DIMTVP
 40
0.0
  9
$DIMTIX
 70
     1
  9
$DIMSOXD
 70
     0
  9
$DIMSAH
 70
     0
  9
$DIMBLK1
  1

  9
$DIMBLK2
  1

  9
$DIMSTYLE
  2
STANDARD
  9
$DIMCLRD
 70
     0
  9
$DIMCLRE
 70
     0
  9
$DIMCLRT
 70
     4
  9
$DIMTFAC
 40
1.0
  9
$DIMGAP
 40
1.0
  9
$LUNITS
 70
     2
  9
$LUPREC
 70
     4
  9
$SKETCHINC
 40
0.1
  9
$FILLETRAD
 40
0.0
  9
$AUNITS
 70
     0
  9
$AUPREC
 70
     0
  9
$MENU
  1
C:\R13\WIN\SUPPORT\ACAD-I
  9
$ELEVATION
 40
0.0
  9
$PELEVATION
 40
0.0
  9
$THICKNESS
 40
0.0
  9
$LIMCHECK
 70
     0
  9
$BLIPMODE
 70
     0
  9
$CHAMFERA
 40
0.0
  9
$CHAMFERB
 40
0.0
  9
$SKPOLY
 70
     0
  9
$TDCREATE
 40
2451961.7115277778357267
  9
$TDUPDATE
 40
2460580.5716666667722166
  9
$TDINDWG
 40
0.1520517014
  9
$TDUSRTIMER
 40
2456598.1135275578126311
  9
$USRTIMER
 70
     1
  9
$ANGBASE
 50
0.0
  9
$ANGDIR
 70
     0
  9
$PDMODE
 70
     0
  9
$PDSIZE
 40
0.0
  9
$PLINEWID
 40
0.0
  9
$COORDS
 70
     1
  9
$SPLFRAME
 70
     0
  9
$SPLINETYPE
 70
     6
  9
$SPLINESEGS
 70
     8
  9
$ATTDIA
 70
     1
  9
$ATTREQ
 70
     1
  9
$HANDLING
 70
     1
  9
$HANDSEED
  5
9FB
  9
$SURFTAB1
 70
     6
  9
$SURFTAB2
 70
     6
  9
$SURFTYPE
 70
     6
  9
$SURFU
 70
     6
  9
$SURFV
 70
     6
  9
$UCSNAME
  2

  9
$UCSORG
 10
0.0
 20
0.0
 30
0.0
  9
$UCSXDIR
 10
1.0
 20
0.0
 30
0.0
  9
$UCSYDIR
 10
0.0
 20
1.0
 30
0.0
  9
$PUCSNAME
  2

  9
$PUCSORG
 10
0.0
 20
0.0
 30
0.0
  9
$PUCSXDIR
 10
1.0
 20
0.0
 30
0.0
  9
$PUCSYDIR
 10
0.0
 20
1.0
 30
0.0
  9
$USERI1
 70
     4
  9
$USERI2
 70
     1
  9
$USERI3
 70
     0
  9
$USERI4
 70
     0
  9
$USERI5
 70
     0
  9
$USERR1
 40
1.0
  9
$USERR2
 40
3.0
  9
$USERR3
 40
3.0
  9
$USERR4
 40
3.0
  9
$USERR5
 40
10.0
  9
$WORLDVIEW
 70
     1
  9
$SHADEDGE
 70
     3
  9
$SHADEDIF
 70
    70
  9
$TILEMODE
 70
     1
  9
$MAXACTVP
 70
    16
  9
$PLIMCHECK
 70
     0
  9
$PEXTMIN
 10
1.0000000000000000E+20
 20
1.0000000000000000E+20
 30
1.0000000000000000E+20
  9
$PEXTMAX
 10
-1.0000000000000000E+20
 20
-1.0000000000000000E+20
 30
-1.0000000000000000E+20
  9
$PLIMMIN
 10
0.0
 20
0.0
  9
$PLIMMAX
 10
12.0
 20
9.0
  9
$UNITMODE
 70
     0
  9
$VISRETAIN
 70
     0
  9
$PLINEGEN
 70
     0
  9
$PSLTSCALE
 70
     0
  0
ENDSEC
  0
SECTION
  2
TABLES
  0
TABLE
  2
VPORT
 70
     1
  0
VPORT
  2
*ACTIVE
 70
     0
 10
0.0
 20
0.0
 11
1.0
 21
1.0
 12
364.020935960591089
 22
155.0
 13
0.0
 23
0.0
 14
10.0
 24
10.0
 15
10.0
 25
10.0
 16
0.0
 26
0.0
 36
1.0
 17
0.0
 27
0.0
 37
0.0
 40
310.0
 41
2.3485221674876842
 42
50.0
 43
0.0
 44
0.0
 50
0.0
 51
0.0
 71
    16
 72
   100
 73
     1
 74
     0
 75
     0
 76
     0
 77
     0
 78
     0
  0
ENDTAB
  0
TABLE
  2
LTYPE
 70
     3
  0
LTYPE
  2
CONTINUOUS
 70
     0
  3
Solid Line
 72
    65
 73
     0
 40
0.0
  0
LTYPE
  2
CENTER
 70
     0
  3
____ _ ____ _ ____ _ ____ _ ____ _ ____ _ ____
 72
    65
 73
     4
 40
2.0
 49
1.25
 49
-0.25
 49
0.25
 49
-0.25
  0
LTYPE
  2
HIDDEN
 70
     0
  3
Hidden __ __ __ __ __ __ __ __ __ __ __ __ __ __
 72
    65
 73
     2
 40
1.905
 49
1.27
 49
-0.635
  0
ENDTAB
  0
TABLE
  2
LAYER
 70
     4
  0
LAYER
  2
0
 70
     0
 62
     7
  6
CONTINUOUS
  0
LAYER
  2
1
 70
     0
 62
     1
  6
CENTER
  0
LAYER
  2
3
 70
     0
 62
     3
  6
CONTINUOUS
  0
LAYER
  2
2
 70
     0
 62
     2
  6
HIDDEN
  0
ENDTAB
  0
TABLE
  2
STYLE
 70
     2
  0
STYLE
  2
STANDARD
 70
     0
 40
0.0
 41
1.0
 50
0.0
 71
     0
 42
0.2
  3
SIMPLEX
  4
BIGFONT
  0
STYLE
  2
STANDARD1
 70
     0
 40
0.0
 41
1.0
 50
0.0
 71
     0
 42
3.0
  3
txt
  4

  0
ENDTAB
  0
TABLE
  2
VIEW
 70
     0
  0
ENDTAB
  0
TABLE
  2
UCS
 70
     0
  0
ENDTAB
  0
TABLE
  2
APPID
 70
     7
  0
APPID
  2
ACAD
 70
     0
  0
APPID
  2
ACAD_NAV_VCDISPLAY
 70
     0
  0
APPID
  2
ACAECLAYERSTANDARD
 70
     0
  0
APPID
  2
ACCMTRANSPARENCY
 70
     0
  0
APPID
  2
ACAD_EXEMPT_FROM_CAD_STANDARDS
 70
     0
  0
APPID
  2
ACAD_TC
 70
     0
  0
APPID
  2
ACAD_MLEADERVER
 70
     0
  0
ENDTAB
  0
TABLE
  2
DIMSTYLE
 70
     1
  0
DIMSTYLE
  2
STANDARD
 70
     0
  3

  4

  5

  6

  7

 40
1.0
 41
0.18
 42
0.0625
 43
0.38
 44
0.18
 45
0.0
 46
0.0
 47
0.0
 48
0.0
140
0.18
141
0.09
142
0.0
143
25.3999999999999986
144
1.0
145
0.0
146
1.0
147
0.09
 71
     0
 72
     0
 73
     1
 74
     1
 75
     0
 76
     0
 77
     0
 78
     0
170
     0
171
     2
172
     0
173
     0
174
     0
175
     0
176
     0
177
     0
178
     0
  0
ENDTAB
  0
ENDSEC
  0
SECTION
  2
BLOCKS
  0
BLOCK
  8
0
  2
$MODEL_SPACE
 70
     0
 10
0.0
 20
0.0
 30
0.0
  3
$MODEL_SPACE
  1

  0
ENDBLK
  5
F
  8
0
  0
BLOCK
 67
     1
  8
0
  2
$PAPER_SPACE
 70
     0
 10
0.0
 20
0.0
 30
0.0
  3
$PAPER_SPACE
  1

  0
ENDBLK
  5
14
 67
     1
  8
0
  0
ENDSEC
  0
SECTION
  2
ENTITIES
  0
TEXT
  5
59
  8
0
 62
     3
 10
0.0
 20
0.0
 30
0.0
 40
10.0
  1
LSVA40-M16X168
  7
STANDARD1
  0
LINE
  5
5E7
  8
0
 10
13.0
 20
66.2886751345948824
 30
0.0
 11
13.5
 21
66.0
 31
0.0
  0
LINE
  5
5E8
  8
0
 10
36.5
 20
66.0
 30
0.0
 11
37.0
 21
66.2886751345948824
 31
0.0
  0
LINE
  5
5E9
  8
0
 10
37.0
 20
78.7113248654052313
 30
0.0
 11
36.5
 21
79.0
 31
0.0
  0
LINE
  5
5EA
  8
0
 10
13.5
 20
79.0
 30
0.0
 11
13.0
 21
78.7113248654052313
 31
0.0
  0
LINE
  5
5EB
  8
0
 10
33.0
 20
222.7729999999999961
 30
0.0
 11
31.773000000000021
 21
224.0
 31
0.0
  0
LINE
  5
5EC
  8
0
 10
18.2270000000000003
 20
224.0
 30
0.0
 11
17.0
 21
222.7729999999999961
 31
0.0
  0
LINE
  5
5ED
  8
0
 10
33.0
 20
51.0
 30
0.0
 11
33.0
 21
66.0
 31
0.0
  0
LINE
  5
5EE
  8
0
 10
33.0
 20
79.0
 30
0.0
 11
33.0
 21
222.7729999999999961
 31
0.0
  0
LINE
  5
5EF
  8
0
 10
17.0
 20
222.7729999999999961
 30
0.0
 11
17.0
 21
79.0
 31
0.0
  0
LINE
  5
5F0
  8
0
 10
17.0
 20
66.0
 30
0.0
 11
17.0
 21
51.0
 31
0.0
  0
LINE
  5
5F1
  8
0
 10
30.5
 20
48.0
 30
0.0
 11
30.5
 21
51.0
 31
0.0
  0
LINE
  5
5F2
  8
0
 10
19.5
 20
51.0
 30
0.0
 11
19.5
 21
48.0
 31
0.0
  0
LINE
  5
5F3
  8
0
 10
5.0
 20
36.6666666666666288
 30
0.0
 11
5.0
 21
31.6000000000000192
 31
0.0
  0
LINE
  5
5F4
  8
0
 10
45.0
 20
31.6000000000000192
 30
0.0
 11
45.0
 21
36.6666666666666288
 31
0.0
  0
LINE
  5
5F5
  8
0
 10
5.0
 20
31.6000000000000192
 30
0.0
 11
5.5999999999999943
 21
31.0
 31
0.0
  0
LINE
  5
5F6
  8
0
 10
44.3999999999999986
 20
31.0
 30
0.0
 11
45.0
 21
31.6000000000000192
 31
0.0
  0
LINE
  5
5F7
  8
0
 10
45.0000000000000568
 20
36.6666666666666288
 30
0.0
 11
36.1999999999999886
 21
42.333333333333357
 31
0.0
  0
LINE
  5
5F8
  8
0
 10
13.8000000000000096
 20
42.333333333333357
 30
0.0
 11
4.9999999999999707
 21
36.6666666666666288
 31
0.0
  0
LINE
  5
5F9
  8
0
 10
10.0
 20
31.0
 30
0.0
 11
10.0
 21
25.0
 31
0.0
  0
LINE
  5
5FA
  8
0
 10
40.0
 20
25.0
 30
0.0
 11
40.0
 21
31.0
 31
0.0
  0
LINE
  5
5FB
  8
0
 10
36.1999999999999886
 20
42.333333333333357
 30
0.0
 11
35.200813775985381
 21
48.0
 31
0.0
  0
LINE
  5
5FC
  8
0
 10
14.7991862240146208
 20
48.0
 30
0.0
 11
13.8000000000000096
 21
42.333333333333357
 31
0.0
  0
LINE
  5
5FD
  8
0
 10
36.5
 20
66.0
 30
0.0
 11
13.5
 21
66.0
 31
0.0
  0
LINE
  5
600
  8
0
 10
25.0
 20
77.6395280956807028
 30
0.0
 11
25.0
 21
67.360471904319283
 31
0.0
  0
LINE
  5
601
  8
0
 10
37.0
 20
77.6395280956807028
 30
0.0
 11
37.0
 21
67.360471904319283
 31
0.0
  0
LINE
  5
602
  8
0
 10
13.5
 20
79.0
 30
0.0
 11
36.5
 21
79.0
 31
0.0
  0
LINE
  5
605
  8
0
 10
13.0
 20
77.6395280956807028
 30
0.0
 11
13.0
 21
67.360471904319283
 31
0.0
  0
LINE
  5
606
  8
0
 10
25.0
 20
51.7145311798163902
 30
0.0
 11
25.0
 21
55.2854688201837234
 31
0.0
  0
LINE
  5
60F
  8
0
 10
31.773000000000021
 20
224.0
 30
0.0
 11
18.2270000000000003
 21
224.0
 31
0.0
  0
LINE
  5
610
  8
0
 10
33.0
 20
222.7729999999999961
 30
0.0
 11
17.0
 21
222.7729999999999961
 31
0.0
  0
LINE
  5
611
  8
0
 10
33.0
 20
56.0
 30
0.0
 11
17.0
 21
56.0
 31
0.0
  0
LINE
  5
612
  8
0
 10
33.0
 20
51.0
 30
0.0
 11
17.0
 21
51.0
 31
0.0
  0
LINE
  5
613
  8
0
 10
44.3999999999999986
 20
31.0
 30
0.0
 11
5.5999999999999943
 21
31.0
 31
0.0
  0
LINE
  5
614
  8
0
 10
40.0
 20
25.0
 30
0.0
 11
10.0
 21
25.0
 31
0.0
  0
LINE
  5
615
  8
0
 10
14.7991862240146208
 20
48.0
 30
0.0
 11
35.200813775985381
 21
48.0
 31
0.0
  0
LINE
  5
616
  8
2
 10
34.0
 20
25.0
 30
0.0
 11
34.0
 21
31.0
 31
0.0
  0
LINE
  5
617
  8
2
 10
16.0
 20
31.0
 30
0.0
 11
16.0
 21
25.0
 31
0.0
  0
LINE
  5
618
  8
0
 10
86.1435935394497534
 20
67.3604719043193256
 30
0.0
 11
88.5000000000006963
 21
66.0000000000000284
 31
0.0
  0
LINE
  5
619
  8
0
 10
111.5000000000006963
 20
66.0000000000000284
 30
0.0
 11
113.8564064605516961
 21
67.3604719043193256
 31
0.0
  0
LINE
  5
61A
  8
0
 10
113.8564064605516961
 20
77.6395280956807312
 30
0.0
 11
111.5000000000006963
 21
79.0000000000000284
 31
0.0
  0
LINE
  5
61B
  8
0
 10
88.5000000000006963
 20
79.0000000000000284
 30
0.0
 11
86.1435935394497534
 21
77.6395280956807312
 31
0.0
  0
LINE
  5
61C
  8
0
 10
108.0000000000002984
 20
222.7730000000001098
 30
0.0
 11
106.773000000000394
 21
224.0
 31
0.0
  0
LINE
  5
61D
  8
0
 10
93.2270000000004018
 20
224.0
 30
0.0
 11
92.0000000000004263
 21
222.7730000000001098
 31
0.0
  0
LINE
  5
61E
  8
0
 10
108.0000000000005969
 20
56.0000000000000284
 30
0.0
 11
108.0000000000005969
 21
66.0000000000000284
 31
0.0
  0
LINE
  5
61F
  8
0
 10
108.0000000000005969
 20
79.0000000000000284
 30
0.0
 11
108.0000000000003979
 21
222.7730000000001098
 31
0.0
  0
LINE
  5
620
  8
0
 10
92.0000000000003553
 20
222.7730000000001098
 30
0.0
 11
92.0000000000005969
 21
79.0000000000000284
 31
0.0
  0
LINE
  5
621
  8
0
 10
92.0000000000005969
 20
66.0000000000000284
 30
0.0
 11
92.0000000000006537
 21
56.0000000000000284
 31
0.0
  0
LINE
  5
622
  8
0
 10
105.5000000000006963
 20
48.0000000000000284
 30
0.0
 11
105.5000000000006963
 21
51.0000000000000284
 31
0.0
  0
LINE
  5
623
  8
0
 10
94.5000000000006537
 20
51.0000000000000284
 30
0.0
 11
94.5000000000007248
 21
48.0000000000000284
 31
0.0
  0
LINE
  5
624
  8
0
 10
109.2376043070347009
 20
55.2854688201837519
 30
0.0
 11
108.0000000000006963
 21
56.0000000000000284
 31
0.0
  0
LINE
  5
625
  8
0
 10
108.0000000000006963
 20
51.0000000000000284
 30
0.0
 11
109.2376043070347009
 21
51.7145311798164116
 31
0.0
  0
LINE
  5
626
  8
0
 10
90.7623956929666349
 20
51.7145311798163121
 30
0.0
 11
92.0000000000007248
 21
51.0000000000000284
 31
0.0
  0
LINE
  5
627
  8
0
 10
92.0000000000006537
 20
56.0000000000000284
 30
0.0
 11
90.7623956929666349
 21
55.2854688201837519
 31
0.0
  0
LINE
  5
628
  8
0
 10
80.0000000000007105
 20
36.6666666666667709
 30
0.0
 11
80.0000000000007105
 21
31.599999999999941
 31
0.0
  0
LINE
  5
629
  8
0
 10
120.0000000000006963
 20
31.6000000000000512
 30
0.0
 11
120.0000000000006963
 21
36.6666666666667709
 31
0.0
  0
LINE
  5
62A
  8
0
 10
80.0000000000007105
 20
31.599999999999941
 30
0.0
 11
80.6000000000007333
 21
30.9999999999999183
 31
0.0
  0
LINE
  5
62B
  8
0
 10
119.400000000000702
 20
31.0000000000001492
 30
0.0
 11
120.0000000000006963
 21
31.6000000000000512
 31
0.0
  0
LINE
  5
62C
  8
0
 10
120.0000000000006963
 20
36.6666666666667709
 30
0.0
 11
111.2000000000005997
 21
42.3333333333333997
 31
0.0
  0
LINE
  5
62D
  8
0
 10
88.8000000000006651
 20
42.3333333333332789
 30
0.0
 11
80.0000000000007532
 21
36.6666666666667709
 31
0.0
  0
LINE
  5
62E
  8
0
 10
85.0000000000007105
 20
31.0000000000000284
 30
0.0
 11
85.0000000000007532
 21
25.0000000000000284
 31
0.0
  0
LINE
  5
62F
  8
0
 10
115.0000000000006963
 20
25.0000000000000284
 30
0.0
 11
115.0000000000006963
 21
31.0000000000000284
 31
0.0
  0
LINE
  5
630
  8
0
 10
111.2000000000005997
 20
42.3333333333333997
 30
0.0
 11
110.2008137759860062
 21
48.0000000000000284
 31
0.0
  0
LINE
  5
631
  8
0
 10
89.7991862240153011
 20
48.0000000000000284
 30
0.0
 11
88.8000000000006651
 21
42.3333333333332789
 31
0.0
  0
LINE
  5
632
  8
0
 10
111.5000000000006963
 20
66.0000000000000284
 30
0.0
 11
88.5000000000006963
 21
66.0000000000000284
 31
0.0
  0
LINE
  5
633
  8
0
 10
100.0000000000006963
 20
79.0000000000000284
 30
0.0
 11
111.5000000000006963
 21
79.0000000000000284
 31
0.0
  0
LINE
  5
634
  8
0
 10
88.5000000000006963
 20
79.0000000000000284
 30
0.0
 11
100.0000000000006963
 21
79.0000000000000284
 31
0.0
  0
LINE
  5
635
  8
0
 10
113.8564064605516961
 20
77.6395280956807312
 30
0.0
 11
113.8564064605516961
 21
67.3604719043193256
 31
0.0
  0
LINE
  5
636
  8
0
 10
106.9282032302762957
 20
77.6395280956807312
 30
0.0
 11
106.9282032302762957
 21
67.3604719043193256
 31
0.0
  0
LINE
  5
637
  8
0
 10
93.0717967697252249
 20
77.6395280956807312
 30
0.0
 11
93.0717967697252249
 21
67.3604719043193256
 31
0.0
  0
LINE
  5
638
  8
0
 10
86.1435935394497534
 20
77.6395280956807312
 30
0.0
 11
86.1435935394497534
 21
67.3604719043193256
 31
0.0
  0
LINE
  5
639
  8
0
 10
109.2376043070347009
 20
51.7145311798164116
 30
0.0
 11
109.2376043070347009
 21
55.2854688201838584
 31
0.0
  0
LINE
  5
63A
  8
0
 10
104.6188021535177057
 20
51.7145311798164116
 30
0.0
 11
104.6188021535177057
 21
55.2854688201837519
 31
0.0
  0
LINE
  5
63B
  8
0
 10
106.773000000000394
 20
224.0
 30
0.0
 11
93.2270000000004018
 21
224.0
 31
0.0
  0
LINE
  5
63C
  8
0
 10
108.0000000000003979
 20
222.7730000000001098
 30
0.0
 11
92.0000000000003553
 21
222.7730000000001098
 31
0.0
  0
LINE
  5
63D
  8
0
 10
108.0000000000006963
 20
56.0000000000000284
 30
0.0
 11
92.0000000000006537
 21
56.0000000000000284
 31
0.0
  0
LINE
  5
63E
  8
0
 10
95.3811978464836159
 20
51.7145311798164116
 30
0.0
 11
95.3811978464836159
 21
55.2854688201837519
 31
0.0
  0
LINE
  5
63F
  8
0
 10
90.7623956929666349
 20
51.7145311798164116
 30
0.0
 11
90.7623956929666349
 21
55.2854688201837519
 31
0.0
  0
LINE
  5
640
  8
0
 10
108.0000000000006963
 20
51.0000000000000284
 30
0.0
 11
92.0000000000007248
 21
51.0000000000000284
 31
0.0
  0
LINE
  5
641
  8
0
 10
119.400000000000702
 20
31.0000000000001492
 30
0.0
 11
80.6000000000007333
 21
30.9999999999999183
 31
0.0
  0
LINE
  5
642
  8
0
 10
115.0000000000006963
 20
25.0000000000000284
 30
0.0
 11
85.0000000000007532
 21
25.0000000000000284
 31
0.0
  0
LINE
  5
643
  8
0
 10
89.7991862240153011
 20
48.0000000000000284
 30
0.0
 11
110.2008137759860062
 21
48.0000000000000284
 31
0.0
  0
LINE
  5
644
  8
2
 10
109.0000000000006963
 20
25.0000000000000284
 30
0.0
 11
109.0000000000006963
 21
31.0000000000000284
 31
0.0
  0
LINE
  5
645
  8
2
 10
91.0000000000006963
 20
31.0000000000000284
 30
0.0
 11
91.0000000000007674
 21
25.0000000000000284
 31
0.0
  0
CIRCLE
  5
646
  8
0
 10
25.0000000000000284
 20
274.9999999999992042
 30
0.0
 40
11.5
  0
CIRCLE
  5
64D
  8
0
 10
25.0000000000000284
 20
274.99999999999892
 30
0.0
 40
8.0
  0
CIRCLE
  5
64E
  8
0
 10
25.0000000000000284
 20
274.9999999999992042
 30
0.0
 40
20.0
  0
LINE
  5
64F
  8
1
 10
25.0
 20
22.0000000000001101
 30
0.0
 11
25.0
 21
227.0
 31
0.0
  0
LINE
  5
650
  8
3
 10
18.0824999999999783
 20
79.0000000000001137
 30
0.0
 11
18.0824999999999783
 21
223.8554999999998927
 31
0.0
  0
LINE
  5
651
  8
3
 10
31.9175000000000217
 20
79.0000000000001137
 30
0.0
 11
31.9175000000000217
 21
223.8554999999998927
 31
0.0
  0
LINE
  5
652
  8
3
 10
31.9175000000005902
 20
58.0000000000002203
 30
0.0
 11
31.9175000000004196
 21
66.0000000000001137
 31
0.0
  0
LINE
  5
653
  8
3
 10
18.0825000000005502
 20
58.0000000000002203
 30
0.0
 11
18.0825000000003797
 21
65.9999999999998863
 31
0.0
  0
LINE
  5
654
  8
0
 10
17.0000000000005684
 20
58.0000000000002203
 30
0.0
 11
33.0000000000005684
 21
58.0000000000002203
 31
0.0
  0
LINE
  5
655
  8
3
 10
18.0825000000005502
 20
58.0000000000002203
 30
0.0
 11
17.0000000000005684
 21
56.1250550008069169
 31
0.0
  0
LINE
  5
656
  8
3
 10
31.9175000000005902
 20
58.0000000000002203
 30
0.0
 11
33.0000000000005684
 21
56.1250550008069169
 31
0.0
  0
ARC
  5
657
  8
0
 10
19.0
 20
61.3783858032211427
 30
0.0
 40
17.3327651762670882
 50
69.747060297779484
 51
110.2529397022205018
  0
ARC
  5
658
  8
0
 10
30.9999999999999183
 20
61.3783858032215903
 30
0.0
 40
17.3327651762666406
 50
69.7470602977881668
 51
110.2529397022205018
  0
ARC
  5
659
  8
0
 10
30.9999999999998295
 20
83.621614196779646
 30
0.0
 40
17.3327651762678983
 50
249.7470602977811893
 51
290.2529397022206012
  0
ARC
  5
65A
  8
0
 10
19.0000000000001705
 20
83.621614196779646
 30
0.0
 40
17.3327651762678911
 50
249.7470602977795124
 51
290.2529397022187823
  0
LINE
  5
65B
  8
0
 10
45.0000000000000568
 20
36.6666666666666288
 30
0.0
 11
5.0
 21
36.6666666666666288
 31
0.0
  0
LINE
  5
65C
  8
0
 10
13.8000000000000096
 20
42.333333333333357
 30
0.0
 11
36.1999999999999886
 21
42.333333333333357
 31
0.0
  0
LINE
  5
65D
  8
0
 10
120.0000000000006963
 20
36.6666666666667709
 30
0.0
 11
80.0000000000007105
 21
36.6666666666667709
 31
0.0
  0
LINE
  5
65E
  8
0
 10
88.8000000000006651
 20
42.3333333333332789
 30
0.0
 11
111.2000000000005997
 21
42.3333333333333997
 31
0.0
  0
ARC
  5
65F
  8
0
 10
93.0717967697251254
 20
51.9106836025224823
 30
0.0
 40
4.0893163974774911
 50
55.615752531961661
 51
115.6157525319590036
  0
ARC
  5
660
  8
0
 10
100.0000000000006963
 20
40.7145311798155021
 30
0.0
 40
15.2854688201845192
 50
72.4120462260073197
 51
107.5879537739926946
  0
ARC
  5
661
  8
0
 10
106.9282032302760967
 20
51.9106836025227096
 30
0.0
 40
4.0893163974772877
 50
64.3842474680337631
 51
124.3842474680383958
  0
ARC
  5
662
  8
0
 10
106.9282032302761962
 20
55.0893163974768925
 30
0.0
 40
4.0893163974768507
 50
235.6157525319576962
 51
295.6157525319607089
  0
ARC
  5
663
  8
0
 10
100.0000000000006963
 20
66.2854688201821602
 30
0.0
 40
15.2854688201821194
 50
252.4120462260056001
 51
287.5879537739943999
  0
ARC
  5
664
  8
0
 10
93.0717967697250685
 20
55.089316397476999
 30
0.0
 40
4.0893163974769768
 50
244.384247468042787
 51
304.3842474680423038
  0
ARC
  5
665
  8
0
 10
89.6076951545875033
 20
72.5763552037698503
 30
0.0
 40
6.1347958183937266
 50
55.6210008821387731
 51
115.6210008821353057
  0
ARC
  5
666
  8
0
 10
100.0000000000006963
 20
55.7677654033981582
 30
0.0
 40
22.9428420921978109
 50
72.423634284337183
 51
107.5763657156628028
  0
ARC
  5
667
  8
0
 10
110.392304845414003
 20
72.576355203769964
 30
0.0
 40
6.1347958183935933
 50
64.3789991178575036
 51
124.3789991178611984
  0
ARC
  5
668
  8
0
 10
110.392304845414003
 20
72.4236447962299792
 30
0.0
 40
6.1347958183935321
 50
235.6210008821346946
 51
295.6210008821353199
  0
ARC
  5
669
  8
0
 10
100.0000000000007958
 20
89.23181602402056
 30
0.0
 40
22.9424430608945613
 50
252.4233186188149034
 51
287.5766813811849829
  0
ARC
  5
66A
  8
0
 10
89.607695154587546
 20
72.4236447962302066
 30
0.0
 40
6.1347958183937026
 50
244.3789991178574041
 51
304.3789991178612127
  0
LINE
  5
66B
  8
1
 10
100.0000000000002984
 20
22.0000000000001492
 30
0.0
 11
100.0000000000002984
 21
227.0
 31
0.0
  0
LINE
  5
66C
  8
3
 10
93.0825000000003371
 20
79.0000000000001421
 30
0.0
 11
93.0825000000003371
 21
223.8554999999998927
 31
0.0
  0
LINE
  5
66D
  8
3
 10
106.9175000000004019
 20
79.0000000000001421
 30
0.0
 11
106.9175000000004019
 21
223.8554999999998927
 31
0.0
  0
LINE
  5
66E
  8
3
 10
106.9175000000008993
 20
58.0000000000002487
 30
0.0
 11
106.9175000000007998
 21
66.0000000000001421
 31
0.0
  0
LINE
  5
66F
  8
3
 10
93.0825000000009055
 20
58.0000000000002487
 30
0.0
 11
93.082500000000806
 21
65.9999999999999147
 31
0.0
  0
LINE
  5
670
  8
0
 10
92.0000000000009237
 20
58.0000000000002487
 30
0.0
 11
108.0000000000008953
 21
58.0000000000002487
 31
0.0
  0
LINE
  5
671
  8
3
 10
93.0825000000009055
 20
58.0000000000002487
 30
0.0
 11
92.0000000000009237
 21
56.1250550008069524
 31
0.0
  0
LINE
  5
672
  8
3
 10
106.9175000000008993
 20
58.0000000000002487
 30
0.0
 11
108.0000000000008953
 21
56.1250550008069524
 31
0.0
  0
CIRCLE
  5
673
  8
3
 10
25.0000000000000284
 20
274.9999999999992042
 30
0.0
 40
6.9175000000000004
  0
LINE
  5
674
  8
1
 10
25.0000000000000284
 20
297.9999999999990905
 30
0.0
 11
25.0000000000000284
 21
251.9999999999990905
 31
0.0
  0
LINE
  5
675
  8
1
 10
48.0000000000000284
 20
274.9999999999992042
 30
0.0
 11
2.000000000000028
 21
274.9999999999992042
 31
0.0
  0
POLYLINE
  5
68D
  8
0
 66
     1
 10
0.0
 20
0.0
 30
0.0
  0
VERTEX
  5
73D
  8
0
 10
13.0
 20
268.0717967697237896
 30
0.0
  0
VERTEX
  5
73E
  8
0
 10
13.2218203631226192
 20
267.9437287233632787
 30
0.0
  0
VERTEX
  5
73F
  8
0
 10
13.4437267064518
 20
267.8156110363071889
 30
0.0
  0
VERTEX
  5
740
  8
0
 10
13.6658050101940791
 20
267.6873940678603958
 30
0.0
  0
VERTEX
  5
741
  8
0
 10
13.8881412545560199
 20
267.5590281773273773
 30
0.0
  0
VERTEX
  5
742
  8
0
 10
14.1108214197442106
 20
267.4304637240127818
 30
0.0
  0
VERTEX
  5
743
  8
0
 10
14.3339314859651896
 20
267.3016510672212007
 30
0.0
  0
VERTEX
  5
744
  8
0
 10
14.5575574334254991
 20
267.1725405662572257
 30
0.0
  0
VERTEX
  5
745
  8
0
 10
14.7817660349453508
 20
267.0430936698151072
 30
0.0
  0
VERTEX
  5
746
  8
0
 10
15.0065443587941392
 20
266.9133178440329743
 30
0.0
  0
VERTEX
  5
747
  8
0
 10
15.2318588016592003
 20
266.7832324897926242
 30
0.0
  0
VERTEX
  5
748
  8
0
 10
15.4576757601912504
 20
266.6528570079964879
 30
0.0
  0
VERTEX
  5
749
  8
0
 10
15.6839616310410594
 20
266.5222107995476222
 30
0.0
  0
VERTEX
  5
74A
  8
0
 10
15.9106828108593295
 20
266.391313265348515
 30
0.0
  0
VERTEX
  5
74B
  8
0
 10
16.1378056962967911
 20
266.2601838063021091
 30
0.0
  0
VERTEX
  5
74C
  8
0
 10
16.365298410268931
 20
266.1288408266515262
 30
0.0
  0
VERTEX
  5
74D
  8
0
 10
16.5931364632298788
 20
265.9972984654428956
 30
0.0
  0
VERTEX
  5
74E
  8
0
 10
16.8212973414485987
 20
265.8655697209848086
 30
0.0
  0
VERTEX
  5
74F
  8
0
 10
17.0497585312151294
 20
265.7336675915736919
 30
0.0
  0
VERTEX
  5
750
  8
0
 10
17.2784975188195595
 20
265.601605075506086
 30
0.0
  0
VERTEX
  5
751
  8
0
 10
17.5074917905519101
 20
265.4693951710784745
 30
0.0
  0
VERTEX
  5
752
  8
0
 10
17.7367188327022802
 20
265.3370508765875115
 30
0.0
  0
VERTEX
  5
753
  8
0
 10
17.9661546213775409
 20
265.2045860622341138
 30
0.0
  0
VERTEX
  5
754
  8
0
 10
18.1957643369684909
 20
265.0720208311291231
 30
0.0
  0
VERTEX
  5
755
  8
0
 10
18.4255084605971398
 20
264.9393779995074283
 30
0.0
  0
VERTEX
  5
756
  8
0
 10
18.6553474540479307
 20
264.806680394768307
 30
0.0
  0
VERTEX
  5
757
  8
0
 10
18.8852417791051685
 20
264.6739508443113209
 30
0.0
  0
VERTEX
  5
758
  8
0
 10
19.1151518975532611
 20
264.541212175535918
 30
0.0
  0
VERTEX
  5
759
  8
0
 10
19.3450382711765982
 20
264.4084872158413759
 30
0.0
  0
VERTEX
  5
75A
  8
0
 10
19.5748615971411404
 20
264.2757986567298758
 30
0.0
  0
VERTEX
  5
75B
  8
0
 10
19.8045855401249185
 20
264.1431674764087916
 30
0.0
  0
VERTEX
  5
75C
  8
0
 10
20.0341757951575197
 20
264.0106134808625029
 30
0.0
  0
VERTEX
  5
75D
  8
0
 10
20.2635980967139417
 20
263.8781564533007895
 30
0.0
  0
VERTEX
  5
75E
  8
0
 10
20.4928181792691113
 20
263.7458161769338858
 30
0.0
  0
VERTEX
  5
75F
  8
0
 10
20.7218017772980296
 20
263.6136124349719125
 30
0.0
  0
VERTEX
  5
760
  8
0
 10
20.9505150775109392
 20
263.481564749526683
 30
0.0
  0
VERTEX
  5
761
  8
0
 10
21.1789329635536205
 20
263.3496876215322118
 30
0.0
  0
VERTEX
  5
762
  8
0
 10
21.4070381628404789
 20
263.2179910233205078
 30
0.0
  0
VERTEX
  5
763
  8
0
 10
21.63481368381753
 20
263.0864847649696117
 30
0.0
  0
VERTEX
  5
764
  8
0
 10
21.8622425349306901
 20
262.9551786565577913
 30
0.0
  0
VERTEX
  5
765
  8
0
 10
22.0893077246259999
 20
262.8240825081637126
 30
0.0
  0
VERTEX
  5
766
  8
0
 10
22.3159920235347897
 20
262.6932062671676249
 30
0.0
  0
VERTEX
  5
767
  8
0
 10
22.5422705567588118
 20
262.5625642950989231
 30
0.0
  0
VERTEX
  5
768
  8
0
 10
22.7681093549815614
 20
262.4321762041515171
 30
0.0
  0
VERTEX
  5
769
  8
0
 10
22.9934739185558001
 20
262.3020619127061082
 30
0.0
  0
VERTEX
  5
76A
  8
0
 10
23.2183297478342503
 20
262.1722413391433975
 30
0.0
  0
VERTEX
  5
76B
  8
0
 10
23.4426423431697017
 20
262.0427344018438021
 30
0.0
  0
VERTEX
  5
76C
  8
0
 10
23.6663774305026813
 20
261.9135608889450282
 30
0.0
  0
VERTEX
  5
76D
  8
0
 10
23.8895394546388502
 20
261.7847182342371184
 30
0.0
  0
VERTEX
  5
76E
  8
0
 10
24.1122151537459501
 20
261.6561563594156041
 30
0.0
  0
VERTEX
  5
76F
  8
0
 10
24.3345017928298297
 20
261.5278191085031949
 30
0.0
  0
VERTEX
  5
770
  8
0
 10
24.5564966368962416
 20
261.3996503255228276
 30
0.0
  0
VERTEX
  5
771
  8
0
 10
24.7782969509510487
 20
261.2715938544969276
 30
0.0
  0
VERTEX
  5
772
  8
0
 10
25.0000000000000284
 20
261.1435935394482044
 30
0.0
  0
SEQEND
  5
773
  8
0
  0
POLYLINE
  5
68E
  8
0
 66
     1
 10
0.0
 20
0.0
 30
0.0
  0
VERTEX
  5
774
  8
0
 10
37.0000000000000284
 20
268.0717967697237896
 30
0.0
  0
VERTEX
  5
775
  8
0
 10
36.778179636877411
 20
267.9437287233632787
 30
0.0
  0
VERTEX
  5
776
  8
0
 10
36.5562732935482586
 20
267.8156110363071889
 30
0.0
  0
VERTEX
  5
777
  8
0
 10
36.3341949898059795
 20
267.6873940678603958
 30
0.0
  0
VERTEX
  5
778
  8
0
 10
36.1118587454440387
 20
267.5590281773273773
 30
0.0
  0
VERTEX
  5
779
  8
0
 10
35.8891785802558516
 20
267.4304637240127818
 30
0.0
  0
VERTEX
  5
77A
  8
0
 10
35.6660685140348619
 20
267.3016510672212007
 30
0.0
  0
VERTEX
  5
77B
  8
0
 10
35.442442566574563
 20
267.1725405662572257
 30
0.0
  0
VERTEX
  5
77C
  8
0
 10
35.2182339650547078
 20
267.0430936698151072
 30
0.0
  0
VERTEX
  5
77D
  8
0
 10
34.9934556412059123
 20
266.9133178440329743
 30
0.0
  0
VERTEX
  5
77E
  8
0
 10
34.7681411983408566
 20
266.7832324897926242
 30
0.0
  0
VERTEX
  5
77F
  8
0
 10
34.5423242398088135
 20
266.6528570079964879
 30
0.0
  0
VERTEX
  5
780
  8
0
 10
34.3160383689589992
 20
266.5222107995476222
 30
0.0
  0
VERTEX
  5
781
  8
0
 10
34.0893171891407292
 20
266.391313265348515
 30
0.0
  0
VERTEX
  5
782
  8
0
 10
33.8621943037032693
 20
266.2601838063021091
 30
0.0
  0
VERTEX
  5
783
  8
0
 10
33.634701589731101
 20
266.1288408266515262
 30
0.0
  0
VERTEX
  5
784
  8
0
 10
33.4068635367701532
 20
265.9972984654428956
 30
0.0
  0
VERTEX
  5
785
  8
0
 10
33.1787026585514297
 20
265.8655697209848086
 30
0.0
  0
VERTEX
  5
786
  8
0
 10
32.950241468784867
 20
265.7336675915736919
 30
0.0
  0
VERTEX
  5
787
  8
0
 10
32.7215024811804724
 20
265.601605075506086
 30
0.0
  0
VERTEX
  5
788
  8
0
 10
32.4925082094480899
 20
265.4693951710784745
 30
0.0
  0
VERTEX
  5
789
  8
0
 10
32.2632811672977198
 20
265.3370508765875115
 30
0.0
  0
VERTEX
  5
78A
  8
0
 10
32.0338453786224875
 20
265.2045860622342275
 30
0.0
  0
VERTEX
  5
78B
  8
0
 10
31.8042356630315304
 20
265.0720208311291799
 30
0.0
  0
VERTEX
  5
78C
  8
0
 10
31.5744915394028887
 20
264.9393779995074283
 30
0.0
  0
VERTEX
  5
78D
  8
0
 10
31.3446525459521013
 20
264.8066803947684207
 30
0.0
  0
VERTEX
  5
78E
  8
0
 10
31.1147582208948599
 20
264.6739508443113778
 30
0.0
  0
VERTEX
  5
78F
  8
0
 10
30.8848481024467709
 20
264.5412121755359749
 30
0.0
  0
VERTEX
  5
790
  8
0
 10
30.6549617288234302
 20
264.4084872158414896
 30
0.0
  0
VERTEX
  5
791
  8
0
 10
30.4251384028588703
 20
264.2757986567298758
 30
0.0
  0
VERTEX
  5
792
  8
0
 10
30.1954144598750815
 20
264.1431674764087916
 30
0.0
  0
VERTEX
  5
793
  8
0
 10
29.9658242048424803
 20
264.0106134808625029
 30
0.0
  0
VERTEX
  5
794
  8
0
 10
29.7364019032860689
 20
263.8781564533007895
 30
0.0
  0
VERTEX
  5
795
  8
0
 10
29.5071818207308887
 20
263.7458161769338858
 30
0.0
  0
VERTEX
  5
796
  8
0
 10
29.2781982227019988
 20
263.6136124349719125
 30
0.0
  0
VERTEX
  5
797
  8
0
 10
29.0494849224890892
 20
263.481564749526683
 30
0.0
  0
VERTEX
  5
798
  8
0
 10
28.8210670364464114
 20
263.3496876215322118
 30
0.0
  0
VERTEX
  5
799
  8
0
 10
28.5929618371595495
 20
263.2179910233205078
 30
0.0
  0
VERTEX
  5
79A
  8
0
 10
28.3651863161825304
 20
263.0864847649696117
 30
0.0
  0
VERTEX
  5
79B
  8
0
 10
28.1377574650693383
 20
262.9551786565577913
 30
0.0
  0
VERTEX
  5
79C
  8
0
 10
27.9106922753740605
 20
262.8240825081637126
 30
0.0
  0
VERTEX
  5
79D
  8
0
 10
27.6840079764652707
 20
262.6932062671676249
 30
0.0
  0
VERTEX
  5
79E
  8
0
 10
27.4577294432412486
 20
262.5625642950989231
 30
0.0
  0
VERTEX
  5
79F
  8
0
 10
27.231890645018499
 20
262.4321762041515171
 30
0.0
  0
VERTEX
  5
7A0
  8
0
 10
27.0065260814442709
 20
262.3020619127061082
 30
0.0
  0
VERTEX
  5
7A1
  8
0
 10
26.7816702521657817
 20
262.1722413391433975
 30
0.0
  0
VERTEX
  5
7A2
  8
0
 10
26.5573576568303586
 20
262.0427344018438021
 30
0.0
  0
VERTEX
  5
7A3
  8
0
 10
26.3336225694973791
 20
261.9135608889450282
 30
0.0
  0
VERTEX
  5
7A4
  8
0
 10
26.1104605453612102
 20
261.7847182342371184
 30
0.0
  0
VERTEX
  5
7A5
  8
0
 10
25.8877848462541102
 20
261.6561563594156041
 30
0.0
  0
VERTEX
  5
7A6
  8
0
 10
25.6654982071702307
 20
261.5278191085031949
 30
0.0
  0
VERTEX
  5
7A7
  8
0
 10
25.4435033631038188
 20
261.3996503255228276
 30
0.0
  0
VERTEX
  5
7A8
  8
0
 10
25.2217030490490117
 20
261.2715938544969276
 30
0.0
  0
VERTEX
  5
7A9
  8
0
 10
25.0000000000000284
 20
261.1435935394482044
 30
0.0
  0
SEQEND
  5
7AA
  8
0
  0
POLYLINE
  5
68F
  8
0
 66
     1
 10
0.0
 20
0.0
 30
0.0
  0
VERTEX
  5
7AB
  8
0
 10
37.0000000000000284
 20
268.0717967697237896
 30
0.0
  0
VERTEX
  5
7AC
  8
0
 10
37.0000000000000284
 20
268.3604688566413756
 30
0.0
  0
VERTEX
  5
7AD
  8
0
 10
37.0000000000000284
 20
268.6493007886131181
 30
0.0
  0
VERTEX
  5
7AE
  8
0
 10
37.0000000000000284
 20
268.9384524106931167
 30
0.0
  0
VERTEX
  5
7AF
  8
0
 10
37.0000000000000284
 20
269.2280835679355278
 30
0.0
  0
VERTEX
  5
7B0
  8
0
 10
37.0000000000000284
 20
269.5183541053946215
 30
0.0
  0
VERTEX
  5
7B1
  8
0
 10
37.0000000000000284
 20
269.8094210074061152
 30
0.0
  0
VERTEX
  5
7B2
  8
0
 10
37.0000000000000284
 20
270.1013470863301791
 30
0.0
  0
VERTEX
  5
7B3
  8
0
 10
37.0000000000000284
 20
270.3940818562625736
 30
0.0
  0
VERTEX
  5
7B4
  8
0
 10
37.0000000000000284
 20
270.6875681042794781
 30
0.0
  0
VERTEX
  5
7B5
  8
0
 10
37.0000000000000284
 20
270.9817486174575834
 30
0.0
  0
VERTEX
  5
7B6
  8
0
 10
37.0000000000000284
 20
271.2765661828731254
 30
0.0
  0
VERTEX
  5
7B7
  8
0
 10
37.0000000000000284
 20
271.5719643605082751
 30
0.0
  0
VERTEX
  5
7B8
  8
0
 10
37.0000000000000284
 20
271.8679018613464109
 30
0.0
  0
VERTEX
  5
7B9
  8
0
 10
37.0000000000000284
 20
272.1643512179477966
 30
0.0
  0
VERTEX
  5
7BA
  8
0
 10
37.0000000000000284
 20
272.4612854691907273
 30
0.0
  0
VERTEX
  5
7BB
  8
0
 10
37.0000000000000284
 20
272.7586776539531002
 30
0.0
  0
VERTEX
  5
7BC
  8
0
 10
37.0000000000000284
 20
273.0565008111136081
 30
0.0
  0
VERTEX
  5
7BD
  8
0
 10
37.0000000000000284
 20
273.3547261602486742
 30
0.0
  0
VERTEX
  5
7BE
  8
0
 10
37.0000000000000284
 20
273.6533018175451843
 30
0.0
  0
VERTEX
  5
7BF
  8
0
 10
37.0000000000000284
 20
273.9521600102103775
 30
0.0
  0
VERTEX
  5
7C0
  8
0
 10
37.0000000000000284
 20
274.251232652720887
 30
0.0
  0
VERTEX
  5
7C1
  8
0
 10
37.0000000000000284
 20
274.5504516595531186
 30
0.0
  0
VERTEX
  5
7C2
  8
0
 10
37.0000000000000284
 20
274.8497489451834781
 30
0.0
  0
VERTEX
  5
7C3
  8
0
 10
37.0000000000000284
 20
275.1490572712726816
 30
0.0
  0
VERTEX
  5
7C4
  8
0
 10
37.0000000000000284
 20
275.4483218430244165
 30
0.0
  0
VERTEX
  5
7C5
  8
0
 10
37.0000000000000284
 20
275.7474973269984275
 30
0.0
  0
VERTEX
  5
7C6
  8
0
 10
37.0000000000000284
 20
276.0465386264303902
 30
0.0
  0
VERTEX
  5
7C7
  8
0
 10
37.0000000000000284
 20
276.3454006445559799
 30
0.0
  0
VERTEX
  5
7C8
  8
0
 10
37.0000000000000284
 20
276.6440382846110992
 30
0.0
  0
VERTEX
  5
7C9
  8
0
 10
37.0000000000000284
 20
276.9424057496132718
 30
0.0
  0
VERTEX
  5
7CA
  8
0
 10
37.0000000000000284
 20
277.2404452504355277
 30
0.0
  0
VERTEX
  5
7CB
  8
0
 10
37.0000000000000284
 20
277.5380889245810749
 30
0.0
  0
VERTEX
  5
7CC
  8
0
 10
37.0000000000000284
 20
277.8352685967512912
 30
0.0
  0
VERTEX
  5
7CD
  8
0
 10
37.0000000000000284
 20
278.1319160916470992
 30
0.0
  0
VERTEX
  5
7CE
  8
0
 10
37.0000000000000284
 20
278.4279632339694217
 30
0.0
  0
VERTEX
  5
7CF
  8
0
 10
37.0000000000000284
 20
278.7233418484192953
 30
0.0
  0
VERTEX
  5
7D0
  8
0
 10
37.0000000000000284
 20
279.0179837596978132
 30
0.0
  0
VERTEX
  5
7D1
  8
0
 10
37.0000000000000284
 20
279.3118207925058982
 30
0.0
  0
VERTEX
  5
7D2
  8
0
 10
37.0000000000000284
 20
279.604800804404988
 30
0.0
  0
VERTEX
  5
7D3
  8
0
 10
37.0000000000000284
 20
279.8969794340335966
 30
0.0
  0
VERTEX
  5
7D4
  8
0
 10
37.0000000000000284
 20
280.1884567331042035
 30
0.0
  0
VERTEX
  5
7D5
  8
0
 10
37.0000000000000284
 20
280.479332891696572
 30
0.0
  0
VERTEX
  5
7D6
  8
0
 10
37.0000000000000284
 20
280.7697080998904084
 30
0.0
  0
VERTEX
  5
7D7
  8
0
 10
37.0000000000000284
 20
281.0596825477654761
 30
0.0
  0
VERTEX
  5
7D8
  8
0
 10
37.0000000000000284
 20
281.3493564254014245
 30
0.0
  0
VERTEX
  5
7D9
  8
0
 10
37.0000000000000284
 20
281.638829922878017
 30
0.0
  0
VERTEX
  5
7DA
  8
0
 10
37.0000000000000284
 20
281.9282032302747893
 30
0.0
  0
SEQEND
  5
7DB
  8
0
  0
POLYLINE
  5
690
  8
0
 66
     1
 10
0.0
 20
0.0
 30
0.0
  0
VERTEX
  5
7DC
  8
0
 10
37.0000000000000284
 20
281.9282032302747893
 30
0.0
  0
VERTEX
  5
7DD
  8
0
 10
36.778179636877411
 20
282.0562712766354139
 30
0.0
  0
VERTEX
  5
7DE
  8
0
 10
36.5562732935482586
 20
282.1843889636912763
 30
0.0
  0
VERTEX
  5
7DF
  8
0
 10
36.3341949898059795
 20
282.3126059321381263
 30
0.0
  0
VERTEX
  5
7E0
  8
0
 10
36.1118587454440387
 20
282.4409718226710879
 30
0.0
  0
VERTEX
  5
7E1
  8
0
 10
35.8891785802558516
 20
282.5695362759856835
 30
0.0
  0
VERTEX
  5
7E2
  8
0
 10
35.6660685140348619
 20
282.6983489327773214
 30
0.0
  0
VERTEX
  5
7E3
  8
0
 10
35.442442566574563
 20
282.8274594337412964
 30
0.0
  0
VERTEX
  5
7E4
  8
0
 10
35.2182339650547078
 20
282.9569063301834149
 30
0.0
  0
VERTEX
  5
7E5
  8
0
 10
34.9934556412059123
 20
283.0866821559654909
 30
0.0
  0
VERTEX
  5
7E6
  8
0
 10
34.7681411983408566
 20
283.2167675102060116
 30
0.0
  0
VERTEX
  5
7E7
  8
0
 10
34.5423242398088135
 20
283.3471429920019773
 30
0.0
  0
VERTEX
  5
7E8
  8
0
 10
34.3160383689589992
 20
283.4777892004510136
 30
0.0
  0
VERTEX
  5
7E9
  8
0
 10
34.0893171891407292
 20
283.6086867346501208
 30
0.0
  0
VERTEX
  5
7EA
  8
0
 10
33.8621943037032693
 20
283.7398161936965266
 30
0.0
  0
VERTEX
  5
7EB
  8
0
 10
33.634701589731101
 20
283.8711591733469959
 30
0.0
  0
VERTEX
  5
7EC
  8
0
 10
33.4068635367701532
 20
284.0027015345556833
 30
0.0
  0
VERTEX
  5
7ED
  8
0
 10
33.1787026585514297
 20
284.1344302790138272
 30
0.0
  0
VERTEX
  5
7EE
  8
0
 10
32.950241468784867
 20
284.266332408424887
 30
0.0
  0
VERTEX
  5
7EF
  8
0
 10
32.7215024811804724
 20
284.3983949244924929
 30
0.0
  0
VERTEX
  5
7F0
  8
0
 10
32.4925082094480899
 20
284.5306048289199907
 30
0.0
  0
VERTEX
  5
7F1
  8
0
 10
32.2632811672977198
 20
284.6629491234111242
 30
0.0
  0
VERTEX
  5
7F2
  8
0
 10
32.0338453786224875
 20
284.795413937764522
 30
0.0
  0
VERTEX
  5
7F3
  8
0
 10
31.8042356630315304
 20
284.9279791688695127
 30
0.0
  0
VERTEX
  5
7F4
  8
0
 10
31.5744915394028887
 20
285.0606220004912075
 30
0.0
  0
VERTEX
  5
7F5
  8
0
 10
31.3446525459521013
 20
285.1933196052302719
 30
0.0
  0
VERTEX
  5
7F6
  8
0
 10
31.1147582208948599
 20
285.3260491556873149
 30
0.0
  0
VERTEX
  5
7F7
  8
0
 10
30.8848481024467709
 20
285.4587878244627177
 30
0.0
  0
VERTEX
  5
7F8
  8
0
 10
30.6549617288234302
 20
285.591512784157203
 30
0.0
  0
VERTEX
  5
7F9
  8
0
 10
30.4251384028588703
 20
285.7242013432688168
 30
0.0
  0
VERTEX
  5
7FA
  8
0
 10
30.1954144598750815
 20
285.8568325235897873
 30
0.0
  0
VERTEX
  5
7FB
  8
0
 10
29.9658242048424803
 20
285.989386519136076
 30
0.0
  0
VERTEX
  5
7FC
  8
0
 10
29.7364019032860689
 20
286.1218435466977894
 30
0.0
  0
VERTEX
  5
7FD
  8
0
 10
29.5071818207308887
 20
286.2541838230646931
 30
0.0
  0
VERTEX
  5
7FE
  8
0
 10
29.2781982227019988
 20
286.3863875650267232
 30
0.0
  0
VERTEX
  5
7FF
  8
0
 10
29.0494849224890892
 20
286.5184352504718959
 30
0.0
  0
VERTEX
  5
800
  8
0
 10
28.8210670364464114
 20
286.650312378466424
 30
0.0
  0
VERTEX
  5
801
  8
0
 10
28.5929618371595495
 20
286.7820089766781848
 30
0.0
  0
VERTEX
  5
802
  8
0
 10
28.3651863161825304
 20
286.9135152350290809
 30
0.0
  0
VERTEX
  5
803
  8
0
 10
28.1377574650693383
 20
287.0448213434406739
 30
0.0
  0
VERTEX
  5
804
  8
0
 10
27.9106922753740605
 20
287.1759174918349231
 30
0.0
  0
VERTEX
  5
805
  8
0
 10
27.6840079764652707
 20
287.3067937328308972
 30
0.0
  0
VERTEX
  5
806
  8
0
 10
27.4577294432412486
 20
287.4374357048995989
 30
0.0
  0
VERTEX
  5
807
  8
0
 10
27.231890645018499
 20
287.5678237958470049
 30
0.0
  0
VERTEX
  5
808
  8
0
 10
27.0065260814442709
 20
287.6979380872924139
 30
0.0
  0
VERTEX
  5
809
  8
0
 10
26.7816702521657817
 20
287.8277586608551246
 30
0.0
  0
VERTEX
  5
80A
  8
0
 10
26.5573576568303586
 20
287.95726559815472
 30
0.0
  0
VERTEX
  5
80B
  8
0
 10
26.3336225694973791
 20
288.0864391110534939
 30
0.0
  0
VERTEX
  5
80C
  8
0
 10
26.1104605453612102
 20
288.2152817657614037
 30
0.0
  0
VERTEX
  5
80D
  8
0
 10
25.8877848462541102
 20
288.3438436405829748
 30
0.0
  0
VERTEX
  5
80E
  8
0
 10
25.6654982071702307
 20
288.4721808914953272
 30
0.0
  0
VERTEX
  5
80F
  8
0
 10
25.4435033631038188
 20
288.6003496744756944
 30
0.0
  0
VERTEX
  5
810
  8
0
 10
25.2217030490490401
 20
288.7284061455015944
 30
0.0
  0
VERTEX
  5
811
  8
0
 10
25.0000000000000284
 20
288.8564064605503177
 30
0.0
  0
SEQEND
  5
812
  8
0
  0
POLYLINE
  5
691
  8
0
 66
     1
 10
0.0
 20
0.0
 30
0.0
  0
VERTEX
  5
813
  8
0
 10
13.0
 20
281.9282032302747893
 30
0.0
  0
VERTEX
  5
814
  8
0
 10
13.2218203631226192
 20
282.0562712766354139
 30
0.0
  0
VERTEX
  5
815
  8
0
 10
13.4437267064518
 20
282.1843889636912763
 30
0.0
  0
VERTEX
  5
816
  8
0
 10
13.6658050101940791
 20
282.3126059321381263
 30
0.0
  0
VERTEX
  5
817
  8
0
 10
13.8881412545560199
 20
282.4409718226710879
 30
0.0
  0
VERTEX
  5
818
  8
0
 10
14.1108214197442106
 20
282.5695362759856835
 30
0.0
  0
VERTEX
  5
819
  8
0
 10
14.3339314859651896
 20
282.6983489327773214
 30
0.0
  0
VERTEX
  5
81A
  8
0
 10
14.5575574334254991
 20
282.8274594337412964
 30
0.0
  0
VERTEX
  5
81B
  8
0
 10
14.7817660349453508
 20
282.9569063301834149
 30
0.0
  0
VERTEX
  5
81C
  8
0
 10
15.0065443587941392
 20
283.0866821559654909
 30
0.0
  0
VERTEX
  5
81D
  8
0
 10
15.2318588016592003
 20
283.2167675102060116
 30
0.0
  0
VERTEX
  5
81E
  8
0
 10
15.4576757601912504
 20
283.3471429920019773
 30
0.0
  0
VERTEX
  5
81F
  8
0
 10
15.6839616310410594
 20
283.4777892004510136
 30
0.0
  0
VERTEX
  5
820
  8
0
 10
15.9106828108593295
 20
283.6086867346501208
 30
0.0
  0
VERTEX
  5
821
  8
0
 10
16.1378056962967911
 20
283.7398161936965266
 30
0.0
  0
VERTEX
  5
822
  8
0
 10
16.365298410268931
 20
283.8711591733469959
 30
0.0
  0
VERTEX
  5
823
  8
0
 10
16.5931364632298788
 20
284.0027015345556833
 30
0.0
  0
VERTEX
  5
824
  8
0
 10
16.8212973414485987
 20
284.1344302790138272
 30
0.0
  0
VERTEX
  5
825
  8
0
 10
17.0497585312151294
 20
284.266332408424887
 30
0.0
  0
VERTEX
  5
826
  8
0
 10
17.2784975188195595
 20
284.3983949244924929
 30
0.0
  0
VERTEX
  5
827
  8
0
 10
17.5074917905519385
 20
284.5306048289199907
 30
0.0
  0
VERTEX
  5
828
  8
0
 10
17.7367188327022802
 20
284.6629491234111242
 30
0.0
  0
VERTEX
  5
829
  8
0
 10
17.9661546213775409
 20
284.795413937764522
 30
0.0
  0
VERTEX
  5
82A
  8
0
 10
18.1957643369684909
 20
284.9279791688695127
 30
0.0
  0
VERTEX
  5
82B
  8
0
 10
18.4255084605971398
 20
285.0606220004912075
 30
0.0
  0
VERTEX
  5
82C
  8
0
 10
18.6553474540479307
 20
285.1933196052302719
 30
0.0
  0
VERTEX
  5
82D
  8
0
 10
18.8852417791051401
 20
285.3260491556873149
 30
0.0
  0
VERTEX
  5
82E
  8
0
 10
19.1151518975532611
 20
285.4587878244627177
 30
0.0
  0
VERTEX
  5
82F
  8
0
 10
19.3450382711765982
 20
285.591512784157203
 30
0.0
  0
VERTEX
  5
830
  8
0
 10
19.5748615971411617
 20
285.7242013432688168
 30
0.0
  0
VERTEX
  5
831
  8
0
 10
19.8045855401249504
 20
285.8568325235897873
 30
0.0
  0
VERTEX
  5
832
  8
0
 10
20.0341757951575516
 20
285.989386519136076
 30
0.0
  0
VERTEX
  5
833
  8
0
 10
20.2635980967139595
 20
286.1218435466977894
 30
0.0
  0
VERTEX
  5
834
  8
0
 10
20.4928181792691397
 20
286.2541838230646931
 30
0.0
  0
VERTEX
  5
835
  8
0
 10
20.721801777298051
 20
286.3863875650267232
 30
0.0
  0
VERTEX
  5
836
  8
0
 10
20.9505150775109392
 20
286.5184352504718959
 30
0.0
  0
VERTEX
  5
837
  8
0
 10
21.1789329635536205
 20
286.650312378466424
 30
0.0
  0
VERTEX
  5
838
  8
0
 10
21.4070381628404789
 20
286.7820089766781848
 30
0.0
  0
VERTEX
  5
839
  8
0
 10
21.63481368381753
 20
286.9135152350290809
 30
0.0
  0
VERTEX
  5
83A
  8
0
 10
21.8622425349306901
 20
287.0448213434406739
 30
0.0
  0
VERTEX
  5
83B
  8
0
 10
22.0893077246259999
 20
287.1759174918349231
 30
0.0
  0
VERTEX
  5
83C
  8
0
 10
22.3159920235347897
 20
287.3067937328308972
 30
0.0
  0
VERTEX
  5
83D
  8
0
 10
22.5422705567588118
 20
287.4374357048995989
 30
0.0
  0
VERTEX
  5
83E
  8
0
 10
22.7681093549815614
 20
287.5678237958470049
 30
0.0
  0
VERTEX
  5
83F
  8
0
 10
22.9934739185558001
 20
287.6979380872924139
 30
0.0
  0
VERTEX
  5
840
  8
0
 10
23.2183297478342503
 20
287.8277586608551246
 30
0.0
  0
VERTEX
  5
841
  8
0
 10
23.4426423431697017
 20
287.95726559815472
 30
0.0
  0
VERTEX
  5
842
  8
0
 10
23.6663774305026813
 20
288.0864391110534939
 30
0.0
  0
VERTEX
  5
843
  8
0
 10
23.8895394546388502
 20
288.2152817657614037
 30
0.0
  0
VERTEX
  5
844
  8
0
 10
24.1122151537459501
 20
288.3438436405829748
 30
0.0
  0
VERTEX
  5
845
  8
0
 10
24.3345017928298297
 20
288.4721808914953272
 30
0.0
  0
VERTEX
  5
846
  8
0
 10
24.5564966368962416
 20
288.6003496744756944
 30
0.0
  0
VERTEX
  5
847
  8
0
 10
24.7782969509510487
 20
288.7284061455015944
 30
0.0
  0
VERTEX
  5
848
  8
0
 10
25.0000000000000284
 20
288.8564064605503177
 30
0.0
  0
SEQEND
  5
849
  8
0
  0
POLYLINE
  5
692
  8
0
 66
     1
 10
0.0
 20
0.0
 30
0.0
  0
VERTEX
  5
84A
  8
0
 10
13.0
 20
268.0717967697237896
 30
0.0
  0
VERTEX
  5
84B
  8
0
 10
13.0
 20
268.3604688566413756
 30
0.0
  0
VERTEX
  5
84C
  8
0
 10
13.0
 20
268.6493007886131181
 30
0.0
  0
VERTEX
  5
84D
  8
0
 10
13.0
 20
268.9384524106931167
 30
0.0
  0
VERTEX
  5
84E
  8
0
 10
13.0
 20
269.2280835679355278
 30
0.0
  0
VERTEX
  5
84F
  8
0
 10
13.0
 20
269.5183541053946215
 30
0.0
  0
VERTEX
  5
850
  8
0
 10
13.0
 20
269.8094210074061152
 30
0.0
  0
VERTEX
  5
851
  8
0
 10
13.0
 20
270.1013470863301791
 30
0.0
  0
VERTEX
  5
852
  8
0
 10
13.0
 20
270.3940818562625736
 30
0.0
  0
VERTEX
  5
853
  8
0
 10
13.0
 20
270.6875681042794781
 30
0.0
  0
VERTEX
  5
854
  8
0
 10
13.0
 20
270.9817486174575834
 30
0.0
  0
VERTEX
  5
855
  8
0
 10
13.0
 20
271.2765661828731254
 30
0.0
  0
VERTEX
  5
856
  8
0
 10
13.0000000000000302
 20
271.5719643605082183
 30
0.0
  0
VERTEX
  5
857
  8
0
 10
13.0000000000000302
 20
271.8679018613462972
 30
0.0
  0
VERTEX
  5
858
  8
0
 10
13.0000000000000302
 20
272.1643512179477966
 30
0.0
  0
VERTEX
  5
859
  8
0
 10
13.0000000000000302
 20
272.4612854691906136
 30
0.0
  0
VERTEX
  5
85A
  8
0
 10
13.0000000000000302
 20
272.7586776539531002
 30
0.0
  0
VERTEX
  5
85B
  8
0
 10
13.0000000000000302
 20
273.0565008111136081
 30
0.0
  0
VERTEX
  5
85C
  8
0
 10
13.0
 20
273.3547261602486742
 30
0.0
  0
VERTEX
  5
85D
  8
0
 10
13.0
 20
273.6533018175451843
 30
0.0
  0
VERTEX
  5
85E
  8
0
 10
13.0
 20
273.9521600102103775
 30
0.0
  0
VERTEX
  5
85F
  8
0
 10
13.0
 20
274.251232652720887
 30
0.0
  0
VERTEX
  5
860
  8
0
 10
13.0
 20
274.5504516595531186
 30
0.0
  0
VERTEX
  5
861
  8
0
 10
13.0
 20
274.8497489451834781
 30
0.0
  0
VERTEX
  5
862
  8
0
 10
13.0
 20
275.1490572712726816
 30
0.0
  0
VERTEX
  5
863
  8
0
 10
13.0
 20
275.4483218430244165
 30
0.0
  0
VERTEX
  5
864
  8
0
 10
13.0
 20
275.7474973269984275
 30
0.0
  0
VERTEX
  5
865
  8
0
 10
13.0
 20
276.0465386264303902
 30
0.0
  0
VERTEX
  5
866
  8
0
 10
13.0
 20
276.3454006445559799
 30
0.0
  0
VERTEX
  5
867
  8
0
 10
13.0
 20
276.6440382846110992
 30
0.0
  0
VERTEX
  5
868
  8
0
 10
13.0
 20
276.9424057496132718
 30
0.0
  0
VERTEX
  5
869
  8
0
 10
13.0
 20
277.2404452504355277
 30
0.0
  0
VERTEX
  5
86A
  8
0
 10
13.0
 20
277.5380889245810749
 30
0.0
  0
VERTEX
  5
86B
  8
0
 10
13.0
 20
277.8352685967512912
 30
0.0
  0
VERTEX
  5
86C
  8
0
 10
13.0
 20
278.1319160916470992
 30
0.0
  0
VERTEX
  5
86D
  8
0
 10
13.0
 20
278.4279632339694217
 30
0.0
  0
VERTEX
  5
86E
  8
0
 10
13.0
 20
278.7233418484192953
 30
0.0
  0
VERTEX
  5
86F
  8
0
 10
13.0
 20
279.0179837596978132
 30
0.0
  0
VERTEX
  5
870
  8
0
 10
13.0
 20
279.3118207925058982
 30
0.0
  0
VERTEX
  5
871
  8
0
 10
13.0
 20
279.604800804404988
 30
0.0
  0
VERTEX
  5
872
  8
0
 10
13.0
 20
279.8969794340335966
 30
0.0
  0
VERTEX
  5
873
  8
0
 10
13.0
 20
280.1884567331042035
 30
0.0
  0
VERTEX
  5
874
  8
0
 10
13.0
 20
280.479332891696572
 30
0.0
  0
VERTEX
  5
875
  8
0
 10
13.0
 20
280.7697080998904084
 30
0.0
  0
VERTEX
  5
876
  8
0
 10
13.0
 20
281.0596825477654761
 30
0.0
  0
VERTEX
  5
877
  8
0
 10
13.0
 20
281.3493564254014245
 30
0.0
  0
VERTEX
  5
878
  8
0
 10
13.0
 20
281.638829922878017
 30
0.0
  0
VERTEX
  5
879
  8
0
 10
13.0
 20
281.9282032302747893
 30
0.0
  0
SEQEND
  5
87A
  8
0
  0
POLYLINE
  5
693
  8
0
 66
     1
 10
0.0
 20
0.0
 30
0.0
  0
VERTEX
  5
87B
  8
0
 10
33.0
 20
55.2854688201837234
 30
0.0
  0
VERTEX
  5
87C
  8
0
 10
32.8649094288752011
 20
55.328147820278069
 30
0.0
  0
VERTEX
  5
87D
  8
0
 10
32.7297720694792318
 20
55.370602160083628
 30
0.0
  0
VERTEX
  5
87E
  8
0
 10
32.5945411335409574
 20
55.4126071793116282
 30
0.0
  0
VERTEX
  5
87F
  8
0
 10
32.4591698327892573
 20
55.4539382176732829
 30
0.0
  0
VERTEX
  5
880
  8
0
 10
32.3236113789529611
 20
55.4943706148798128
 30
0.0
  0
VERTEX
  5
881
  8
0
 10
32.1878189837609128
 20
55.53367971064241
 30
0.0
  0
VERTEX
  5
882
  8
0
 10
32.0517458589419775
 20
55.5716408446723094
 30
0.0
  0
VERTEX
  5
883
  8
0
 10
31.9153510181130287
 20
55.6080525214241277
 30
0.0
  0
VERTEX
  5
884
  8
0
 10
31.7786341695898784
 20
55.6428757238861422
 30
0.0
  0
VERTEX
  5
885
  8
0
 10
31.6416124399778198
 20
55.6761409796854778
 30
0.0
  0
VERTEX
  5
886
  8
0
 10
31.5043030219043487
 20
55.7078790800505033
 30
0.0
  0
VERTEX
  5
887
  8
0
 10
31.3667231079968509
 20
55.7381208162095803
 30
0.0
  0
VERTEX
  5
888
  8
0
 10
31.2288898908827797
 20
55.7668969793910918
 30
0.0
  0
VERTEX
  5
889
  8
0
 10
31.0908205631895385
 20
55.7942383608234067
 30
0.0
  0
VERTEX
  5
88A
  8
0
 10
30.9525320144442695
 20
55.8201690689393004
 30
0.0
  0
VERTEX
  5
88B
  8
0
 10
30.8140371636971508
 20
55.8446256705660389
 30
0.0
  0
VERTEX
  5
88C
  8
0
 10
30.6753461388544792
 20
55.8674831930189697
 30
0.0
  0
VERTEX
  5
88D
  8
0
 10
30.5364690098113591
 20
55.8886153845760703
 30
0.0
  0
VERTEX
  5
88E
  8
0
 10
30.3974158464630193
 20
55.9078959935153179
 30
0.0
  0
VERTEX
  5
88F
  8
0
 10
30.2581967187045393
 20
55.92519876811469
 30
0.0
  0
VERTEX
  5
890
  8
0
 10
30.1188216964311017
 20
55.9403974566521711
 30
0.0
  0
VERTEX
  5
891
  8
0
 10
29.9793008966941912
 20
55.9533681486609709
 30
0.0
  0
VERTEX
  5
892
  8
0
 10
29.8396476405378586
 20
55.9641460080545627
 30
0.0
  0
VERTEX
  5
893
  8
0
 10
29.6998804434848616
 20
55.9730240983657623
 30
0.0
  0
VERTEX
  5
894
  8
0
 10
29.5600182956845892
 20
55.9803190477749766
 30
0.0
  0
VERTEX
  5
895
  8
0
 10
29.4200801872865192
 20
55.9863474844626197
 30
0.0
  0
VERTEX
  5
896
  8
0
 10
29.2800851084400904
 20
55.9914260366090772
 30
0.0
  0
VERTEX
  5
897
  8
0
 10
29.1400520492947805
 20
55.9958713323947421
 30
0.0
  0
VERTEX
  5
898
  8
0
 10
29.0
 20
56.0
 30
0.0
  0
SEQEND
  5
899
  8
0
  0
POLYLINE
  5
694
  8
0
 66
     1
 10
0.0
 20
0.0
 30
0.0
  0
VERTEX
  5
89A
  8
0
 10
29.0
 20
56.0
 30
0.0
  0
VERTEX
  5
89B
  8
0
 10
28.8600051100365
 20
55.9986479292103496
 30
0.0
  0
VERTEX
  5
89C
  8
0
 10
28.7200294553096001
 20
55.9962165421423208
 30
0.0
  0
VERTEX
  5
89D
  8
0
 10
28.58009147909425
 20
55.9918034268811908
 30
0.0
  0
VERTEX
  5
89E
  8
0
 10
28.4402061387963485
 20
55.9852848272000969
 30
0.0
  0
VERTEX
  5
89F
  8
0
 10
28.3003874330262306
 20
55.9767511577551176
 30
0.0
  0
VERTEX
  5
8A0
  8
0
 10
28.1606493603659089
 20
55.9662928395128887
 30
0.0
  0
VERTEX
  5
8A1
  8
0
 10
28.0210059193974601
 20
55.9540002934400604
 30
0.0
  0
VERTEX
  5
8A2
  8
0
 10
27.8814711087029288
 20
55.9399639405032687
 30
0.0
  0
VERTEX
  5
8A3
  8
0
 10
27.7420589866660308
 20
55.9242736432074423
 30
0.0
  0
VERTEX
  5
8A4
  8
0
 10
27.6027888013817702
 20
55.9069707996510274
 30
0.0
  0
VERTEX
  5
8A5
  8
0
 10
27.4636889329172185
 20
55.8880115285021191
 30
0.0
  0
VERTEX
  5
8A6
  8
0
 10
27.3247886894163017
 20
55.8673432815318378
 30
0.0
  0
VERTEX
  5
8A7
  8
0
 10
27.1861173790229316
 20
55.8449135105112973
 30
0.0
  0
VERTEX
  5
8A8
  8
0
 10
27.0477043098810483
 20
55.8206696672116109
 30
0.0
  0
VERTEX
  5
8A9
  8
0
 10
26.9095787901345282
 20
55.7945592034039208
 30
0.0
  0
VERTEX
  5
8AA
  8
0
 10
26.7717681727462491
 20
55.7665367090657611
 30
0.0
  0
VERTEX
  5
8AB
  8
0
 10
26.634270920724699
 20
55.7366622490377992
 30
0.0
  0
VERTEX
  5
8AC
  8
0
 10
26.49706344292224
 20
55.7050764060833288
 30
0.0
  0
VERTEX
  5
8AD
  8
0
 10
26.3601215914872888
 20
55.6719217954462309
 30
0.0
  0
VERTEX
  5
8AE
  8
0
 10
26.2234212185682303
 20
55.6373410323704007
 30
0.0
  0
VERTEX
  5
8AF
  8
0
 10
26.0869381763134811
 20
55.6014767320996981
 30
0.0
  0
VERTEX
  5
8B0
  8
0
 10
25.950648316871451
 20
55.5644715098779969
 30
0.0
  0
VERTEX
  5
8B1
  8
0
 10
25.814527492390571
 20
55.526467980949171
 30
0.0
  0
VERTEX
  5
8B2
  8
0
 10
25.6785515550192294
 20
55.4876087605571087
 30
0.0
  0
VERTEX
  5
8B3
  8
0
 10
25.5426963569058501
 20
55.4480364639456695
 30
0.0
  0
VERTEX
  5
8B4
  8
0
 10
25.4069377501988107
 20
55.4078937063587418
 30
0.0
  0
VERTEX
  5
8B5
  8
0
 10
25.2712515870465495
 20
55.367323103040178
 30
0.0
  0
VERTEX
  5
8B6
  8
0
 10
25.1356137195974796
 20
55.3264672692338806
 30
0.0
  0
VERTEX
  5
8B7
  8
0
 10
25.0
 20
55.2854688201837234
 30
0.0
  0
SEQEND
  5
8B8
  8
0
  0
POLYLINE
  5
695
  8
0
 66
     1
 10
0.0
 20
0.0
 30
0.0
  0
VERTEX
  5
8B9
  8
0
 10
25.0
 20
51.7145311798163902
 30
0.0
  0
VERTEX
  5
8BA
  8
0
 10
25.1350905711248096
 20
51.6718521797220021
 30
0.0
  0
VERTEX
  5
8BB
  8
0
 10
25.2702279305207789
 20
51.6293978399164004
 30
0.0
  0
VERTEX
  5
8BC
  8
0
 10
25.4054588664590391
 20
51.5873928206883576
 30
0.0
  0
VERTEX
  5
8BD
  8
0
 10
25.5408301672107498
 20
51.5460617823266816
 30
0.0
  0
VERTEX
  5
8BE
  8
0
 10
25.6763886210470389
 20
51.5056293851201374
 30
0.0
  0
VERTEX
  5
8BF
  8
0
 10
25.8121810162390908
 20
51.4663202893575118
 30
0.0
  0
VERTEX
  5
8C0
  8
0
 10
25.948254141058019
 20
51.4283591553275983
 30
0.0
  0
VERTEX
  5
8C1
  8
0
 10
26.0846489818869713
 20
51.3919474785757728
 30
0.0
  0
VERTEX
  5
8C2
  8
0
 10
26.2213658304101216
 20
51.3571242761137512
 30
0.0
  0
VERTEX
  5
8C3
  8
0
 10
26.3583875600221802
 20
51.3238590203144014
 30
0.0
  0
VERTEX
  5
8C4
  8
0
 10
26.4956969780956513
 20
51.2921209199493902
 30
0.0
  0
VERTEX
  5
8C5
  8
0
 10
26.6332768920031491
 20
51.2618791837903132
 30
0.0
  0
VERTEX
  5
8C6
  8
0
 10
26.7711101091172203
 20
51.2331030206087874
 30
0.0
  0
VERTEX
  5
8C7
  8
0
 10
26.9091794368104615
 20
51.2057616391764796
 30
0.0
  0
VERTEX
  5
8C8
  8
0
 10
27.0474679855557305
 20
51.179830931060593
 30
0.0
  0
VERTEX
  5
8C9
  8
0
 10
27.1859628363028492
 20
51.1553743294338403
 30
0.0
  0
VERTEX
  5
8CA
  8
0
 10
27.3246538611455208
 20
51.1325168069809095
 30
0.0
  0
VERTEX
  5
8CB
  8
0
 10
27.4635309901886515
 20
51.111384615423809
 30
0.0
  0
VERTEX
  5
8CC
  8
0
 10
27.6025841535369807
 20
51.0921040064845684
 30
0.0
  0
VERTEX
  5
8CD
  8
0
 10
27.7418032812954607
 20
51.0748012318852034
 30
0.0
  0
VERTEX
  5
8CE
  8
0
 10
27.8811783035688983
 20
51.0596025433477294
 30
0.0
  0
VERTEX
  5
8CF
  8
0
 10
28.0206991033058195
 20
51.0466318513389368
 30
0.0
  0
VERTEX
  5
8D0
  8
0
 10
28.1603523594621414
 20
51.0358539919453733
 30
0.0
  0
VERTEX
  5
8D1
  8
0
 10
28.3001195565151384
 20
51.0269759016341879
 30
0.0
  0
VERTEX
  5
8D2
  8
0
 10
28.4399817043154215
 20
51.0196809522249666
 30
0.0
  0
VERTEX
  5
8D3
  8
0
 10
28.5799198127134915
 20
51.0136525155373519
 30
0.0
  0
VERTEX
  5
8D4
  8
0
 10
28.7199148915599096
 20
51.0085739633909014
 30
0.0
  0
VERTEX
  5
8D5
  8
0
 10
28.8599479507052195
 20
51.0041286676052508
 30
0.0
  0
VERTEX
  5
8D6
  8
0
 10
29.0
 20
50.9999999999999929
 30
0.0
  0
SEQEND
  5
8D7
  8
0
  0
POLYLINE
  5
696
  8
0
 66
     1
 10
0.0
 20
0.0
 30
0.0
  0
VERTEX
  5
8D8
  8
0
 10
29.0
 20
51.0
 30
0.0
  0
VERTEX
  5
8D9
  8
0
 10
29.1399948899635106
 20
51.001352070789558
 30
0.0
  0
VERTEX
  5
8DA
  8
0
 10
29.2799705446903999
 20
51.003783457857601
 30
0.0
  0
VERTEX
  5
8DB
  8
0
 10
29.41990852090575
 20
51.0081965731187665
 30
0.0
  0
VERTEX
  5
8DC
  8
0
 10
29.5597938612036515
 20
51.0147151727998676
 30
0.0
  0
VERTEX
  5
8DD
  8
0
 10
29.6996125669737694
 20
51.0232488422448611
 30
0.0
  0
VERTEX
  5
8DE
  8
0
 10
29.8393506396340911
 20
51.0337071604870971
 30
0.0
  0
VERTEX
  5
8DF
  8
0
 10
29.9789940806025506
 20
51.0459997065599396
 30
0.0
  0
VERTEX
  5
8E0
  8
0
 10
30.1185288912970783
 20
51.0600360594967313
 30
0.0
  0
VERTEX
  5
8E1
  8
0
 10
30.2579410133339799
 20
51.0757263567925719
 30
0.0
  0
VERTEX
  5
8E2
  8
0
 10
30.3972111986182405
 20
51.0930292003489583
 30
0.0
  0
VERTEX
  5
8E3
  8
0
 10
30.5363110670827815
 20
51.1119884714978667
 30
0.0
  0
VERTEX
  5
8E4
  8
0
 10
30.6752113105836983
 20
51.132656718468148
 30
0.0
  0
VERTEX
  5
8E5
  8
0
 10
30.8138826209770684
 20
51.1550864894887027
 30
0.0
  0
VERTEX
  5
8E6
  8
0
 10
30.9522956901189517
 20
51.179330332788382
 30
0.0
  0
VERTEX
  5
8E7
  8
0
 10
31.0904212098654718
 20
51.2054407965960579
 30
0.0
  0
VERTEX
  5
8E8
  8
0
 10
31.2282318272537509
 20
51.2334632909342176
 30
0.0
  0
VERTEX
  5
8E9
  8
0
 10
31.365729079275301
 20
51.2633377509621795
 30
0.0
  0
VERTEX
  5
8EA
  8
0
 10
31.50293655707776
 20
51.2949235939166428
 30
0.0
  0
VERTEX
  5
8EB
  8
0
 10
31.6398784085127183
 20
51.3280782045537194
 30
0.0
  0
VERTEX
  5
8EC
  8
0
 10
31.7765787814317697
 20
51.3626589676295566
 30
0.0
  0
VERTEX
  5
8ED
  8
0
 10
31.9130618236865189
 20
51.3985232679002593
 30
0.0
  0
VERTEX
  5
8EE
  8
0
 10
32.049351683128549
 20
51.4355284901219605
 30
0.0
  0
VERTEX
  5
8EF
  8
0
 10
32.1854725076094397
 20
51.4735320190507935
 30
0.0
  0
VERTEX
  5
8F0
  8
0
 10
32.3214484449807813
 20
51.5123912394428629
 30
0.0
  0
VERTEX
  5
8F1
  8
0
 10
32.4573036430941499
 20
51.5519635360543234
 30
0.0
  0
VERTEX
  5
8F2
  8
0
 10
32.5930622498011928
 20
51.5921062936412582
 30
0.0
  0
VERTEX
  5
8F3
  8
0
 10
32.7287484129534505
 20
51.6326768969598504
 30
0.0
  0
VERTEX
  5
8F4
  8
0
 10
32.8643862804025275
 20
51.6735327307661834
 30
0.0
  0
VERTEX
  5
8F5
  8
0
 10
33.0
 20
51.7145311798163902
 30
0.0
  0
SEQEND
  5
8F6
  8
0
  0
POLYLINE
  5
697
  8
0
 66
     1
 10
0.0
 20
0.0
 30
0.0
  0
VERTEX
  5
8F7
  8
0
 10
25.0
 20
55.2854688201837234
 30
0.0
  0
VERTEX
  5
8F8
  8
0
 10
24.8649094288751904
 20
55.328147820278069
 30
0.0
  0
VERTEX
  5
8F9
  8
0
 10
24.7297720694792282
 20
55.370602160083628
 30
0.0
  0
VERTEX
  5
8FA
  8
0
 10
24.5945411335409609
 20
55.4126071793116282
 30
0.0
  0
VERTEX
  5
8FB
  8
0
 10
24.4591698327892608
 20
55.4539382176732829
 30
0.0
  0
VERTEX
  5
8FC
  8
0
 10
24.3236113789529611
 20
55.4943706148798128
 30
0.0
  0
VERTEX
  5
8FD
  8
0
 10
24.1878189837609092
 20
55.53367971064241
 30
0.0
  0
VERTEX
  5
8FE
  8
0
 10
24.0517458589419597
 20
55.5716408446723094
 30
0.0
  0
VERTEX
  5
8FF
  8
0
 10
23.9153510181130002
 20
55.6080525214241277
 30
0.0
  0
VERTEX
  5
900
  8
0
 10
23.77863416958985
 20
55.6428757238861422
 30
0.0
  0
VERTEX
  5
901
  8
0
 10
23.6416124399778198
 20
55.6761409796854778
 30
0.0
  0
VERTEX
  5
902
  8
0
 10
23.5043030219043203
 20
55.7078790800505033
 30
0.0
  0
VERTEX
  5
903
  8
0
 10
23.3667231079968509
 20
55.7381208162095803
 30
0.0
  0
VERTEX
  5
904
  8
0
 10
23.2288898908827584
 20
55.7668969793910918
 30
0.0
  0
VERTEX
  5
905
  8
0
 10
23.09082056318951
 20
55.7942383608234067
 30
0.0
  0
VERTEX
  5
906
  8
0
 10
22.9525320144442411
 20
55.8201690689393004
 30
0.0
  0
VERTEX
  5
907
  8
0
 10
22.8140371636971189
 20
55.8446256705660389
 30
0.0
  0
VERTEX
  5
908
  8
0
 10
22.6753461388544508
 20
55.8674831930189697
 30
0.0
  0
VERTEX
  5
909
  8
0
 10
22.5364690098113591
 20
55.8886153845760703
 30
0.0
  0
VERTEX
  5
90A
  8
0
 10
22.3974158464629909
 20
55.9078959935153179
 30
0.0
  0
VERTEX
  5
90B
  8
0
 10
22.2581967187045109
 20
55.92519876811469
 30
0.0
  0
VERTEX
  5
90C
  8
0
 10
22.1188216964310698
 20
55.9403974566521711
 30
0.0
  0
VERTEX
  5
90D
  8
0
 10
21.9793008966941805
 20
55.9533681486609709
 30
0.0
  0
VERTEX
  5
90E
  8
0
 10
21.8396476405378586
 20
55.9641460080545627
 30
0.0
  0
VERTEX
  5
90F
  8
0
 10
21.6998804434848616
 20
55.9730240983657623
 30
0.0
  0
VERTEX
  5
910
  8
0
 10
21.5600182956845892
 20
55.9803190477749766
 30
0.0
  0
VERTEX
  5
911
  8
0
 10
21.4200801872865192
 20
55.9863474844626197
 30
0.0
  0
VERTEX
  5
912
  8
0
 10
21.2800851084400904
 20
55.9914260366090772
 30
0.0
  0
VERTEX
  5
913
  8
0
 10
21.1400520492947805
 20
55.9958713323947421
 30
0.0
  0
VERTEX
  5
914
  8
0
 10
21.0
 20
56.0
 30
0.0
  0
SEQEND
  5
915
  8
0
  0
POLYLINE
  5
698
  8
0
 66
     1
 10
0.0
 20
0.0
 30
0.0
  0
VERTEX
  5
916
  8
0
 10
21.0
 20
56.0
 30
0.0
  0
VERTEX
  5
917
  8
0
 10
20.8600051100365
 20
55.9986479292103425
 30
0.0
  0
VERTEX
  5
918
  8
0
 10
20.7200294553096001
 20
55.9962165421422782
 30
0.0
  0
VERTEX
  5
919
  8
0
 10
20.58009147909425
 20
55.9918034268811269
 30
0.0
  0
VERTEX
  5
91A
  8
0
 10
20.4402061387963592
 20
55.985284827200033
 30
0.0
  0
VERTEX
  5
91B
  8
0
 10
20.3003874330262306
 20
55.9767511577550465
 30
0.0
  0
VERTEX
  5
91C
  8
0
 10
20.1606493603659089
 20
55.9662928395128318
 30
0.0
  0
VERTEX
  5
91D
  8
0
 10
20.0210059193974494
 20
55.9540002934400107
 30
0.0
  0
VERTEX
  5
91E
  8
0
 10
19.8814711087029004
 20
55.9399639405032332
 30
0.0
  0
VERTEX
  5
91F
  8
0
 10
19.7420589866660485
 20
55.9242736432074068
 30
0.0
  0
VERTEX
  5
920
  8
0
 10
19.6027888013817915
 20
55.9069707996510203
 30
0.0
  0
VERTEX
  5
921
  8
0
 10
19.4636889329172504
 20
55.8880115285021191
 30
0.0
  0
VERTEX
  5
922
  8
0
 10
19.3247886894163194
 20
55.8673432815318378
 30
0.0
  0
VERTEX
  5
923
  8
0
 10
19.18611737902296
 20
55.8449135105112973
 30
0.0
  0
VERTEX
  5
924
  8
0
 10
19.0477043098810803
 20
55.820669667211618
 30
0.0
  0
VERTEX
  5
925
  8
0
 10
18.9095787901345602
 20
55.7945592034039279
 30
0.0
  0
VERTEX
  5
926
  8
0
 10
18.7717681727462491
 20
55.7665367090657824
 30
0.0
  0
VERTEX
  5
927
  8
0
 10
18.634270920724699
 20
55.7366622490378205
 30
0.0
  0
VERTEX
  5
928
  8
0
 10
18.49706344292224
 20
55.7050764060833572
 30
0.0
  0
VERTEX
  5
929
  8
0
 10
18.3601215914872817
 20
55.6719217954462735
 30
0.0
  0
VERTEX
  5
92A
  8
0
 10
18.2234212185682303
 20
55.6373410323704505
 30
0.0
  0
VERTEX
  5
92B
  8
0
 10
18.0869381763134811
 20
55.6014767320997478
 30
0.0
  0
VERTEX
  5
92C
  8
0
 10
17.950648316871451
 20
55.5644715098780466
 30
0.0
  0
VERTEX
  5
92D
  8
0
 10
17.814527492390571
 20
55.5264679809492279
 30
0.0
  0
VERTEX
  5
92E
  8
0
 10
17.6785515550192187
 20
55.4876087605571584
 30
0.0
  0
VERTEX
  5
92F
  8
0
 10
17.5426963569058501
 20
55.4480364639457335
 30
0.0
  0
VERTEX
  5
930
  8
0
 10
17.4069377501988001
 20
55.4078937063587773
 30
0.0
  0
VERTEX
  5
931
  8
0
 10
17.2712515870465495
 20
55.3673231030402206
 30
0.0
  0
VERTEX
  5
932
  8
0
 10
17.1356137195974689
 20
55.326467269233909
 30
0.0
  0
VERTEX
  5
933
  8
0
 10
17.0
 20
55.2854688201837234
 30
0.0
  0
SEQEND
  5
934
  8
0
  0
POLYLINE
  5
699
  8
0
 66
     1
 10
0.0
 20
0.0
 30
0.0
  0
VERTEX
  5
935
  8
0
 10
17.0
 20
51.7145311798163902
 30
0.0
  0
VERTEX
  5
936
  8
0
 10
17.1350905711247989
 20
51.6718521797220021
 30
0.0
  0
VERTEX
  5
937
  8
0
 10
17.2702279305207718
 20
51.6293978399164004
 30
0.0
  0
VERTEX
  5
938
  8
0
 10
17.4054588664590391
 20
51.5873928206883576
 30
0.0
  0
VERTEX
  5
939
  8
0
 10
17.5408301672107392
 20
51.5460617823266816
 30
0.0
  0
VERTEX
  5
93A
  8
0
 10
17.6763886210470389
 20
51.5056293851201374
 30
0.0
  0
VERTEX
  5
93B
  8
0
 10
17.8121810162390908
 20
51.4663202893575118
 30
0.0
  0
VERTEX
  5
93C
  8
0
 10
17.9482541410580403
 20
51.4283591553275983
 30
0.0
  0
VERTEX
  5
93D
  8
0
 10
18.0846489818869998
 20
51.3919474785757728
 30
0.0
  0
VERTEX
  5
93E
  8
0
 10
18.22136583041015
 20
51.3571242761137512
 30
0.0
  0
VERTEX
  5
93F
  8
0
 10
18.3583875600221802
 20
51.3238590203144014
 30
0.0
  0
VERTEX
  5
940
  8
0
 10
18.4956969780956797
 20
51.2921209199493902
 30
0.0
  0
VERTEX
  5
941
  8
0
 10
18.6332768920031491
 20
51.2618791837903132
 30
0.0
  0
VERTEX
  5
942
  8
0
 10
18.7711101091172416
 20
51.2331030206087874
 30
0.0
  0
VERTEX
  5
943
  8
0
 10
18.90917943681049
 20
51.2057616391764796
 30
0.0
  0
VERTEX
  5
944
  8
0
 10
19.0474679855557483
 20
51.179830931060593
 30
0.0
  0
VERTEX
  5
945
  8
0
 10
19.1859628363028811
 20
51.1553743294338403
 30
0.0
  0
VERTEX
  5
946
  8
0
 10
19.3246538611455492
 20
51.1325168069809095
 30
0.0
  0
VERTEX
  5
947
  8
0
 10
19.4635309901886409
 20
51.111384615423809
 30
0.0
  0
VERTEX
  5
948
  8
0
 10
19.6025841535370091
 20
51.0921040064845684
 30
0.0
  0
VERTEX
  5
949
  8
0
 10
19.7418032812954891
 20
51.0748012318852034
 30
0.0
  0
VERTEX
  5
94A
  8
0
 10
19.8811783035689302
 20
51.0596025433477294
 30
0.0
  0
VERTEX
  5
94B
  8
0
 10
20.0206991033058195
 20
51.0466318513389368
 30
0.0
  0
VERTEX
  5
94C
  8
0
 10
20.1603523594621414
 20
51.0358539919453733
 30
0.0
  0
VERTEX
  5
94D
  8
0
 10
20.3001195565151384
 20
51.0269759016341879
 30
0.0
  0
VERTEX
  5
94E
  8
0
 10
20.4399817043154108
 20
51.0196809522249666
 30
0.0
  0
VERTEX
  5
94F
  8
0
 10
20.5799198127134808
 20
51.0136525155373519
 30
0.0
  0
VERTEX
  5
950
  8
0
 10
20.7199148915599096
 20
51.0085739633909014
 30
0.0
  0
VERTEX
  5
951
  8
0
 10
20.8599479507052195
 20
51.0041286676052508
 30
0.0
  0
VERTEX
  5
952
  8
0
 10
21.0
 20
50.9999999999999929
 30
0.0
  0
SEQEND
  5
953
  8
0
  0
POLYLINE
  5
69A
  8
0
 66
     1
 10
0.0
 20
0.0
 30
0.0
  0
VERTEX
  5
954
  8
0
 10
21.0
 20
51.0
 30
0.0
  0
VERTEX
  5
955
  8
0
 10
21.1399948899635
 20
51.001352070789558
 30
0.0
  0
VERTEX
  5
956
  8
0
 10
21.2799705446903999
 20
51.003783457857601
 30
0.0
  0
VERTEX
  5
957
  8
0
 10
21.41990852090575
 20
51.0081965731187665
 30
0.0
  0
VERTEX
  5
958
  8
0
 10
21.5597938612036408
 20
51.0147151727998676
 30
0.0
  0
VERTEX
  5
959
  8
0
 10
21.6996125669737694
 20
51.0232488422448611
 30
0.0
  0
VERTEX
  5
95A
  8
0
 10
21.8393506396340911
 20
51.0337071604870971
 30
0.0
  0
VERTEX
  5
95B
  8
0
 10
21.9789940806025506
 20
51.0459997065599325
 30
0.0
  0
VERTEX
  5
95C
  8
0
 10
22.1185288912970996
 20
51.0600360594967171
 30
0.0
  0
VERTEX
  5
95D
  8
0
 10
22.2579410133339515
 20
51.0757263567925506
 30
0.0
  0
VERTEX
  5
95E
  8
0
 10
22.3972111986182085
 20
51.093029200348937
 30
0.0
  0
VERTEX
  5
95F
  8
0
 10
22.5363110670827496
 20
51.1119884714978383
 30
0.0
  0
VERTEX
  5
960
  8
0
 10
22.6752113105836806
 20
51.1326567184681195
 30
0.0
  0
VERTEX
  5
961
  8
0
 10
22.81388262097704
 20
51.155086489488653
 30
0.0
  0
VERTEX
  5
962
  8
0
 10
22.9522956901189197
 20
51.179330332788318
 30
0.0
  0
VERTEX
  5
963
  8
0
 10
23.0904212098654398
 20
51.2054407965960081
 30
0.0
  0
VERTEX
  5
964
  8
0
 10
23.2282318272537509
 20
51.2334632909341465
 30
0.0
  0
VERTEX
  5
965
  8
0
 10
23.365729079275301
 20
51.2633377509621084
 30
0.0
  0
VERTEX
  5
966
  8
0
 10
23.50293655707776
 20
51.2949235939165789
 30
0.0
  0
VERTEX
  5
967
  8
0
 10
23.6398784085127183
 20
51.3280782045536697
 30
0.0
  0
VERTEX
  5
968
  8
0
 10
23.7765787814317591
 20
51.3626589676294998
 30
0.0
  0
VERTEX
  5
969
  8
0
 10
23.9130618236865189
 20
51.3985232679002166
 30
0.0
  0
VERTEX
  5
96A
  8
0
 10
24.049351683128549
 20
51.4355284901219179
 30
0.0
  0
VERTEX
  5
96B
  8
0
 10
24.185472507609429
 20
51.4735320190507579
 30
0.0
  0
VERTEX
  5
96C
  8
0
 10
24.3214484449807813
 20
51.5123912394428416
 30
0.0
  0
VERTEX
  5
96D
  8
0
 10
24.4573036430941499
 20
51.551963536054302
 30
0.0
  0
VERTEX
  5
96E
  8
0
 10
24.5930622498011999
 20
51.5921062936412511
 30
0.0
  0
VERTEX
  5
96F
  8
0
 10
24.7287484129534505
 20
51.6326768969598504
 30
0.0
  0
VERTEX
  5
970
  8
0
 10
24.8643862804025311
 20
51.6735327307661834
 30
0.0
  0
VERTEX
  5
971
  8
0
 10
25.0
 20
51.7145311798163902
 30
0.0
  0
SEQEND
  5
972
  8
0
  0
POLYLINE
  5
69B
  8
0
 66
     1
 10
0.0
 20
0.0
 30
0.0
  0
VERTEX
  5
973
  8
0
 10
37.0
 20
77.6395280956807028
 30
0.0
  0
VERTEX
  5
974
  8
0
 10
37.0
 20
77.6925823929115609
 30
0.0
  0
VERTEX
  5
975
  8
0
 10
37.0
 20
77.7454481785808866
 30
0.0
  0
VERTEX
  5
976
  8
0
 10
37.0
 20
77.797936941127162
 30
0.0
  0
VERTEX
  5
977
  8
0
 10
37.0
 20
77.8498601689888687
 30
0.0
  0
VERTEX
  5
978
  8
0
 10
37.0
 20
77.9010293506044604
 30
0.0
  0
VERTEX
  5
979
  8
0
 10
37.0
 20
77.9512559744124047
 30
0.0
  0
VERTEX
  5
97A
  8
0
 10
37.0
 20
78.0003515288511835
 30
0.0
  0
VERTEX
  5
97B
  8
0
 10
37.0
 20
78.0481275023592929
 30
0.0
  0
VERTEX
  5
97C
  8
0
 10
37.0
 20
78.094405021533646
 30
0.0
  0
VERTEX
  5
97D
  8
0
 10
37.0
 20
78.1391035804878555
 30
0.0
  0
VERTEX
  5
97E
  8
0
 10
37.0
 20
78.1822001933492885
 30
0.0
  0
VERTEX
  5
97F
  8
0
 10
37.0
 20
78.2236725980967833
 30
0.0
  0
VERTEX
  5
980
  8
0
 10
37.0
 20
78.2634985327092494
 30
0.0
  0
VERTEX
  5
981
  8
0
 10
37.0
 20
78.301655735165582
 30
0.0
  0
VERTEX
  5
982
  8
0
 10
37.0
 20
78.3381219434446621
 30
0.0
  0
VERTEX
  5
983
  8
0
 10
37.0
 20
78.3728748955253991
 30
0.0
  0
VERTEX
  5
984
  8
0
 10
37.0
 20
78.4058923293866741
 30
0.0
  0
VERTEX
  5
985
  8
0
 10
37.0
 20
78.4371656451416897
 30
0.0
  0
VERTEX
  5
986
  8
0
 10
37.0
 20
78.4667547044829092
 30
0.0
  0
VERTEX
  5
987
  8
0
 10
37.0
 20
78.4947407685384348
 30
0.0
  0
VERTEX
  5
988
  8
0
 10
37.0
 20
78.5212051056793428
 30
0.0
  0
VERTEX
  5
989
  8
0
 10
37.0
 20
78.5462289842767376
 30
0.0
  0
VERTEX
  5
98A
  8
0
 10
37.0
 20
78.5698936727017241
 30
0.0
  0
VERTEX
  5
98B
  8
0
 10
37.0
 20
78.5922804393254353
 30
0.0
  0
VERTEX
  5
98C
  8
0
 10
37.0
 20
78.6134705525189332
 30
0.0
  0
VERTEX
  5
98D
  8
0
 10
37.0
 20
78.6335449849198937
 30
0.0
  0
VERTEX
  5
98E
  8
0
 10
37.0
 20
78.6524507912871229
 30
0.0
  0
VERTEX
  5
98F
  8
0
 10
37.0
 20
78.6697899791952011
 30
0.0
  0
VERTEX
  5
990
  8
0
 10
37.0
 20
78.6851097398242985
 30
0.0
  0
VERTEX
  5
991
  8
0
 10
37.0
 20
78.6979572643546135
 30
0.0
  0
VERTEX
  5
992
  8
0
 10
37.0
 20
78.7078797439663305
 30
0.0
  0
VERTEX
  5
993
  8
0
 10
37.0
 20
78.7144243698396053
 30
0.0
  0
VERTEX
  5
994
  8
0
 10
37.0
 20
78.7171383331546224
 30
0.0
  0
VERTEX
  5
995
  8
0
 10
37.0
 20
78.7155688250915659
 30
0.0
  0
VERTEX
  5
996
  8
0
 10
37.0
 20
78.709284271064007
 30
0.0
  0
SEQEND
  5
997
  8
0
  0
POLYLINE
  5
69C
  8
0
 66
     1
 10
0.0
 20
0.0
 30
0.0
  0
VERTEX
  5
998
  8
0
 10
13.0
 20
77.6395280956807028
 30
0.0
  0
VERTEX
  5
999
  8
0
 10
13.0
 20
77.6925823929115609
 30
0.0
  0
VERTEX
  5
99A
  8
0
 10
13.0
 20
77.7454481785808866
 30
0.0
  0
VERTEX
  5
99B
  8
0
 10
13.0
 20
77.7979369411271477
 30
0.0
  0
VERTEX
  5
99C
  8
0
 10
13.0
 20
77.8498601689888403
 30
0.0
  0
VERTEX
  5
99D
  8
0
 10
13.0
 20
77.9010293506044178
 30
0.0
  0
VERTEX
  5
99E
  8
0
 10
13.0
 20
77.9512559744123621
 30
0.0
  0
VERTEX
  5
99F
  8
0
 10
13.0
 20
78.0003515288511409
 30
0.0
  0
VERTEX
  5
9A0
  8
0
 10
13.0
 20
78.0481275023592218
 30
0.0
  0
VERTEX
  5
9A1
  8
0
 10
13.0
 20
78.0944050215335608
 30
0.0
  0
VERTEX
  5
9A2
  8
0
 10
13.0
 20
78.1391035804877845
 30
0.0
  0
VERTEX
  5
9A3
  8
0
 10
13.0
 20
78.1822001933492032
 30
0.0
  0
VERTEX
  5
9A4
  8
0
 10
13.0
 20
78.223672598096698
 30
0.0
  0
VERTEX
  5
9A5
  8
0
 10
13.0
 20
78.2634985327091783
 30
0.0
  0
VERTEX
  5
9A6
  8
0
 10
13.0
 20
78.3016557351655109
 30
0.0
  0
VERTEX
  5
9A7
  8
0
 10
13.0
 20
78.3381219434446052
 30
0.0
  0
VERTEX
  5
9A8
  8
0
 10
13.0
 20
78.3728748955253565
 30
0.0
  0
VERTEX
  5
9A9
  8
0
 10
13.0
 20
78.4058923293866314
 30
0.0
  0
VERTEX
  5
9AA
  8
0
 10
13.0
 20
78.4371656451416897
 30
0.0
  0
VERTEX
  5
9AB
  8
0
 10
13.0
 20
78.4667547044829234
 30
0.0
  0
VERTEX
  5
9AC
  8
0
 10
13.0
 20
78.4947407685384348
 30
0.0
  0
VERTEX
  5
9AD
  8
0
 10
13.0
 20
78.521205105679357
 30
0.0
  0
VERTEX
  5
9AE
  8
0
 10
13.0
 20
78.546228984276766
 30
0.0
  0
VERTEX
  5
9AF
  8
0
 10
13.0
 20
78.5698936727017667
 30
0.0
  0
VERTEX
  5
9B0
  8
0
 10
13.0
 20
78.5922804393254637
 30
0.0
  0
VERTEX
  5
9B1
  8
0
 10
13.0
 20
78.6134705525189617
 30
0.0
  0
VERTEX
  5
9B2
  8
0
 10
13.0000000000000302
 20
78.6335449849199364
 30
0.0
  0
VERTEX
  5
9B3
  8
0
 10
13.0000000000000302
 20
78.6524507912871655
 30
0.0
  0
VERTEX
  5
9B4
  8
0
 10
13.0000000000000302
 20
78.6697899791952437
 30
0.0
  0
VERTEX
  5
9B5
  8
0
 10
13.0000000000000604
 20
78.6851097398243695
 30
0.0
  0
VERTEX
  5
9B6
  8
0
 10
13.0000000000000604
 20
78.6979572643546845
 30
0.0
  0
VERTEX
  5
9B7
  8
0
 10
13.0000000000000604
 20
78.7078797439664015
 30
0.0
  0
VERTEX
  5
9B8
  8
0
 10
13.0000000000000604
 20
78.7144243698396764
 30
0.0
  0
VERTEX
  5
9B9
  8
0
 10
13.0000000000000302
 20
78.717138333154665
 30
0.0
  0
VERTEX
  5
9BA
  8
0
 10
13.0000000000000302
 20
78.7155688250915944
 30
0.0
  0
VERTEX
  5
9BB
  8
0
 10
13.0
 20
78.709284271064007
 30
0.0
  0
SEQEND
  5
9BC
  8
0
  0
POLYLINE
  5
69D
  8
0
 66
     1
 10
0.0
 20
0.0
 30
0.0
  0
VERTEX
  5
9BD
  8
0
 10
13.0
 20
67.360471904319283
 30
0.0
  0
VERTEX
  5
9BE
  8
0
 10
13.0
 20
67.2964197123794605
 30
0.0
  0
VERTEX
  5
9BF
  8
0
 10
13.0
 20
67.2327076282143139
 30
0.0
  0
VERTEX
  5
9C0
  8
0
 10
13.0
 20
67.1696757595985474
 30
0.0
  0
VERTEX
  5
9C1
  8
0
 10
13.0
 20
67.1076642143068653
 30
0.0
  0
VERTEX
  5
9C2
  8
0
 10
13.0
 20
67.047013100113972
 30
0.0
  0
VERTEX
  5
9C3
  8
0
 10
13.0
 20
66.9880625247945432
 30
0.0
  0
VERTEX
  5
9C4
  8
0
 10
13.0
 20
66.9311525961232974
 30
0.0
  0
VERTEX
  5
9C5
  8
0
 10
13.0
 20
66.8765886066182276
 30
0.0
  0
VERTEX
  5
9C6
  8
0
 10
13.0
 20
66.824424093039994
 30
0.0
  0
VERTEX
  5
9C7
  8
0
 10
13.0
 20
66.7746018904817902
 30
0.0
  0
VERTEX
  5
9C8
  8
0
 10
13.0
 20
66.7270643560345604
 30
0.0
  0
VERTEX
  5
9C9
  8
0
 10
13.0
 20
66.6817538467893058
 30
0.0
  0
VERTEX
  5
9CA
  8
0
 10
13.0
 20
66.6386127198369707
 30
0.0
  0
VERTEX
  5
9CB
  8
0
 10
13.0
 20
66.5975833322685276
 30
0.0
  0
VERTEX
  5
9CC
  8
0
 10
13.0
 20
66.558615657455988
 30
0.0
  0
VERTEX
  5
9CD
  8
0
 10
13.0
 20
66.5217990542553252
 30
0.0
  0
VERTEX
  5
9CE
  8
0
 10
13.0
 20
66.487344879339318
 30
0.0
  0
VERTEX
  5
9CF
  8
0
 10
13.0
 20
66.4554686087637805
 30
0.0
  0
VERTEX
  5
9D0
  8
0
 10
13.0
 20
66.4263857185845126
 30
0.0
  0
VERTEX
  5
9D1
  8
0
 10
13.0
 20
66.4003116848573285
 30
0.0
  0
VERTEX
  5
9D2
  8
0
 10
13.0
 20
66.377461983638014
 30
0.0
  0
VERTEX
  5
9D3
  8
0
 10
13.0
 20
66.3580489980242021
 30
0.0
  0
VERTEX
  5
9D4
  8
0
 10
13.0
 20
66.3420401023353747
 30
0.0
  0
VERTEX
  5
9D5
  8
0
 10
13.0
 20
66.3289841039254497
 30
0.0
  0
VERTEX
  5
9D6
  8
0
 10
13.0
 20
66.3183888532479244
 30
0.0
  0
VERTEX
  5
9D7
  8
0
 10
13.0
 20
66.3097622007563245
 30
0.0
  0
VERTEX
  5
9D8
  8
0
 10
13.0
 20
66.3026119969041616
 30
0.0
  0
VERTEX
  5
9D9
  8
0
 10
13.0
 20
66.2964460921449614
 30
0.0
  0
VERTEX
  5
9DA
  8
0
 10
13.0
 20
66.2907723369322639
 30
0.0
  0
SEQEND
  5
9DB
  8
0
  0
POLYLINE
  5
69E
  8
0
 66
     1
 10
0.0
 20
0.0
 30
0.0
  0
VERTEX
  5
9DC
  8
0
 10
37.0
 20
67.360471904319283
 30
0.0
  0
VERTEX
  5
9DD
  8
0
 10
37.0
 20
67.2964197123794605
 30
0.0
  0
VERTEX
  5
9DE
  8
0
 10
37.0
 20
67.2327076282143139
 30
0.0
  0
VERTEX
  5
9DF
  8
0
 10
37.0
 20
67.1696757595985474
 30
0.0
  0
VERTEX
  5
9E0
  8
0
 10
37.0
 20
67.1076642143068653
 30
0.0
  0
VERTEX
  5
9E1
  8
0
 10
37.0
 20
67.047013100113972
 30
0.0
  0
VERTEX
  5
9E2
  8
0
 10
37.0
 20
66.9880625247945432
 30
0.0
  0
VERTEX
  5
9E3
  8
0
 10
37.0
 20
66.9311525961232974
 30
0.0
  0
VERTEX
  5
9E4
  8
0
 10
37.0
 20
66.8765886066182276
 30
0.0
  0
VERTEX
  5
9E5
  8
0
 10
37.0
 20
66.824424093039994
 30
0.0
  0
VERTEX
  5
9E6
  8
0
 10
37.0
 20
66.7746018904817902
 30
0.0
  0
VERTEX
  5
9E7
  8
0
 10
37.0
 20
66.7270643560345604
 30
0.0
  0
VERTEX
  5
9E8
  8
0
 10
37.0
 20
66.6817538467893058
 30
0.0
  0
VERTEX
  5
9E9
  8
0
 10
37.0
 20
66.6386127198369707
 30
0.0
  0
VERTEX
  5
9EA
  8
0
 10
37.0
 20
66.5975833322685276
 30
0.0
  0
VERTEX
  5
9EB
  8
0
 10
37.0
 20
66.558615657455988
 30
0.0
  0
VERTEX
  5
9EC
  8
0
 10
37.0
 20
66.5217990542553252
 30
0.0
  0
VERTEX
  5
9ED
  8
0
 10
37.0
 20
66.487344879339318
 30
0.0
  0
VERTEX
  5
9EE
  8
0
 10
37.0
 20
66.4554686087637805
 30
0.0
  0
VERTEX
  5
9EF
  8
0
 10
37.0
 20
66.4263857185845126
 30
0.0
  0
VERTEX
  5
9F0
  8
0
 10
37.0
 20
66.4003116848573143
 30
0.0
  0
VERTEX
  5
9F1
  8
0
 10
37.0
 20
66.377461983638014
 30
0.0
  0
VERTEX
  5
9F2
  8
0
 10
37.0
 20
66.3580489980242021
 30
0.0
  0
VERTEX
  5
9F3
  8
0
 10
37.0
 20
66.3420401023353747
 30
0.0
  0
VERTEX
  5
9F4
  8
0
 10
37.0
 20
66.3289841039254497
 30
0.0
  0
VERTEX
  5
9F5
  8
0
 10
37.0
 20
66.3183888532479244
 30
0.0
  0
VERTEX
  5
9F6
  8
0
 10
37.0
 20
66.3097622007563245
 30
0.0
  0
VERTEX
  5
9F7
  8
0
 10
37.0
 20
66.3026119969041616
 30
0.0
  0
VERTEX
  5
9F8
  8
0
 10
37.0
 20
66.2964460921449614
 30
0.0
  0
VERTEX
  5
9F9
  8
0
 10
37.0
 20
66.2907723369322639
 30
0.0
  0
SEQEND
  5
9FA
  8
0
  0
ENDSEC
  0
EOF
