  0
SECTION
  2
HEADER
  9
$ACADVER
  1
AC1009
  9
$INSBASE
 10
0.0
 20
0.0
 30
0.0
  9
$EXTMIN
 10
0.0
 20
-2.960436562073669
 30
0.0
  9
$EXTMAX
 10
133.5538881309686019
 20
198.000000000000199
 30
0.0
  9
$LIMMIN
 10
0.0
 20
0.0
  9
$LIMMAX
 10
375.0
 20
270.0
  9
$ORTHOMODE
 70
     1
  9
$REGENMODE
 70
     1
  9
$FILLMODE
 70
     1
  9
$QTEXTMODE
 70
     0
  9
$MIRRTEXT
 70
     0
  9
$DRAGMODE
 70
     2
  9
$LTSCALE
 40
6.0
  9
$OSMODE
 70
    37
  9
$ATTMODE
 70
     1
  9
$TEXTSIZE
 40
0.2
  9
$TRACEWID
 40
0.05
  9
$TEXTSTYLE
  7
STANDARD
  9
$CLAYER
  8
0
  9
$CELTYPE
  6
BYLAYER
  9
$CECOLOR
 62
   256
  9
$DIMSCALE
 40
1.0
  9
$DIMASZ
 40
3.0
  9
$DIMEXO
 40
1.0
  9
$DIMDLI
 40
6.0
  9
$DIMRND
 40
0.0
  9
$DIMDLE
 40
0.0
  9
$DIMEXE
 40
1.0
  9
$DIMTP
 40
495.0
  9
$DIMTM
 40
0.0
  9
$DIMTXT
 40
3.0
  9
$DIMCEN
 40
0.0
  9
$DIMTSZ
 40
0.0
  9
$DIMTOL
 70
     0
  9
$DIMLIM
 70
     0
  9
$DIMTIH
 70
     0
  9
$DIMTOH
 70
     0
  9
$DIMSE1
 70
     0
  9
$DIMSE2
 70
     0
  9
$DIMTAD
 70
     1
  9
$DIMZIN
 70
     0
  9
$DIMBLK
  1

  9
$DIMASO
 70
     0
  9
$DIMSHO
 70
     0
  9
$DIMPOST
  1

  9
$DIMAPOST
  1

  9
$DIMALT
 70
     0
  9
$DIMALTD
 70
     2
  9
$DIMALTF
 40
25.3999999999999986
  9
$DIMLFAC
 40
1.0
  9
$DIMTOFL
 70
     1
  9
$DIMTVP
 40
0.0
  9
$DIMTIX
 70
     1
  9
$DIMSOXD
 70
     0
  9
$DIMSAH
 70
     0
  9
$DIMBLK1
  1

  9
$DIMBLK2
  1

  9
$DIMSTYLE
  2
STANDARD
  9
$DIMCLRD
 70
     0
  9
$DIMCLRE
 70
     0
  9
$DIMCLRT
 70
     4
  9
$DIMTFAC
 40
1.0
  9
$DIMGAP
 40
1.0
  9
$LUNITS
 70
     2
  9
$LUPREC
 70
     4
  9
$SKETCHINC
 40
0.1
  9
$FILLETRAD
 40
0.0
  9
$AUNITS
 70
     0
  9
$AUPREC
 70
     0
  9
$MENU
  1
C:\R13\WIN\SUPPORT\ACAD-I
  9
$ELEVATION
 40
0.0
  9
$PELEVATION
 40
0.0
  9
$THICKNESS
 40
0.0
  9
$LIMCHECK
 70
     0
  9
$BLIPMODE
 70
     0
  9
$CHAMFERA
 40
0.0
  9
$CHAMFERB
 40
0.0
  9
$SKPOLY
 70
     0
  9
$TDCREATE
 40
2451961.7115277778357267
  9
$TDUPDATE
 40
2460580.5716898147948086
  9
$TDINDWG
 40
0.1388225347
  9
$TDUSRTIMER
 40
2456598.1002983911894262
  9
$USRTIMER
 70
     1
  9
$ANGBASE
 50
0.0
  9
$ANGDIR
 70
     0
  9
$PDMODE
 70
     0
  9
$PDSIZE
 40
0.0
  9
$PLINEWID
 40
0.0
  9
$COORDS
 70
     1
  9
$SPLFRAME
 70
     0
  9
$SPLINETYPE
 70
     6
  9
$SPLINESEGS
 70
     8
  9
$ATTDIA
 70
     1
  9
$ATTREQ
 70
     1
  9
$HANDLING
 70
     1
  9
$HANDSEED
  5
634
  9
$SURFTAB1
 70
     6
  9
$SURFTAB2
 70
     6
  9
$SURFTYPE
 70
     6
  9
$SURFU
 70
     6
  9
$SURFV
 70
     6
  9
$UCSNAME
  2

  9
$UCSORG
 10
0.0
 20
0.0
 30
0.0
  9
$UCSXDIR
 10
1.0
 20
0.0
 30
0.0
  9
$UCSYDIR
 10
0.0
 20
1.0
 30
0.0
  9
$PUCSNAME
  2

  9
$PUCSORG
 10
0.0
 20
0.0
 30
0.0
  9
$PUCSXDIR
 10
1.0
 20
0.0
 30
0.0
  9
$PUCSYDIR
 10
0.0
 20
1.0
 30
0.0
  9
$USERI1
 70
     4
  9
$USERI2
 70
     1
  9
$USERI3
 70
     0
  9
$USERI4
 70
     0
  9
$USERI5
 70
     0
  9
$USERR1
 40
1.0
  9
$USERR2
 40
3.0
  9
$USERR3
 40
3.0
  9
$USERR4
 40
3.0
  9
$USERR5
 40
10.0
  9
$WORLDVIEW
 70
     1
  9
$SHADEDGE
 70
     3
  9
$SHADEDIF
 70
    70
  9
$TILEMODE
 70
     1
  9
$MAXACTVP
 70
    16
  9
$PLIMCHECK
 70
     0
  9
$PEXTMIN
 10
1.0000000000000000E+20
 20
1.0000000000000000E+20
 30
1.0000000000000000E+20
  9
$PEXTMAX
 10
-1.0000000000000000E+20
 20
-1.0000000000000000E+20
 30
-1.0000000000000000E+20
  9
$PLIMMIN
 10
0.0
 20
0.0
  9
$PLIMMAX
 10
12.0
 20
9.0
  9
$UNITMODE
 70
     0
  9
$VISRETAIN
 70
     0
  9
$PLINEGEN
 70
     0
  9
$PSLTSCALE
 70
     0
  0
ENDSEC
  0
SECTION
  2
TABLES
  0
TABLE
  2
VPORT
 70
     1
  0
VPORT
  2
*ACTIVE
 70
     0
 10
0.0
 20
0.0
 11
1.0
 21
1.0
 12
246.5948275862068897
 22
105.0
 13
0.0
 23
0.0
 14
10.0
 24
10.0
 15
10.0
 25
10.0
 16
0.0
 26
0.0
 36
1.0
 17
0.0
 27
0.0
 37
0.0
 40
210.0
 41
2.3485221674876842
 42
50.0
 43
0.0
 44
0.0
 50
0.0
 51
0.0
 71
    16
 72
   100
 73
     1
 74
     0
 75
     0
 76
     0
 77
     0
 78
     0
  0
ENDTAB
  0
TABLE
  2
LTYPE
 70
     3
  0
LTYPE
  2
CONTINUOUS
 70
     0
  3
Solid Line
 72
    65
 73
     0
 40
0.0
  0
LTYPE
  2
CENTER
 70
     0
  3
____ _ ____ _ ____ _ ____ _ ____ _ ____ _ ____
 72
    65
 73
     4
 40
2.0
 49
1.25
 49
-0.25
 49
0.25
 49
-0.25
  0
LTYPE
  2
HIDDEN
 70
     0
  3
Hidden __ __ __ __ __ __ __ __ __ __ __ __ __ __
 72
    65
 73
     2
 40
1.905
 49
1.27
 49
-0.635
  0
ENDTAB
  0
TABLE
  2
LAYER
 70
     4
  0
LAYER
  2
0
 70
     0
 62
     7
  6
CONTINUOUS
  0
LAYER
  2
1
 70
     0
 62
     1
  6
CENTER
  0
LAYER
  2
3
 70
     0
 62
     3
  6
CONTINUOUS
  0
LAYER
  2
2
 70
     0
 62
     2
  6
HIDDEN
  0
ENDTAB
  0
TABLE
  2
STYLE
 70
     2
  0
STYLE
  2
STANDARD
 70
     0
 40
0.0
 41
1.0
 50
0.0
 71
     0
 42
0.2
  3
SIMPLEX
  4
BIGFONT
  0
STYLE
  2
STANDARD1
 70
     0
 40
0.0
 41
1.0
 50
0.0
 71
     0
 42
3.0
  3
txt
  4

  0
ENDTAB
  0
TABLE
  2
VIEW
 70
     0
  0
ENDTAB
  0
TABLE
  2
UCS
 70
     0
  0
ENDTAB
  0
TABLE
  2
APPID
 70
     8
  0
APPID
  2
ACAD
 70
     0
  0
APPID
  2
ACAD_NAV_VCDISPLAY
 70
     0
  0
APPID
  2
ACAECLAYERSTANDARD
 70
     0
  0
APPID
  2
ACCMTRANSPARENCY
 70
     0
  0
APPID
  2
ACAD_EXEMPT_FROM_CAD_STANDARDS
 70
     0
  0
APPID
  2
ACAD_DSTYLE_DIMRADIAL_EXTENSION
 70
     0
  0
APPID
  2
ACAD_TC
 70
     0
  0
APPID
  2
ACAD_MLEADERVER
 70
     0
  0
ENDTAB
  0
TABLE
  2
DIMSTYLE
 70
     1
  0
DIMSTYLE
  2
STANDARD
 70
     0
  3

  4

  5

  6

  7

 40
1.0
 41
0.18
 42
0.0625
 43
0.38
 44
0.18
 45
0.0
 46
0.0
 47
0.0
 48
0.0
140
0.18
141
0.09
142
0.0
143
25.3999999999999986
144
1.0
145
0.0
146
1.0
147
0.09
 71
     0
 72
     0
 73
     1
 74
     1
 75
     0
 76
     0
 77
     0
 78
     0
170
     0
171
     2
172
     0
173
     0
174
     0
175
     0
176
     0
177
     0
178
     0
  0
ENDTAB
  0
ENDSEC
  0
SECTION
  2
BLOCKS
  0
BLOCK
  8
0
  2
$MODEL_SPACE
 70
     0
 10
0.0
 20
0.0
 30
0.0
  3
$MODEL_SPACE
  1

  0
ENDBLK
  5
F
  8
0
  0
BLOCK
 67
     1
  8
0
  2
$PAPER_SPACE
 70
     0
 10
0.0
 20
0.0
 30
0.0
  3
$PAPER_SPACE
  1

  0
ENDBLK
  5
14
 67
     1
  8
0
  0
ENDSEC
  0
SECTION
  2
ENTITIES
  0
TEXT
  5
59
  8
0
 62
     3
 10
0.0
 20
0.0
 30
0.0
 40
10.0
  1
LSVA40-M8X68-SUS
  7
STANDARD1
  0
LINE
  5
226
  8
0
 10
31.4990250563275787
 20
72.3556624327026014
 30
0.0
 11
31.2490250563275787
 21
72.5
 31
0.0
  0
LINE
  5
227
  8
0
 10
18.7490250563275787
 20
72.5
 30
0.0
 11
18.4990250563275787
 21
72.3556624327026014
 31
0.0
  0
LINE
  5
228
  8
0
 10
18.4990250563275787
 20
66.1443375672974128
 30
0.0
 11
18.7490250563275787
 21
66.0
 31
0.0
  0
LINE
  5
229
  8
0
 10
31.2490250563275787
 20
66.0
 30
0.0
 11
31.4990250563275787
 21
66.1443375672974128
 31
0.0
  0
LINE
  5
22A
  8
0
 10
30.5000000000001101
 20
47.9999999999999716
 30
0.0
 11
30.5000000000001101
 21
51.0
 31
0.0
  0
LINE
  5
22B
  8
0
 10
19.5000000000001101
 20
51.0
 30
0.0
 11
19.5000000000001101
 21
47.9999999999999716
 31
0.0
  0
LINE
  5
22C
  8
0
 10
29.0000000000001101
 20
123.2330000000000041
 30
0.0
 11
28.2330000000001213
 21
124.0
 31
0.0
  0
LINE
  5
22D
  8
0
 10
21.7670000000001096
 20
124.0
 30
0.0
 11
21.0000000000001208
 21
123.2330000000000041
 31
0.0
  0
LINE
  5
22E
  8
0
 10
29.0000000000001101
 20
56.0000000000000071
 30
0.0
 11
29.0000000000001101
 21
66.0
 31
0.0
  0
LINE
  5
22F
  8
0
 10
29.0000000000001101
 20
72.5
 30
0.0
 11
29.0000000000001101
 21
123.2330000000000041
 31
0.0
  0
LINE
  5
230
  8
0
 10
21.0000000000001208
 20
123.2330000000000041
 30
0.0
 11
21.0000000000001208
 21
72.5
 31
0.0
  0
LINE
  5
231
  8
0
 10
21.0000000000001208
 20
66.0
 30
0.0
 11
21.0000000000001208
 21
56.0000000000000071
 31
0.0
  0
LINE
  5
232
  8
0
 10
5.0000000000000027
 20
36.6666666666666714
 30
0.0
 11
5.0000000000000027
 21
31.6000000000000085
 31
0.0
  0
LINE
  5
233
  8
0
 10
45.0000000000000213
 20
31.6000000000000085
 30
0.0
 11
45.0000000000000213
 21
36.6666666666666714
 31
0.0
  0
LINE
  5
234
  8
0
 10
5.0000000000000027
 20
31.6000000000000085
 30
0.0
 11
5.599999999999997
 21
31.0
 31
0.0
  0
LINE
  5
235
  8
0
 10
44.3999999999999986
 20
31.0
 30
0.0
 11
45.0000000000000213
 21
31.6000000000000085
 31
0.0
  0
LINE
  5
236
  8
0
 10
45.0000000000000213
 20
36.6666666666666714
 30
0.0
 11
36.2000000000000171
 21
42.3333333333333286
 31
0.0
  0
LINE
  5
237
  8
0
 10
13.8000000000000096
 20
42.3333333333333286
 30
0.0
 11
5.0000000000000027
 21
36.6666666666666714
 31
0.0
  0
LINE
  5
238
  8
0
 10
10.0
 20
31.0
 30
0.0
 11
10.0
 21
25.0
 31
0.0
  0
LINE
  5
239
  8
0
 10
40.0
 20
25.0
 30
0.0
 11
40.0
 21
31.0
 31
0.0
  0
LINE
  5
23A
  8
0
 10
36.2000000000000171
 20
42.3333333333333286
 30
0.0
 11
35.200813775985381
 21
48.0
 31
0.0
  0
LINE
  5
23B
  8
0
 10
14.7991862240146208
 20
48.0
 30
0.0
 11
13.8000000000000096
 21
42.3333333333333286
 31
0.0
  0
LINE
  5
23C
  8
0
 10
18.7490250563275787
 20
72.5
 30
0.0
 11
31.2490250563275787
 21
72.5
 31
0.0
  0
LINE
  5
23D
  8
0
 10
24.9990250563275609
 20
71.7751058491018341
 30
0.0
 11
24.9990250563275609
 21
66.7248941508981801
 31
0.0
  0
LINE
  5
23E
  8
0
 10
31.4990250563275787
 20
72.3556624327026014
 30
0.0
 11
31.4990250563275787
 21
66.1443375672974128
 31
0.0
  0
LINE
  5
23F
  8
0
 10
31.2490250563275787
 20
66.0
 30
0.0
 11
18.7490250563275787
 21
66.0
 31
0.0
  0
LINE
  5
240
  8
0
 10
18.4990250563275787
 20
72.3556624327026014
 30
0.0
 11
18.4990250563275787
 21
66.1443375672974128
 31
0.0
  0
LINE
  5
241
  8
0
 10
25.0000000000001101
 20
51.6252147823392704
 30
0.0
 11
25.0000000000001101
 21
55.3747852176606727
 31
0.0
  0
LINE
  5
242
  8
0
 10
18.0000000000001101
 20
51.0
 30
0.0
 11
18.0000000000001101
 21
56.0000000000000071
 31
0.0
  0
LINE
  5
243
  8
0
 10
32.0000000000001208
 20
50.9999999999998792
 30
0.0
 11
32.0000000000001208
 21
55.9999999999999005
 31
0.0
  0
LINE
  5
244
  8
0
 10
32.0000000000001208
 20
55.9999999999999005
 30
0.0
 11
18.0000000000001101
 21
56.0000000000000071
 31
0.0
  0
LINE
  5
245
  8
0
 10
32.0000000000001208
 20
50.9999999999998792
 30
0.0
 11
18.0000000000001101
 21
51.0
 31
0.0
  0
LINE
  5
246
  8
0
 10
28.2330000000001213
 20
124.0
 30
0.0
 11
21.7670000000001096
 21
124.0
 31
0.0
  0
LINE
  5
247
  8
0
 10
29.0000000000001101
 20
123.2330000000000041
 30
0.0
 11
21.0000000000001208
 21
123.2330000000000041
 31
0.0
  0
LINE
  5
248
  8
0
 10
44.3999999999999986
 20
31.0
 30
0.0
 11
5.599999999999997
 21
31.0
 31
0.0
  0
LINE
  5
249
  8
0
 10
39.9999999999999716
 20
25.0
 30
0.0
 11
10.0000000000000302
 21
25.0
 31
0.0
  0
LINE
  5
24A
  8
0
 10
14.7991862240146208
 20
48.0
 30
0.0
 11
35.200813775985381
 21
48.0
 31
0.0
  0
LINE
  5
24B
  8
0
 10
24.9992707830212204
 20
36.5000000000000071
 30
0.0
 11
25.0009749436735298
 21
36.5000000000000071
 31
0.0
  0
LINE
  5
24C
  8
2
 10
34.0
 20
25.0
 30
0.0
 11
34.0
 21
31.0
 31
0.0
  0
LINE
  5
24D
  8
2
 10
16.0
 20
31.0
 30
0.0
 11
16.0
 21
25.0
 31
0.0
  0
CIRCLE
  5
254
  8
0
 10
24.9999999999999893
 20
175.000000000000199
 30
0.0
 40
4.0
  0
CIRCLE
  5
261
  8
0
 10
24.9999999999999893
 20
175.000000000000199
 30
0.0
 40
10.2008138108328499
  0
CIRCLE
  5
262
  8
0
 10
24.9999999999999893
 20
175.000000000000199
 30
0.0
 40
11.2000000317386501
  0
CIRCLE
  5
263
  8
0
 10
24.9999999999999893
 20
175.000000000000199
 30
0.0
 40
19.9999999999999716
  0
LINE
  5
264
  8
0
 10
107.5063966752954059
 20
71.7751058491018625
 30
0.0
 11
106.2508431758301981
 21
72.5000000000000284
 31
0.0
  0
LINE
  5
265
  8
0
 10
93.7508431758302549
 20
72.5000000000000284
 30
0.0
 11
92.4952896763650756
 21
71.7751058491018483
 31
0.0
  0
LINE
  5
266
  8
0
 10
92.4952896763650756
 20
66.7248941508981943
 30
0.0
 11
93.7508431758302549
 21
66.0000000000000284
 31
0.0
  0
LINE
  5
267
  8
0
 10
106.2508431758301981
 20
66.0000000000000284
 30
0.0
 11
107.5063966752954059
 21
66.7248941508981943
 31
0.0
  0
LINE
  5
268
  8
0
 10
105.5000000000002984
 20
48.0000000000000568
 30
0.0
 11
105.5000000000002984
 21
51.0000000000000497
 31
0.0
  0
LINE
  5
269
  8
0
 10
94.5000000000003411
 20
51.0
 30
0.0
 11
94.5000000000003411
 21
48.0
 31
0.0
  0
LINE
  5
26A
  8
0
 10
104.0000000000002984
 20
56.0000000000000426
 30
0.0
 11
104.000000000000199
 21
66.0000000000000284
 31
0.0
  0
LINE
  5
26B
  8
0
 10
104.000000000000199
 20
72.5000000000000284
 30
0.0
 11
104.0000000000000995
 21
123.2330000000000041
 31
0.0
  0
LINE
  5
26C
  8
0
 10
96.0000000000001137
 20
123.2330000000000041
 30
0.0
 11
96.0000000000002132
 21
72.5000000000000284
 31
0.0
  0
LINE
  5
26D
  8
0
 10
96.0000000000002132
 20
66.0000000000000284
 30
0.0
 11
96.0000000000002842
 21
56.0000000000000284
 31
0.0
  0
LINE
  5
26E
  8
0
 10
104.0000000000000995
 20
123.2330000000000041
 30
0.0
 11
103.2330000000001036
 21
124.0
 31
0.0
  0
LINE
  5
26F
  8
0
 10
96.7670000000001806
 20
124.0
 30
0.0
 11
96.0000000000001137
 21
123.2330000000000041
 31
0.0
  0
LINE
  5
270
  8
0
 10
107.0000000000002984
 20
51.0000000000000497
 30
0.0
 11
108.0829037686550009
 21
51.6252147823393486
 31
0.0
  0
LINE
  5
271
  8
0
 10
108.0829037686550009
 20
55.3747852176607722
 30
0.0
 11
107.000000000000199
 21
56.0000000000000711
 31
0.0
  0
LINE
  5
272
  8
0
 10
91.9170962313455533
 20
51.6252147823392704
 30
0.0
 11
93.0000000000002842
 21
51.0
 31
0.0
  0
LINE
  5
273
  8
0
 10
93.0000000000002842
 20
56.0000000000000071
 30
0.0
 11
91.9170962313455107
 21
55.3747852176607225
 31
0.0
  0
LINE
  5
274
  8
0
 10
80.0
 20
31.5999999999999694
 30
0.0
 11
80.6000000000000227
 21
30.9999999999999609
 31
0.0
  0
LINE
  5
275
  8
0
 10
119.3999999999999062
 20
31.0000000000000995
 30
0.0
 11
120.0
 21
31.6000000000001116
 31
0.0
  0
LINE
  5
276
  8
0
 10
80.0
 20
36.6666666666666572
 30
0.0
 11
80.0
 21
31.5999999999999694
 31
0.0
  0
LINE
  5
277
  8
0
 10
120.0
 20
31.6000000000001116
 30
0.0
 11
119.9999999999999005
 21
36.6666666666667993
 31
0.0
  0
LINE
  5
278
  8
0
 10
119.9999999999999005
 20
36.6666666666667993
 30
0.0
 11
111.1999999999999034
 21
42.3333333333333997
 31
0.0
  0
LINE
  5
279
  8
0
 10
88.7999999999999545
 20
42.3333333333333428
 30
0.0
 11
80.0
 21
36.6666666666666572
 31
0.0
  0
LINE
  5
27A
  8
0
 10
85.0
 20
30.9999999999999787
 30
0.0
 11
85.0
 21
24.9999999999999787
 31
0.0
  0
LINE
  5
27B
  8
0
 10
115.0
 20
25.0000000000000817
 30
0.0
 11
115.0
 21
31.0000000000000888
 31
0.0
  0
LINE
  5
27C
  8
0
 10
111.1999999999999034
 20
42.3333333333333997
 30
0.0
 11
110.2008137759851962
 21
48.0000000000000568
 31
0.0
  0
LINE
  5
27D
  8
0
 10
89.7991862240145338
 20
48.0
 30
0.0
 11
88.7999999999999545
 21
42.3333333333333428
 31
0.0
  0
LINE
  5
27E
  8
0
 10
100.0008431758301981
 20
72.5000000000000284
 30
0.0
 11
106.2508431758301981
 21
72.5000000000000284
 31
0.0
  0
LINE
  5
27F
  8
0
 10
93.7508431758302549
 20
72.5000000000000284
 30
0.0
 11
100.0008431758301981
 21
72.5000000000000284
 31
0.0
  0
LINE
  5
280
  8
0
 10
107.5063966752954059
 20
71.7751058491018625
 30
0.0
 11
107.5063966752954059
 21
66.7248941508981943
 31
0.0
  0
LINE
  5
281
  8
0
 10
103.753619925562802
 20
71.7751058491018625
 30
0.0
 11
103.753619925562802
 21
66.7248941508981943
 31
0.0
  0
LINE
  5
282
  8
0
 10
106.2508431758301981
 20
66.0000000000000284
 30
0.0
 11
93.7508431758302549
 21
66.0000000000000284
 31
0.0
  0
LINE
  5
283
  8
0
 10
96.2480664260976937
 20
71.7751058491018625
 30
0.0
 11
96.2480664260976937
 21
66.7248941508981943
 31
0.0
  0
LINE
  5
284
  8
0
 10
92.4952896763650756
 20
71.7751058491018625
 30
0.0
 11
92.4952896763650756
 21
66.7248941508981943
 31
0.0
  0
LINE
  5
285
  8
0
 10
108.0829037686550009
 20
51.6252147823393486
 30
0.0
 11
108.0829037686550009
 21
55.3747852176607509
 31
0.0
  0
LINE
  5
286
  8
0
 10
104.0414518843275999
 20
51.6252147823393486
 30
0.0
 11
104.0414518843275999
 21
55.3747852176607367
 31
0.0
  0
LINE
  5
287
  8
0
 10
95.9585481156728974
 20
51.6252147823393273
 30
0.0
 11
95.9585481156728974
 21
55.3747852176607225
 31
0.0
  0
LINE
  5
288
  8
0
 10
107.000000000000199
 20
56.0000000000000711
 30
0.0
 11
93.0000000000002842
 21
56.0000000000000071
 31
0.0
  0
LINE
  5
289
  8
0
 10
107.0000000000002984
 20
51.0000000000000497
 30
0.0
 11
93.0000000000002842
 21
51.0
 31
0.0
  0
LINE
  5
28A
  8
0
 10
91.9170962313455533
 20
51.6252147823392988
 30
0.0
 11
91.9170962313455107
 21
55.3747852176607012
 31
0.0
  0
LINE
  5
28B
  8
0
 10
104.0000000000000995
 20
123.2330000000000041
 30
0.0
 11
96.0000000000001137
 21
123.2330000000000041
 31
0.0
  0
LINE
  5
28C
  8
0
 10
103.2330000000001036
 20
124.0
 30
0.0
 11
96.7670000000001806
 21
124.0
 31
0.0
  0
LINE
  5
28D
  8
0
 10
119.3999999999999062
 20
31.0000000000000995
 30
0.0
 11
80.6000000000000227
 21
30.9999999999999609
 31
0.0
  0
LINE
  5
28E
  8
0
 10
115.0
 20
25.0000000000000817
 30
0.0
 11
85.0
 21
24.9999999999999787
 31
0.0
  0
LINE
  5
28F
  8
0
 10
110.2008137759851962
 20
48.0000000000000568
 30
0.0
 11
89.7991862240145338
 21
48.0
 31
0.0
  0
LINE
  5
290
  8
0
 10
99.9983047438439456
 20
36.5000000000000284
 30
0.0
 11
100.0000089044961982
 21
36.5000000000000426
 31
0.0
  0
LINE
  5
291
  8
2
 10
109.0
 20
25.0000000000000711
 30
0.0
 11
109.0
 21
31.0000000000000711
 31
0.0
  0
LINE
  5
292
  8
2
 10
91.0
 20
31.0
 30
0.0
 11
91.0
 21
25.0
 31
0.0
  0
LINE
  5
293
  8
3
 10
28.3235000000012214
 20
72.5
 30
0.0
 11
28.3235000000001911
 21
123.9094999999998947
 31
0.0
  0
LINE
  5
294
  8
3
 10
21.6765000000009991
 20
72.4999999999999858
 30
0.0
 11
21.6764999999999795
 21
123.9094999999997953
 31
0.0
  0
LINE
  5
295
  8
1
 10
25.0
 20
21.9999999999999716
 30
0.0
 11
25.0000000000001101
 21
126.9999999999999005
 31
0.0
  0
LINE
  5
296
  8
3
 10
28.3235000000001911
 20
58.0000000000000426
 30
0.0
 11
29.0000000000001101
 21
56.8282676286799386
 31
0.0
  0
LINE
  5
297
  8
3
 10
21.6765000000000292
 20
58.0000000000000426
 30
0.0
 11
21.0000000000001208
 21
56.8282676286799386
 31
0.0
  0
LINE
  5
298
  8
0
 10
21.0000000000001208
 20
58.0000000000000426
 30
0.0
 11
29.0000000000001705
 21
57.9999999999999716
 31
0.0
  0
LINE
  5
299
  8
3
 10
21.6765000000000008
 20
58.0000000000000426
 30
0.0
 11
21.6765000000000292
 21
65.9999999999999858
 31
0.0
  0
LINE
  5
29A
  8
3
 10
28.3235000000002515
 20
57.9999999999999787
 30
0.0
 11
28.3235000000002515
 21
66.0000000000000142
 31
0.0
  0
LINE
  5
29B
  8
3
 10
103.3235000000012036
 20
72.5000000000000284
 30
0.0
 11
103.3235000000001946
 21
123.9094999999998947
 31
0.0
  0
LINE
  5
29C
  8
3
 10
96.6765000000010133
 20
72.5000000000000142
 30
0.0
 11
96.6764999999999759
 21
123.9094999999998947
 31
0.0
  0
LINE
  5
29D
  8
1
 10
100.0
 20
22.0
 30
0.0
 11
100.0000000000000995
 21
127.0
 31
0.0
  0
LINE
  5
29E
  8
3
 10
103.3235000000001946
 20
58.0000000000000711
 30
0.0
 11
104.0000000000000995
 21
56.82826762867996
 31
0.0
  0
LINE
  5
29F
  8
3
 10
96.6765000000000327
 20
58.0000000000000711
 30
0.0
 11
96.0000000000001137
 21
56.82826762867996
 31
0.0
  0
LINE
  5
2A0
  8
0
 10
96.0000000000001137
 20
58.0000000000000711
 30
0.0
 11
104.000000000000199
 21
58.0
 31
0.0
  0
LINE
  5
2A1
  8
3
 10
96.6765000000000327
 20
58.0000000000000711
 30
0.0
 11
96.6765000000000327
 21
66.0000000000000142
 31
0.0
  0
LINE
  5
2A2
  8
3
 10
103.3235000000001946
 20
58.0000000000000071
 30
0.0
 11
103.3235000000001946
 21
66.0000000000000426
 31
0.0
  0
LINE
  5
2A3
  8
0
 10
45.0000000000000213
 20
36.6666666666666714
 30
0.0
 11
5.0000000000000311
 21
36.6666666666666785
 31
0.0
  0
LINE
  5
2A4
  8
0
 10
13.8000000000000096
 20
42.3333333333333286
 30
0.0
 11
36.2000000000000171
 21
42.3333333333333286
 31
0.0
  0
ARC
  5
2A5
  8
0
 10
21.5
 20
45.8907592389627297
 30
0.0
 40
10.1092407610372508
 50
69.7438419995814911
 51
110.2561580004168036
  0
ARC
  5
2A6
  8
0
 10
28.500000000000199
 20
45.9933225202411933
 30
0.0
 40
10.0130835581789093
 50
69.5406544402811022
 51
110.4593455597206031
  0
ARC
  5
2A7
  8
0
 10
28.5000000000000604
 20
61.1092407610375474
 30
0.0
 40
10.1092407610375794
 50
249.7438419995831111
 51
290.2561580004169173
  0
ARC
  5
2A8
  8
0
 10
21.5000000000002309
 20
61.1092407610374195
 30
0.0
 40
10.1092407610374497
 50
249.7438419995814911
 51
290.2561580004169173
  0
ARC
  5
2A9
  8
0
 10
21.7499120749555495
 20
62.96305897363996
 30
0.0
 40
9.3925734781912293
 50
69.7554743594926236
 51
110.2497212465529941
  0
ARC
  5
2AA
  8
0
 10
28.2491131090620193
 20
62.9685175006631397
 30
0.0
 40
9.3871148924382002
 50
69.7443309832371767
 51
110.2504718518912057
  0
ARC
  5
2AB
  8
0
 10
28.2491131090620193
 20
75.531482499336775
 30
0.0
 40
9.3871148924381274
 50
249.749528148108709
 51
290.2556690167627949
  0
ARC
  5
2AC
  8
0
 10
21.7490250563275787
 20
75.5319754255460651
 30
0.0
 40
9.3876078197937751
 50
249.7448683741147875
 51
290.2551316258853262
  0
LINE
  5
2AD
  8
0
 10
119.9999999999999005
 20
36.6666666666667993
 30
0.0
 11
80.0000000000002274
 21
36.6666666666667993
 31
0.0
  0
LINE
  5
2AE
  8
0
 10
88.7999999999999545
 20
42.3333333333333428
 30
0.0
 11
111.1999999999999034
 21
42.3333333333333428
 31
0.0
  0
ARC
  5
2AF
  8
0
 10
93.9378221735092183
 20
52.4218481522077582
 30
0.0
 40
3.5781518477922711
 50
55.6157525319577175
 51
115.6157525319590036
  0
ARC
  5
2B0
  8
0
 10
100.0000000000002984
 20
42.6252147823398886
 30
0.0
 40
13.3747852176601505
 50
72.4120462260056144
 51
107.5879537739943999
  0
ARC
  5
2B1
  8
0
 10
93.9378221735092183
 20
54.5781518477923413
 30
0.0
 40
3.578151847792336
 50
244.3842474680373869
 51
304.3842474680423038
  0
ARC
  5
2B2
  8
0
 10
100.000000000000199
 20
64.3747852176601043
 30
0.0
 40
13.3747852176600794
 50
252.4120462260054865
 51
287.5879537739942862
  0
ARC
  5
2B3
  8
0
 10
106.063118412849704
 20
52.4228705278798515
 30
0.0
 40
3.5781518477922698
 50
64.3939095513057822
 51
124.393909551308198
  0
ARC
  5
2B4
  8
0
 10
106.0627547842206013
 20
54.5791741928041603
 30
0.0
 40
3.578151847792336
 50
235.6254146152232067
 51
295.6254146152286921
  0
ARC
  5
2B5
  8
0
 10
94.3716780512313562
 20
69.0329203249906129
 30
0.0
 40
3.3227119619338832
 50
55.6174327095811876
 51
115.6174327095844063
  0
ARC
  5
2B6
  8
0
 10
100.0008431758301981
 20
59.9278229820660968
 30
0.0
 40
12.4274472304207393
 50
72.4237429840086833
 51
107.5762570159913025
  0
ARC
  5
2B7
  8
0
 10
105.6300083004289974
 20
69.0329203249907692
 30
0.0
 40
3.3227119619337522
 50
64.3825672904137747
 51
124.3825672904206954
  0
ARC
  5
2B8
  8
0
 10
94.3716780512313562
 20
69.4670796750095008
 30
0.0
 40
3.32271196193394
 50
244.3825672904173985
 51
304.3825672904187059
  0
ARC
  5
2B9
  8
0
 10
100.0008431758301981
 20
78.5719818672226893
 30
0.0
 40
12.4272611902872505
 50
252.4234712849419964
 51
287.5765287150579752
  0
ARC
  5
2BA
  8
0
 10
105.6300083004290968
 20
69.4670796750094297
 30
0.0
 40
3.3227119619338619
 50
235.6174327095810952
 51
295.6174327095844205
  0
CIRCLE
  5
2BB
  8
3
 10
24.9999999999999893
 20
175.000000000000199
 30
0.0
 40
3.3235000000000001
  0
LINE
  5
2BC
  8
1
 10
47.9999999999999787
 20
175.000000000000199
 30
0.0
 11
1.9999999999999849
 21
175.000000000000199
 31
0.0
  0
LINE
  5
2BD
  8
1
 10
24.9999999999999893
 20
198.000000000000199
 30
0.0
 11
24.9999999999999893
 21
152.000000000000199
 31
0.0
  0
CIRCLE
  5
2BE
  8
0
 10
24.9990250563274508
 20
175.0008431758303118
 30
0.0
 40
6.2500000568756384
  0
POLYLINE
  5
2E1
  8
0
 66
     1
 10
0.0
 20
0.0
 30
0.0
  0
VERTEX
  5
376
  8
0
 10
28.5
 20
168.9378221735092893
 30
0.0
  0
VERTEX
  5
377
  8
0
 10
28.39848680990562
 20
168.8792135058820065
 30
0.0
  0
VERTEX
  5
378
  8
0
 10
28.2969802777160808
 20
168.8206086821979
 30
0.0
  0
VERTEX
  5
379
  8
0
 10
28.1954871580447595
 20
168.7620116022347077
 30
0.0
  0
VERTEX
  5
37A
  8
0
 10
28.0940159956052788
 20
168.7034271992853007
 30
0.0
  0
VERTEX
  5
37B
  8
0
 10
27.9925769128064701
 20
168.6448613175251126
 30
0.0
  0
VERTEX
  5
37C
  8
0
 10
27.8911800860721613
 20
168.5863198323150129
 30
0.0
  0
VERTEX
  5
37D
  8
0
 10
27.7898356918261698
 20
168.5278086190162981
 30
0.0
  0
VERTEX
  5
37E
  8
0
 10
27.6885539064923591
 20
168.4693335529898093
 30
0.0
  0
VERTEX
  5
37F
  8
0
 10
27.5873449064945717
 20
168.4109005095967007
 30
0.0
  0
VERTEX
  5
380
  8
0
 10
27.4862188682566284
 20
168.3525153641978989
 30
0.0
  0
VERTEX
  5
381
  8
0
 10
27.3851858486285913
 20
168.2941839231185952
 30
0.0
  0
VERTEX
  5
382
  8
0
 10
27.2842529559800688
 20
168.2359102903778876
 30
0.0
  0
VERTEX
  5
383
  8
0
 10
27.1834242356448783
 20
168.1776968015502973
 30
0.0
  0
VERTEX
  5
384
  8
0
 10
27.0827035904616196
 20
168.1195457099408088
 30
0.0
  0
VERTEX
  5
385
  8
0
 10
26.9820949232688783
 20
168.0614592688542928
 30
0.0
  0
VERTEX
  5
386
  8
0
 10
26.8816021369052294
 20
168.0034397315955914
 30
0.0
  0
VERTEX
  5
387
  8
0
 10
26.7812291342093296
 20
167.9454893514698028
 30
0.0
  0
VERTEX
  5
388
  8
0
 10
26.6809798180197184
 20
167.8876103817815988
 30
0.0
  0
VERTEX
  5
389
  8
0
 10
26.5808581526249306
 20
167.8298051113141867
 30
0.0
  0
VERTEX
  5
38A
  8
0
 10
26.4808702178613409
 20
167.772077050262709
 30
0.0
  0
VERTEX
  5
38B
  8
0
 10
26.3810246933113284
 20
167.7144312097863974
 30
0.0
  0
VERTEX
  5
38C
  8
0
 10
26.2813304181382001
 20
167.6568726931785136
 30
0.0
  0
VERTEX
  5
38D
  8
0
 10
26.1817962315051886
 20
167.5994066037324046
 30
0.0
  0
VERTEX
  5
38E
  8
0
 10
26.0824309725756009
 20
167.5420380447413038
 30
0.0
  0
VERTEX
  5
38F
  8
0
 10
25.9832434805126695
 20
167.4847721194985013
 30
0.0
  0
VERTEX
  5
390
  8
0
 10
25.8842425944796695
 20
167.4276139312972873
 30
0.0
  0
VERTEX
  5
391
  8
0
 10
25.7854371009358694
 20
167.3705685530024141
 30
0.0
  0
VERTEX
  5
392
  8
0
 10
25.6868260754938795
 20
167.3136354509184116
 30
0.0
  0
VERTEX
  5
393
  8
0
 10
25.5883876051818788
 20
167.2568019735851976
 30
0.0
  0
VERTEX
  5
394
  8
0
 10
25.4900970392670594
 20
167.2000538888954111
 30
0.0
  0
VERTEX
  5
395
  8
0
 10
25.3919297270165103
 20
167.1433769647418899
 30
0.0
  0
VERTEX
  5
396
  8
0
 10
25.2938610176973704
 20
167.0867569690175003
 30
0.0
  0
VERTEX
  5
397
  8
0
 10
25.1958662605768211
 20
167.0301796696147107
 30
0.0
  0
VERTEX
  5
398
  8
0
 10
25.0979208049219906
 20
166.9736308344265012
 30
0.0
  0
VERTEX
  5
399
  8
0
 10
25.0
 20
166.9170962313455107
 30
0.0
  0
SEQEND
  5
39A
  8
0
  0
POLYLINE
  5
2E2
  8
0
 66
     1
 10
0.0
 20
0.0
 30
0.0
  0
VERTEX
  5
39B
  8
0
 10
25.0
 20
166.9170962313455959
 30
0.0
  0
VERTEX
  5
39C
  8
0
 10
24.8817957502657805
 20
166.9853414867490073
 30
0.0
  0
VERTEX
  5
39D
  8
0
 10
24.7635505607943003
 20
167.0536103787206912
 30
0.0
  0
VERTEX
  5
39E
  8
0
 10
24.6452234918483306
 20
167.1219265438290904
 30
0.0
  0
VERTEX
  5
39F
  8
0
 10
24.5267736036906001
 20
167.1903136186423922
 30
0.0
  0
VERTEX
  5
3A0
  8
0
 10
24.4081599565838303
 20
167.2587952397290962
 30
0.0
  0
VERTEX
  5
3A1
  8
0
 10
24.2893416107907889
 20
167.3273950436573898
 30
0.0
  0
VERTEX
  5
3A2
  8
0
 10
24.1702776265742116
 20
167.3961366669956021
 30
0.0
  0
VERTEX
  5
3A3
  8
0
 10
24.0509321408488894
 20
167.4650408153057128
 30
0.0
  0
VERTEX
  5
3A4
  8
0
 10
23.9313048983911187
 20
167.5341076359410977
 30
0.0
  0
VERTEX
  5
3A5
  8
0
 10
23.8114108849805994
 20
167.6033284768579108
 30
0.0
  0
VERTEX
  5
3A6
  8
0
 10
23.6912651441662909
 20
167.6726946526590041
 30
0.0
  0
VERTEX
  5
3A7
  8
0
 10
23.5708827194972415
 20
167.7421974779473999
 30
0.0
  0
VERTEX
  5
3A8
  8
0
 10
23.4502786545224104
 20
167.8118282673260069
 30
0.0
  0
VERTEX
  5
3A9
  8
0
 10
23.3294679927908284
 20
167.8815783353977054
 30
0.0
  0
VERTEX
  5
3AA
  8
0
 10
23.2084655126387283
 20
167.951439149886113
 30
0.0
  0
VERTEX
  5
3AB
  8
0
 10
23.0872825182349892
 20
168.0214041843262862
 30
0.0
  0
VERTEX
  5
3AC
  8
0
 10
22.9659278714976587
 20
168.0914683222875112
 30
0.0
  0
VERTEX
  5
3AD
  8
0
 10
22.8444103835849397
 20
168.1616264766452105
 30
0.0
  0
VERTEX
  5
3AE
  8
0
 10
22.7227388656551206
 20
168.2318735602746074
 30
0.0
  0
VERTEX
  5
3AF
  8
0
 10
22.6009221288664399
 20
168.3022044860514086
 30
0.0
  0
VERTEX
  5
3B0
  8
0
 10
22.4789689843771896
 20
168.3726141668508092
 30
0.0
  0
VERTEX
  5
3B1
  8
0
 10
22.3568882846073791
 20
168.4430974917258084
 30
0.0
  0
VERTEX
  5
3B2
  8
0
 10
22.2346916854706116
 20
168.5136477311314138
 30
0.0
  0
VERTEX
  5
3B3
  8
0
 10
22.1123953880492117
 20
168.5842555313685978
 30
0.0
  0
VERTEX
  5
3B4
  8
0
 10
21.9900160087239804
 20
168.6549112989652031
 30
0.0
  0
VERTEX
  5
3B5
  8
0
 10
21.8675701638756586
 20
168.7256054404496126
 30
0.0
  0
VERTEX
  5
3B6
  8
0
 10
21.7450744698850507
 20
168.7963283623496125
 30
0.0
  0
VERTEX
  5
3B7
  8
0
 10
21.622545543132901
 20
168.8670704711935002
 30
0.0
  0
VERTEX
  5
3B8
  8
0
 10
21.5
 20
168.9378221735092893
 30
0.0
  0
SEQEND
  5
3B9
  8
0
  0
POLYLINE
  5
2E3
  8
0
 66
     1
 10
0.0
 20
0.0
 30
0.0
  0
VERTEX
  5
3BA
  8
0
 10
32.0
 20
175.0000000000003126
 30
0.0
  0
VERTEX
  5
3BB
  8
0
 10
32.0
 20
174.8584973373392017
 30
0.0
  0
VERTEX
  5
3BC
  8
0
 10
32.0
 20
174.7170139261683062
 30
0.0
  0
VERTEX
  5
3BD
  8
0
 10
32.0
 20
174.5755690179778981
 30
0.0
  0
VERTEX
  5
3BE
  8
0
 10
32.0
 20
174.4341818642581927
 30
0.0
  0
VERTEX
  5
3BF
  8
0
 10
32.0
 20
174.2928717164996044
 30
0.0
  0
VERTEX
  5
3C0
  8
0
 10
32.0
 20
174.1516578261920927
 30
0.0
  0
VERTEX
  5
3C1
  8
0
 10
32.0
 20
174.0105594448262138
 30
0.0
  0
VERTEX
  5
3C2
  8
0
 10
32.0
 20
173.8695949634638112
 30
0.0
  0
VERTEX
  5
3C3
  8
0
 10
32.0
 20
173.72877697503489
 30
0.0
  0
VERTEX
  5
3C4
  8
0
 10
32.0
 20
173.5881156780781112
 30
0.0
  0
VERTEX
  5
3C5
  8
0
 10
32.0
 20
173.4476212635856882
 30
0.0
  0
VERTEX
  5
3C6
  8
0
 10
32.0
 20
173.3073039225498917
 30
0.0
  0
VERTEX
  5
3C7
  8
0
 10
32.0
 20
173.1671738459629069
 30
0.0
  0
VERTEX
  5
3C8
  8
0
 10
32.0
 20
173.0272412248170895
 30
0.0
  0
VERTEX
  5
3C9
  8
0
 10
32.0
 20
172.8875165981256998
 30
0.0
  0
VERTEX
  5
3CA
  8
0
 10
32.0
 20
172.7480146978757034
 30
0.0
  0
VERTEX
  5
3CB
  8
0
 10
32.0
 20
172.6087530327893091
 30
0.0
  0
VERTEX
  5
3CC
  8
0
 10
32.0
 20
172.469749161193306
 30
0.0
  0
VERTEX
  5
3CD
  8
0
 10
32.0
 20
172.3310206414141987
 30
0.0
  0
VERTEX
  5
3CE
  8
0
 10
32.0
 20
172.1925850317788047
 30
0.0
  0
VERTEX
  5
3CF
  8
0
 10
32.0
 20
172.0544598906137139
 30
0.0
  0
VERTEX
  5
3D0
  8
0
 10
32.0
 20
171.9166623957096931
 30
0.0
  0
VERTEX
  5
3D1
  8
0
 10
32.0
 20
171.7791862211047942
 30
0.0
  0
VERTEX
  5
3D2
  8
0
 10
32.0
 20
171.6419882185128927
 30
0.0
  0
VERTEX
  5
3D3
  8
0
 10
32.0
 20
171.5050220259317939
 30
0.0
  0
VERTEX
  5
3D4
  8
0
 10
32.0
 20
171.3682412813595022
 30
0.0
  0
VERTEX
  5
3D5
  8
0
 10
32.0
 20
171.2315996227937092
 30
0.0
  0
VERTEX
  5
3D6
  8
0
 10
32.0
 20
171.0950506882323054
 30
0.0
  0
VERTEX
  5
3D7
  8
0
 10
32.0
 20
170.9585481156730111
 30
0.0
  0
SEQEND
  5
3D8
  8
0
  0
POLYLINE
  5
2E4
  8
0
 66
     1
 10
0.0
 20
0.0
 30
0.0
  0
VERTEX
  5
3D9
  8
0
 10
32.0
 20
170.9585481156730111
 30
0.0
  0
VERTEX
  5
3DA
  8
0
 10
31.8817957502657805
 20
170.8903028602695997
 30
0.0
  0
VERTEX
  5
3DB
  8
0
 10
31.7635505607943003
 20
170.8220339682978022
 30
0.0
  0
VERTEX
  5
3DC
  8
0
 10
31.6452234918483306
 20
170.7537178031894882
 30
0.0
  0
VERTEX
  5
3DD
  8
0
 10
31.5267736036906001
 20
170.6853307283761012
 30
0.0
  0
VERTEX
  5
3DE
  8
0
 10
31.4081599565838303
 20
170.6168491072893971
 30
0.0
  0
VERTEX
  5
3DF
  8
0
 10
31.2893416107907889
 20
170.5482493033611888
 30
0.0
  0
VERTEX
  5
3E0
  8
0
 10
31.170277626574201
 20
170.4795076800228912
 30
0.0
  0
VERTEX
  5
3E1
  8
0
 10
31.0509321408488894
 20
170.4106035317128089
 30
0.0
  0
VERTEX
  5
3E2
  8
0
 10
30.9313048983911187
 20
170.3415367110773957
 30
0.0
  0
VERTEX
  5
3E3
  8
0
 10
30.8114108849806101
 20
170.272315870160611
 30
0.0
  0
VERTEX
  5
3E4
  8
0
 10
30.6912651441662909
 20
170.2029496943594893
 30
0.0
  0
VERTEX
  5
3E5
  8
0
 10
30.5708827194972308
 20
170.1334468690710935
 30
0.0
  0
VERTEX
  5
3E6
  8
0
 10
30.4502786545224104
 20
170.0638160796926002
 30
0.0
  0
VERTEX
  5
3E7
  8
0
 10
30.3294679927908284
 20
169.9940660116209017
 30
0.0
  0
VERTEX
  5
3E8
  8
0
 10
30.2084655126387212
 20
169.9242051971324088
 30
0.0
  0
VERTEX
  5
3E9
  8
0
 10
30.0872825182349892
 20
169.8542401626922072
 30
0.0
  0
VERTEX
  5
3EA
  8
0
 10
29.9659278714976516
 20
169.7841760247310106
 30
0.0
  0
VERTEX
  5
3EB
  8
0
 10
29.8444103835849504
 20
169.7140178703733966
 30
0.0
  0
VERTEX
  5
3EC
  8
0
 10
29.7227388656551206
 20
169.643770786743886
 30
0.0
  0
VERTEX
  5
3ED
  8
0
 10
29.6009221288664506
 20
169.5734398609671985
 30
0.0
  0
VERTEX
  5
3EE
  8
0
 10
29.4789689843771896
 20
169.5030301801677979
 30
0.0
  0
VERTEX
  5
3EF
  8
0
 10
29.3568882846073791
 20
169.4325468552927987
 30
0.0
  0
VERTEX
  5
3F0
  8
0
 10
29.2346916854706116
 20
169.3619966158871932
 30
0.0
  0
VERTEX
  5
3F1
  8
0
 10
29.1123953880492117
 20
169.2913888156500093
 30
0.0
  0
VERTEX
  5
3F2
  8
0
 10
28.9900160087239911
 20
169.2207330480532903
 30
0.0
  0
VERTEX
  5
3F3
  8
0
 10
28.8675701638756586
 20
169.1500389065689944
 30
0.0
  0
VERTEX
  5
3F4
  8
0
 10
28.7450744698850613
 20
169.0793159846689093
 30
0.0
  0
VERTEX
  5
3F5
  8
0
 10
28.622545543132901
 20
169.0085738758251068
 30
0.0
  0
VERTEX
  5
3F6
  8
0
 10
28.5
 20
168.9378221735092893
 30
0.0
  0
SEQEND
  5
3F7
  8
0
  0
POLYLINE
  5
2E5
  8
0
 66
     1
 10
0.0
 20
0.0
 30
0.0
  0
VERTEX
  5
3F8
  8
0
 10
18.0
 20
170.9585481156730111
 30
0.0
  0
VERTEX
  5
3F9
  8
0
 10
18.0
 20
171.071629970051589
 30
0.0
  0
VERTEX
  5
3FA
  8
0
 10
18.0
 20
171.1847392864519009
 30
0.0
  0
VERTEX
  5
3FB
  8
0
 10
18.0
 20
171.2979035268953112
 30
0.0
  0
VERTEX
  5
3FC
  8
0
 10
18.0
 20
171.4111501534034119
 30
0.0
  0
VERTEX
  5
3FD
  8
0
 10
18.0
 20
171.5245066279979085
 30
0.0
  0
VERTEX
  5
3FE
  8
0
 10
18.0
 20
171.6380004127001087
 30
0.0
  0
VERTEX
  5
3FF
  8
0
 10
18.0
 20
171.7516589695318032
 30
0.0
  0
VERTEX
  5
400
  8
0
 10
18.0
 20
171.8655097605144135
 30
0.0
  0
VERTEX
  5
401
  8
0
 10
18.0
 20
171.9795794713483019
 30
0.0
  0
VERTEX
  5
402
  8
0
 10
18.0
 20
172.0938768398746959
 30
0.0
  0
VERTEX
  5
403
  8
0
 10
18.0
 20
172.2083926045538931
 30
0.0
  0
VERTEX
  5
404
  8
0
 10
18.0
 20
172.3231167172206142
 30
0.0
  0
VERTEX
  5
405
  8
0
 10
18.0
 20
172.4380391297094945
 30
0.0
  0
VERTEX
  5
406
  8
0
 10
18.0
 20
172.553149793854999
 30
0.0
  0
VERTEX
  5
407
  8
0
 10
18.0
 20
172.6684386614919902
 30
0.0
  0
VERTEX
  5
408
  8
0
 10
18.0
 20
172.7838956844549045
 30
0.0
  0
VERTEX
  5
409
  8
0
 10
18.0
 20
172.8995108145784059
 30
0.0
  0
VERTEX
  5
40A
  8
0
 10
18.0
 20
173.0152748357355961
 30
0.0
  0
VERTEX
  5
40B
  8
0
 10
18.0
 20
173.1311818635849136
 30
0.0
  0
VERTEX
  5
40C
  8
0
 10
18.0
 20
173.2472268476400075
 30
0.0
  0
VERTEX
  5
40D
  8
0
 10
18.0
 20
173.3634047374146121
 30
0.0
  0
VERTEX
  5
40E
  8
0
 10
18.0
 20
173.4797104824224903
 30
0.0
  0
VERTEX
  5
40F
  8
0
 10
18.0
 20
173.596139032177291
 30
0.0
  0
VERTEX
  5
410
  8
0
 10
18.0
 20
173.7126853361926919
 30
0.0
  0
VERTEX
  5
411
  8
0
 10
18.0
 20
173.8293443439825978
 30
0.0
  0
VERTEX
  5
412
  8
0
 10
18.0
 20
173.9461109525427958
 30
0.0
  0
VERTEX
  5
413
  8
0
 10
18.0
 20
174.0629772046991945
 30
0.0
  0
VERTEX
  5
414
  8
0
 10
18.0
 20
174.1799308820741032
 30
0.0
  0
VERTEX
  5
415
  8
0
 10
18.0
 20
174.2969594181190018
 30
0.0
  0
VERTEX
  5
416
  8
0
 10
18.0
 20
174.4140502462850861
 30
0.0
  0
VERTEX
  5
417
  8
0
 10
18.0
 20
174.531190800023893
 30
0.0
  0
VERTEX
  5
418
  8
0
 10
18.0
 20
174.6483685127867886
 30
0.0
  0
VERTEX
  5
419
  8
0
 10
18.0
 20
174.7655708180251963
 30
0.0
  0
VERTEX
  5
41A
  8
0
 10
18.0
 20
174.8827851491905108
 30
0.0
  0
VERTEX
  5
41B
  8
0
 10
18.0
 20
175.0000000000003126
 30
0.0
  0
SEQEND
  5
41C
  8
0
  0
POLYLINE
  5
2E6
  8
0
 66
     1
 10
0.0
 20
0.0
 30
0.0
  0
VERTEX
  5
41D
  8
0
 10
21.5
 20
168.9378221735092893
 30
0.0
  0
VERTEX
  5
41E
  8
0
 10
21.39848680990562
 20
168.9964308411366005
 30
0.0
  0
VERTEX
  5
41F
  8
0
 10
21.2969802777160702
 20
169.0550356648207071
 30
0.0
  0
VERTEX
  5
420
  8
0
 10
21.1954871580447808
 20
169.1136327447838141
 30
0.0
  0
VERTEX
  5
421
  8
0
 10
21.0940159956053108
 20
169.1722171477331926
 30
0.0
  0
VERTEX
  5
422
  8
0
 10
20.9925769128064985
 20
169.2307830294934945
 30
0.0
  0
VERTEX
  5
423
  8
0
 10
20.891180086072179
 20
169.2893245147035088
 30
0.0
  0
VERTEX
  5
424
  8
0
 10
20.7898356918262017
 20
169.347835728002309
 30
0.0
  0
VERTEX
  5
425
  8
0
 10
20.6885539064923911
 20
169.4063107940287125
 30
0.0
  0
VERTEX
  5
426
  8
0
 10
20.5873449064946001
 20
169.4647438374219064
 30
0.0
  0
VERTEX
  5
427
  8
0
 10
20.4862188682566604
 20
169.5231289828207082
 30
0.0
  0
VERTEX
  5
428
  8
0
 10
20.3851858486286197
 20
169.5814604238998982
 30
0.0
  0
VERTEX
  5
429
  8
0
 10
20.2842529559800901
 20
169.6397340566406058
 30
0.0
  0
VERTEX
  5
42A
  8
0
 10
20.1834242356449103
 20
169.697947545468196
 30
0.0
  0
VERTEX
  5
42B
  8
0
 10
20.0827035904616196
 20
169.756098637077713
 30
0.0
  0
VERTEX
  5
42C
  8
0
 10
19.9820949232688712
 20
169.8141850781642859
 30
0.0
  0
VERTEX
  5
42D
  8
0
 10
19.8816021369052613
 20
169.872204615422902
 30
0.0
  0
VERTEX
  5
42E
  8
0
 10
19.7812291342093189
 20
169.9301549955488042
 30
0.0
  0
VERTEX
  5
42F
  8
0
 10
19.6809798180197184
 20
169.9880339652368946
 30
0.0
  0
VERTEX
  5
430
  8
0
 10
19.5808581526249199
 20
170.0458392357043067
 30
0.0
  0
VERTEX
  5
431
  8
0
 10
19.4808702178613409
 20
170.1035672967558128
 30
0.0
  0
VERTEX
  5
432
  8
0
 10
19.3810246933113284
 20
170.161213137232096
 30
0.0
  0
VERTEX
  5
433
  8
0
 10
19.2813304181382001
 20
170.2187716538400082
 30
0.0
  0
VERTEX
  5
434
  8
0
 10
19.1817962315051886
 20
170.2762377432860887
 30
0.0
  0
VERTEX
  5
435
  8
0
 10
19.0824309725755903
 20
170.3336063022771896
 30
0.0
  0
VERTEX
  5
436
  8
0
 10
18.9832434805126695
 20
170.3908722275199921
 30
0.0
  0
VERTEX
  5
437
  8
0
 10
18.8842425944796695
 20
170.4480304157212061
 30
0.0
  0
VERTEX
  5
438
  8
0
 10
18.7854371009358587
 20
170.5050757940161077
 30
0.0
  0
VERTEX
  5
439
  8
0
 10
18.6868260754938795
 20
170.5620088961001102
 30
0.0
  0
VERTEX
  5
43A
  8
0
 10
18.5883876051818788
 20
170.6188423734334094
 30
0.0
  0
VERTEX
  5
43B
  8
0
 10
18.4900970392670487
 20
170.6755904581231107
 30
0.0
  0
VERTEX
  5
43C
  8
0
 10
18.3919297270164996
 20
170.7322673822766035
 30
0.0
  0
VERTEX
  5
43D
  8
0
 10
18.2938610176973704
 20
170.7888873780011068
 30
0.0
  0
VERTEX
  5
43E
  8
0
 10
18.1958662605768211
 20
170.845464677403811
 30
0.0
  0
VERTEX
  5
43F
  8
0
 10
18.09792080492198
 20
170.9020135125919921
 30
0.0
  0
VERTEX
  5
440
  8
0
 10
18.0
 20
170.9585481156730111
 30
0.0
  0
SEQEND
  5
441
  8
0
  0
POLYLINE
  5
2E7
  8
0
 66
     1
 10
0.0
 20
0.0
 30
0.0
  0
VERTEX
  5
442
  8
0
 10
28.5
 20
181.0621778264913928
 30
0.0
  0
VERTEX
  5
443
  8
0
 10
28.60151319009438
 20
181.00356915886411
 30
0.0
  0
VERTEX
  5
444
  8
0
 10
28.7030197222839298
 20
180.9449643351800034
 30
0.0
  0
VERTEX
  5
445
  8
0
 10
28.8045128419552192
 20
180.8863672552168964
 30
0.0
  0
VERTEX
  5
446
  8
0
 10
28.9059840043946998
 20
180.8277828522674895
 30
0.0
  0
VERTEX
  5
447
  8
0
 10
29.0074230871935015
 20
180.7692169705071876
 30
0.0
  0
VERTEX
  5
448
  8
0
 10
29.108819913927821
 20
180.7106754852972017
 30
0.0
  0
VERTEX
  5
449
  8
0
 10
29.2101643081737805
 20
180.6521642719984015
 30
0.0
  0
VERTEX
  5
44A
  8
0
 10
29.3114460935075805
 20
180.5936892059719128
 30
0.0
  0
VERTEX
  5
44B
  8
0
 10
29.4126550935053785
 20
180.5352561625788042
 30
0.0
  0
VERTEX
  5
44C
  8
0
 10
29.5137811317433183
 20
180.4768710171800024
 30
0.0
  0
VERTEX
  5
44D
  8
0
 10
29.6148141513713483
 20
180.4185395761008124
 30
0.0
  0
VERTEX
  5
44E
  8
0
 10
29.7157470440198814
 20
180.3602659433599911
 30
0.0
  0
VERTEX
  5
44F
  8
0
 10
29.8165757643550684
 20
180.3020524545324008
 30
0.0
  0
VERTEX
  5
450
  8
0
 10
29.9172964095383307
 20
180.2439013629229976
 30
0.0
  0
VERTEX
  5
451
  8
0
 10
30.0179050767310684
 20
180.1858149218363963
 30
0.0
  0
VERTEX
  5
452
  8
0
 10
30.1183978630947102
 20
180.1277953845778086
 30
0.0
  0
VERTEX
  5
453
  8
0
 10
30.2187708657906207
 20
180.0698450044519063
 30
0.0
  0
VERTEX
  5
454
  8
0
 10
30.3190201819802212
 20
180.0119660347637875
 30
0.0
  0
VERTEX
  5
455
  8
0
 10
30.4191418473750197
 20
179.9541607642962902
 30
0.0
  0
VERTEX
  5
456
  8
0
 10
30.5191297821386094
 20
179.8964327032448125
 30
0.0
  0
VERTEX
  5
457
  8
0
 10
30.6189753066886112
 20
179.8387868627685009
 30
0.0
  0
VERTEX
  5
458
  8
0
 10
30.7186695818617501
 20
179.7812283461607024
 30
0.0
  0
VERTEX
  5
459
  8
0
 10
30.8182037684947616
 20
179.7237622567145081
 30
0.0
  0
VERTEX
  5
45A
  8
0
 10
30.9175690274243493
 20
179.6663936977234073
 30
0.0
  0
VERTEX
  5
45B
  8
0
 10
31.0167565194872807
 20
179.6091277724806048
 30
0.0
  0
VERTEX
  5
45C
  8
0
 10
31.1157574055202986
 20
179.5519695842795045
 30
0.0
  0
VERTEX
  5
45D
  8
0
 10
31.2145628990640809
 20
179.4949242059846028
 30
0.0
  0
VERTEX
  5
45E
  8
0
 10
31.3131739245060601
 20
179.4379911039006004
 30
0.0
  0
VERTEX
  5
45F
  8
0
 10
31.4116123948180714
 20
179.3811576265673011
 30
0.0
  0
VERTEX
  5
460
  8
0
 10
31.5099029607329193
 20
179.3244095418775998
 30
0.0
  0
VERTEX
  5
461
  8
0
 10
31.6080702729834684
 20
179.2677326177241071
 30
0.0
  0
VERTEX
  5
462
  8
0
 10
31.7061389823026083
 20
179.2111126219996038
 30
0.0
  0
VERTEX
  5
463
  8
0
 10
31.8041337394231789
 20
179.1545353225968995
 30
0.0
  0
VERTEX
  5
464
  8
0
 10
31.90207919507802
 20
179.09798648740869
 30
0.0
  0
VERTEX
  5
465
  8
0
 10
32.0
 20
179.0414518843276994
 30
0.0
  0
SEQEND
  5
466
  8
0
  0
POLYLINE
  5
2E8
  8
0
 66
     1
 10
0.0
 20
0.0
 30
0.0
  0
VERTEX
  5
467
  8
0
 10
32.0
 20
179.0414518843276994
 30
0.0
  0
VERTEX
  5
468
  8
0
 10
32.0
 20
178.9283700299490079
 30
0.0
  0
VERTEX
  5
469
  8
0
 10
32.0
 20
178.8152607135488097
 30
0.0
  0
VERTEX
  5
46A
  8
0
 10
32.0
 20
178.7020964731053994
 30
0.0
  0
VERTEX
  5
46B
  8
0
 10
32.0
 20
178.5888498465972134
 30
0.0
  0
VERTEX
  5
46C
  8
0
 10
32.0
 20
178.4754933720028021
 30
0.0
  0
VERTEX
  5
46D
  8
0
 10
32.0
 20
178.3619995873004882
 30
0.0
  0
VERTEX
  5
46E
  8
0
 10
32.0
 20
178.2483410304689073
 30
0.0
  0
VERTEX
  5
46F
  8
0
 10
32.0
 20
178.1344902394862117
 30
0.0
  0
VERTEX
  5
470
  8
0
 10
32.0
 20
178.0204205286524086
 30
0.0
  0
VERTEX
  5
471
  8
0
 10
32.0
 20
177.9061231601259863
 30
0.0
  0
VERTEX
  5
472
  8
0
 10
32.0
 20
177.791607395446789
 30
0.0
  0
VERTEX
  5
473
  8
0
 10
32.0
 20
177.6768832827800111
 30
0.0
  0
VERTEX
  5
474
  8
0
 10
32.0
 20
177.5619608702911876
 30
0.0
  0
VERTEX
  5
475
  8
0
 10
32.0
 20
177.4468502061457116
 30
0.0
  0
VERTEX
  5
476
  8
0
 10
32.0
 20
177.331561338508692
 30
0.0
  0
VERTEX
  5
477
  8
0
 10
32.0
 20
177.216104315545806
 30
0.0
  0
VERTEX
  5
478
  8
0
 10
32.0
 20
177.100489185422191
 30
0.0
  0
VERTEX
  5
479
  8
0
 10
32.0
 20
176.9847251642650008
 30
0.0
  0
VERTEX
  5
47A
  8
0
 10
32.0
 20
176.8688181364157117
 30
0.0
  0
VERTEX
  5
47B
  8
0
 10
32.0
 20
176.7527731523607031
 30
0.0
  0
VERTEX
  5
47C
  8
0
 10
32.0
 20
176.6365952625860984
 30
0.0
  0
VERTEX
  5
47D
  8
0
 10
32.0
 20
176.5202895175781919
 30
0.0
  0
VERTEX
  5
47E
  8
0
 10
32.0
 20
176.4038609678233911
 30
0.0
  0
VERTEX
  5
47F
  8
0
 10
32.0
 20
176.2873146638079902
 30
0.0
  0
VERTEX
  5
480
  8
0
 10
32.0
 20
176.1706556560181127
 30
0.0
  0
VERTEX
  5
481
  8
0
 10
32.0
 20
176.0538890474578864
 30
0.0
  0
VERTEX
  5
482
  8
0
 10
32.0
 20
175.9370227953014876
 30
0.0
  0
VERTEX
  5
483
  8
0
 10
32.0
 20
175.8200691179266073
 30
0.0
  0
VERTEX
  5
484
  8
0
 10
32.0
 20
175.7030405818817087
 30
0.0
  0
VERTEX
  5
485
  8
0
 10
32.0
 20
175.585949753715596
 30
0.0
  0
VERTEX
  5
486
  8
0
 10
32.0
 20
175.4688091999767892
 30
0.0
  0
VERTEX
  5
487
  8
0
 10
32.0
 20
175.3516314872138935
 30
0.0
  0
VERTEX
  5
488
  8
0
 10
32.0
 20
175.2344291819754858
 30
0.0
  0
VERTEX
  5
489
  8
0
 10
32.0
 20
175.1172148508101998
 30
0.0
  0
VERTEX
  5
48A
  8
0
 10
32.0
 20
175.0000000000003126
 30
0.0
  0
SEQEND
  5
48B
  8
0
  0
POLYLINE
  5
2E9
  8
0
 66
     1
 10
0.0
 20
0.0
 30
0.0
  0
VERTEX
  5
48C
  8
0
 10
18.0
 20
179.0414518843276994
 30
0.0
  0
VERTEX
  5
48D
  8
0
 10
18.1182042497341911
 20
179.1096971397311108
 30
0.0
  0
VERTEX
  5
48E
  8
0
 10
18.2364494392056713
 20
179.1779660317029084
 30
0.0
  0
VERTEX
  5
48F
  8
0
 10
18.354776508151641
 20
179.2462821968111939
 30
0.0
  0
VERTEX
  5
490
  8
0
 10
18.4732263963093715
 20
179.3146692716246093
 30
0.0
  0
VERTEX
  5
491
  8
0
 10
18.5918400434161413
 20
179.3831508927111997
 30
0.0
  0
VERTEX
  5
492
  8
0
 10
18.7106583892091791
 20
179.4517506966394933
 30
0.0
  0
VERTEX
  5
493
  8
0
 10
18.8297223734257706
 20
179.5204923199777056
 30
0.0
  0
VERTEX
  5
494
  8
0
 10
18.9490678591511106
 20
179.5893964682877879
 30
0.0
  0
VERTEX
  5
495
  8
0
 10
19.0686951016088813
 20
179.6584632889232012
 30
0.0
  0
VERTEX
  5
496
  8
0
 10
19.1885891150194183
 20
179.7276841298399859
 30
0.0
  0
VERTEX
  5
497
  8
0
 10
19.3087348558336984
 20
179.7970503056411076
 30
0.0
  0
VERTEX
  5
498
  8
0
 10
19.4291172805027585
 20
179.8665531309295034
 30
0.0
  0
VERTEX
  5
499
  8
0
 10
19.5497213454775896
 20
179.9361839203081104
 30
0.0
  0
VERTEX
  5
49A
  8
0
 10
19.6705320072091716
 20
180.0059339883798089
 30
0.0
  0
VERTEX
  5
49B
  8
0
 10
19.7915344873612717
 20
180.0757948028681881
 30
0.0
  0
VERTEX
  5
49C
  8
0
 10
19.9127174817649788
 20
180.1457598373083897
 30
0.0
  0
VERTEX
  5
49D
  8
0
 10
20.0340721285023413
 20
180.2158239752695863
 30
0.0
  0
VERTEX
  5
49E
  8
0
 10
20.1555896164150603
 20
180.285982129627314
 30
0.0
  0
VERTEX
  5
49F
  8
0
 10
20.2772611343448617
 20
180.3562292132567961
 30
0.0
  0
VERTEX
  5
4A0
  8
0
 10
20.3990778711335317
 20
180.4265601390335121
 30
0.0
  0
VERTEX
  5
4A1
  8
0
 10
20.5210310156227784
 20
180.4969698198329127
 30
0.0
  0
VERTEX
  5
4A2
  8
0
 10
20.6431117153925285
 20
180.5674531447079119
 30
0.0
  0
VERTEX
  5
4A3
  8
0
 10
20.7653083145293103
 20
180.6380033841134889
 30
0.0
  0
VERTEX
  5
4A4
  8
0
 10
20.8876046119507102
 20
180.7086111843507013
 30
0.0
  0
VERTEX
  5
4A5
  8
0
 10
21.0099839912759307
 20
180.7792669519473918
 30
0.0
  0
VERTEX
  5
4A6
  8
0
 10
21.1324298361242597
 20
180.8499610934316877
 30
0.0
  0
VERTEX
  5
4A7
  8
0
 10
21.2549255301148889
 20
180.9206840153316875
 30
0.0
  0
VERTEX
  5
4A8
  8
0
 10
21.3774544568670386
 20
180.9914261241756037
 30
0.0
  0
VERTEX
  5
4A9
  8
0
 10
21.4999999999999716
 20
181.0621778264913928
 30
0.0
  0
SEQEND
  5
4AA
  8
0
  0
POLYLINE
  5
2EA
  8
0
 66
     1
 10
0.0
 20
0.0
 30
0.0
  0
VERTEX
  5
4AB
  8
0
 10
18.0
 20
175.0000000000003126
 30
0.0
  0
VERTEX
  5
4AC
  8
0
 10
18.0
 20
175.1415026626615088
 30
0.0
  0
VERTEX
  5
4AD
  8
0
 10
18.0
 20
175.2829860738324044
 30
0.0
  0
VERTEX
  5
4AE
  8
0
 10
18.0
 20
175.4244309820228125
 30
0.0
  0
VERTEX
  5
4AF
  8
0
 10
18.0
 20
175.5658181357424041
 30
0.0
  0
VERTEX
  5
4B0
  8
0
 10
18.0
 20
175.7071282835011061
 30
0.0
  0
VERTEX
  5
4B1
  8
0
 10
18.0
 20
175.8483421738085895
 30
0.0
  0
VERTEX
  5
4B2
  8
0
 10
18.0
 20
175.9894405551744967
 30
0.0
  0
VERTEX
  5
4B3
  8
0
 10
18.0
 20
176.1304050365368141
 30
0.0
  0
VERTEX
  5
4B4
  8
0
 10
18.0
 20
176.2712230249657921
 30
0.0
  0
VERTEX
  5
4B5
  8
0
 10
18.0
 20
176.4118843219225994
 30
0.0
  0
VERTEX
  5
4B6
  8
0
 10
18.0
 20
176.5523787364149939
 30
0.0
  0
VERTEX
  5
4B7
  8
0
 10
18.0
 20
176.6926960774507904
 30
0.0
  0
VERTEX
  5
4B8
  8
0
 10
18.0
 20
176.83282615403769
 30
0.0
  0
VERTEX
  5
4B9
  8
0
 10
18.0
 20
176.9727587751835927
 30
0.0
  0
VERTEX
  5
4BA
  8
0
 10
18.0
 20
177.1124834018750107
 30
0.0
  0
VERTEX
  5
4BB
  8
0
 10
18.0
 20
177.2519853021250071
 30
0.0
  0
VERTEX
  5
4BC
  8
0
 10
18.0
 20
177.3912469672114014
 30
0.0
  0
VERTEX
  5
4BD
  8
0
 10
18.0
 20
177.5302508388074045
 30
0.0
  0
VERTEX
  5
4BE
  8
0
 10
18.0
 20
177.6689793585863981
 30
0.0
  0
VERTEX
  5
4BF
  8
0
 10
18.0
 20
177.8074149682217922
 30
0.0
  0
VERTEX
  5
4C0
  8
0
 10
18.0
 20
177.9455401093869114
 30
0.0
  0
VERTEX
  5
4C1
  8
0
 10
18.0
 20
178.083337604290989
 30
0.0
  0
VERTEX
  5
4C2
  8
0
 10
18.0
 20
178.2208137788958879
 30
0.0
  0
VERTEX
  5
4C3
  8
0
 10
18.0
 20
178.3580117814877894
 30
0.0
  0
VERTEX
  5
4C4
  8
0
 10
18.0
 20
178.494977974068803
 30
0.0
  0
VERTEX
  5
4C5
  8
0
 10
18.0
 20
178.6317587186412084
 30
0.0
  0
VERTEX
  5
4C6
  8
0
 10
18.0
 20
178.7684003772070014
 30
0.0
  0
VERTEX
  5
4C7
  8
0
 10
18.0
 20
178.9049493117684051
 30
0.0
  0
VERTEX
  5
4C8
  8
0
 10
18.0
 20
179.0414518843276994
 30
0.0
  0
SEQEND
  5
4C9
  8
0
  0
POLYLINE
  5
2EB
  8
0
 66
     1
 10
0.0
 20
0.0
 30
0.0
  0
VERTEX
  5
4CA
  8
0
 10
25.0
 20
183.0829037686550862
 30
0.0
  0
VERTEX
  5
4CB
  8
0
 10
25.1182042497341911
 20
183.0146585132517032
 30
0.0
  0
VERTEX
  5
4CC
  8
0
 10
25.2364494392056713
 20
182.9463896212799909
 30
0.0
  0
VERTEX
  5
4CD
  8
0
 10
25.3547765081516516
 20
182.8780734561715917
 30
0.0
  0
VERTEX
  5
4CE
  8
0
 10
25.4732263963093715
 20
182.8096863813582047
 30
0.0
  0
VERTEX
  5
4CF
  8
0
 10
25.5918400434161413
 20
182.7412047602715859
 30
0.0
  0
VERTEX
  5
4D0
  8
0
 10
25.7106583892091898
 20
182.6726049563432923
 30
0.0
  0
VERTEX
  5
4D1
  8
0
 10
25.8297223734257706
 20
182.6038633330051084
 30
0.0
  0
VERTEX
  5
4D2
  8
0
 10
25.9490678591511212
 20
182.5349591846949977
 30
0.0
  0
VERTEX
  5
4D3
  8
0
 10
26.0686951016088813
 20
182.4658923640596129
 30
0.0
  0
VERTEX
  5
4D4
  8
0
 10
26.188589115019429
 20
182.3966715231427997
 30
0.0
  0
VERTEX
  5
4D5
  8
0
 10
26.3087348558337091
 20
182.3273053473417065
 30
0.0
  0
VERTEX
  5
4D6
  8
0
 10
26.4291172805027692
 20
182.2578025220533107
 30
0.0
  0
VERTEX
  5
4D7
  8
0
 10
26.5497213454775896
 20
182.1881717326747037
 30
0.0
  0
VERTEX
  5
4D8
  8
0
 10
26.6705320072091787
 20
182.1184216646030052
 30
0.0
  0
VERTEX
  5
4D9
  8
0
 10
26.7915344873612788
 20
182.0485608501145975
 30
0.0
  0
VERTEX
  5
4DA
  8
0
 10
26.9127174817649895
 20
181.9785958156743959
 30
0.0
  0
VERTEX
  5
4DB
  8
0
 10
27.0340721285023484
 20
181.9085316777131993
 30
0.0
  0
VERTEX
  5
4DC
  8
0
 10
27.1555896164150603
 20
181.8383735233555001
 30
0.0
  0
VERTEX
  5
4DD
  8
0
 10
27.277261134344851
 20
181.7681264397261032
 30
0.0
  0
VERTEX
  5
4DE
  8
0
 10
27.3990778711335317
 20
181.6977955139493019
 30
0.0
  0
VERTEX
  5
4DF
  8
0
 10
27.5210310156227784
 20
181.6273858331499014
 30
0.0
  0
VERTEX
  5
4E0
  8
0
 10
27.6431117153925392
 20
181.5569025082749022
 30
0.0
  0
VERTEX
  5
4E1
  8
0
 10
27.7653083145293103
 20
181.4863522688692967
 30
0.0
  0
VERTEX
  5
4E2
  8
0
 10
27.8876046119507102
 20
181.4157444686321128
 30
0.0
  0
VERTEX
  5
4E3
  8
0
 10
28.0099839912759307
 20
181.3450887010353938
 30
0.0
  0
VERTEX
  5
4E4
  8
0
 10
28.1324298361242597
 20
181.2743945595510979
 30
0.0
  0
VERTEX
  5
4E5
  8
0
 10
28.2549255301148889
 20
181.2036716376510981
 30
0.0
  0
VERTEX
  5
4E6
  8
0
 10
28.3774544568670386
 20
181.1329295288072103
 30
0.0
  0
VERTEX
  5
4E7
  8
0
 10
28.4999999999999716
 20
181.0621778264913928
 30
0.0
  0
SEQEND
  5
4E8
  8
0
  0
POLYLINE
  5
2EC
  8
0
 66
     1
 10
0.0
 20
0.0
 30
0.0
  0
VERTEX
  5
4E9
  8
0
 10
21.5
 20
181.0621778264913928
 30
0.0
  0
VERTEX
  5
4EA
  8
0
 10
21.60151319009438
 20
181.120786494118704
 30
0.0
  0
VERTEX
  5
4EB
  8
0
 10
21.7030197222839298
 20
181.1793913178028106
 30
0.0
  0
VERTEX
  5
4EC
  8
0
 10
21.8045128419552086
 20
181.2379883977660029
 30
0.0
  0
VERTEX
  5
4ED
  8
0
 10
21.9059840043946998
 20
181.2965728007154098
 30
0.0
  0
VERTEX
  5
4EE
  8
0
 10
22.0074230871935015
 20
181.355138682475598
 30
0.0
  0
VERTEX
  5
4EF
  8
0
 10
22.108819913927821
 20
181.4136801676856123
 30
0.0
  0
VERTEX
  5
4F0
  8
0
 10
22.2101643081737983
 20
181.4721913809844125
 30
0.0
  0
VERTEX
  5
4F1
  8
0
 10
22.3114460935076089
 20
181.5306664470109013
 30
0.0
  0
VERTEX
  5
4F2
  8
0
 10
22.4126550935054105
 20
181.5890994904040951
 30
0.0
  0
VERTEX
  5
4F3
  8
0
 10
22.5137811317433396
 20
181.6474846358028117
 30
0.0
  0
VERTEX
  5
4F4
  8
0
 10
22.6148141513713803
 20
181.7058160768820869
 30
0.0
  0
VERTEX
  5
4F5
  8
0
 10
22.7157470440199099
 20
181.7640897096227945
 30
0.0
  0
VERTEX
  5
4F6
  8
0
 10
22.8165757643551004
 20
181.8223031984502995
 30
0.0
  0
VERTEX
  5
4F7
  8
0
 10
22.9172964095383485
 20
181.8804542900599017
 30
0.0
  0
VERTEX
  5
4F8
  8
0
 10
23.0179050767311004
 20
181.9385407311463894
 30
0.0
  0
VERTEX
  5
4F9
  8
0
 10
23.1183978630947102
 20
181.9965602684050907
 30
0.0
  0
VERTEX
  5
4FA
  8
0
 10
23.2187708657906384
 20
182.0545106485309077
 30
0.0
  0
VERTEX
  5
4FB
  8
0
 10
23.3190201819802496
 20
182.1123896182191118
 30
0.0
  0
VERTEX
  5
4FC
  8
0
 10
23.4191418473750197
 20
182.1701948886864955
 30
0.0
  0
VERTEX
  5
4FD
  8
0
 10
23.5191297821386094
 20
182.2279229497380015
 30
0.0
  0
VERTEX
  5
4FE
  8
0
 10
23.6189753066886112
 20
182.2855687902143131
 30
0.0
  0
VERTEX
  5
4FF
  8
0
 10
23.7186695818617501
 20
182.3431273068221969
 30
0.0
  0
VERTEX
  5
500
  8
0
 10
23.818203768494751
 20
182.4005933962683059
 30
0.0
  0
VERTEX
  5
501
  8
0
 10
23.9175690274243493
 20
182.4579619552594067
 30
0.0
  0
VERTEX
  5
502
  8
0
 10
24.0167565194873092
 20
182.5152278805022092
 30
0.0
  0
VERTEX
  5
503
  8
0
 10
24.1157574055202986
 20
182.5723860687033095
 30
0.0
  0
VERTEX
  5
504
  8
0
 10
24.2145628990641413
 20
182.6294314469982965
 30
0.0
  0
VERTEX
  5
505
  8
0
 10
24.3131739245061205
 20
182.6863645490822989
 30
0.0
  0
VERTEX
  5
506
  8
0
 10
24.4116123948181212
 20
182.7431980264155129
 30
0.0
  0
VERTEX
  5
507
  8
0
 10
24.509902960732969
 20
182.7999461111052995
 30
0.0
  0
VERTEX
  5
508
  8
0
 10
24.6080702729835288
 20
182.856623035258707
 30
0.0
  0
VERTEX
  5
509
  8
0
 10
24.7061389823026403
 20
182.9132430309832102
 30
0.0
  0
VERTEX
  5
50A
  8
0
 10
24.8041337394232109
 20
182.9698203303858861
 30
0.0
  0
VERTEX
  5
50B
  8
0
 10
24.9020791950780485
 20
183.0263691655740956
 30
0.0
  0
VERTEX
  5
50C
  8
0
 10
25.0000000000000284
 20
183.0829037686550862
 30
0.0
  0
SEQEND
  5
50D
  8
0
  0
POLYLINE
  5
2ED
  8
0
 66
     1
 10
0.0
 20
0.0
 30
0.0
  0
VERTEX
  5
50E
  8
0
 10
18.4990250563274685
 20
171.2480664260976937
 30
0.0
  0
VERTEX
  5
50F
  8
0
 10
18.6345061732407906
 20
171.1698463667777048
 30
0.0
  0
VERTEX
  5
510
  8
0
 10
18.770054082474271
 20
171.091587744893701
 30
0.0
  0
VERTEX
  5
511
  8
0
 10
18.9057355763480288
 20
171.0132519978816106
 30
0.0
  0
VERTEX
  5
512
  8
0
 10
19.0416174471822295
 20
170.9348005631773901
 30
0.0
  0
VERTEX
  5
513
  8
0
 10
19.1777664872969886
 20
170.856194878217309
 30
0.0
  0
VERTEX
  5
514
  8
0
 10
19.3142494890124716
 20
170.7773963804370112
 30
0.0
  0
VERTEX
  5
515
  8
0
 10
19.4511258551464401
 20
170.698370773603898
 30
0.0
  0
VERTEX
  5
516
  8
0
 10
19.5883969440226302
 20
170.6191172734893087
 30
0.0
  0
VERTEX
  5
517
  8
0
 10
19.7260366920962689
 20
170.5396509278878057
 30
0.0
  0
VERTEX
  5
518
  8
0
 10
19.8640188733136505
 20
170.4599868784185901
 30
0.0
  0
VERTEX
  5
519
  8
0
 10
20.0023172616209912
 20
170.3801402667008063
 30
0.0
  0
VERTEX
  5
51A
  8
0
 10
20.1409056309646317
 20
170.3001262343537121
 30
0.0
  0
VERTEX
  5
51B
  8
0
 10
20.2797580314701804
 20
170.2199597635442103
 30
0.0
  0
VERTEX
  5
51C
  8
0
 10
20.4188532968208811
 20
170.1396530746509939
 30
0.0
  0
VERTEX
  5
51D
  8
0
 10
20.5581743073757117
 20
170.0592160517034017
 30
0.0
  0
VERTEX
  5
51E
  8
0
 10
20.6977040710025584
 20
169.9786585051134864
 30
0.0
  0
VERTEX
  5
51F
  8
0
 10
20.8374255955693286
 20
169.8979902452933004
 30
0.0
  0
VERTEX
  5
520
  8
0
 10
20.9773218889439512
 20
169.817221082654811
 30
0.0
  0
VERTEX
  5
521
  8
0
 10
21.1173759357370692
 20
169.7363608410377083
 30
0.0
  0
VERTEX
  5
522
  8
0
 10
21.2575662512852297
 20
169.6554219246181958
 30
0.0
  0
VERTEX
  5
523
  8
0
 10
21.3978615969047894
 20
169.5744223690587091
 30
0.0
  0
VERTEX
  5
524
  8
0
 10
21.5382294471959916
 20
169.4933809529075006
 30
0.0
  0
VERTEX
  5
525
  8
0
 10
21.6786372767591899
 20
169.4123164547129079
 30
0.0
  0
VERTEX
  5
526
  8
0
 10
21.8190525601946206
 20
169.3312476530230128
 30
0.0
  0
VERTEX
  5
527
  8
0
 10
21.9594427721026193
 20
169.2501933263864089
 30
0.0
  0
VERTEX
  5
528
  8
0
 10
22.0997768773417818
 20
169.1691713929500906
 30
0.0
  0
VERTEX
  5
529
  8
0
 10
22.2400331609587809
 20
169.0881943898482973
 30
0.0
  0
VERTEX
  5
52A
  8
0
 10
22.380193503855029
 20
169.00727277814741
 30
0.0
  0
VERTEX
  5
52B
  8
0
 10
22.5202397945853114
 20
168.9264170144953141
 30
0.0
  0
VERTEX
  5
52C
  8
0
 10
22.66015392170425
 20
168.845637555539696
 30
0.0
  0
VERTEX
  5
52D
  8
0
 10
22.7999173887409405
 20
168.7649450802232138
 30
0.0
  0
VERTEX
  5
52E
  8
0
 10
22.939499635322619
 20
168.6843572325851142
 30
0.0
  0
VERTEX
  5
52F
  8
0
 10
23.0788559289241597
 20
168.6038998389610128
 30
0.0
  0
VERTEX
  5
530
  8
0
 10
23.21794072691279
 20
168.5235991934021058
 30
0.0
  0
VERTEX
  5
531
  8
0
 10
23.3567084866557515
 20
168.4434815899597027
 30
0.0
  0
VERTEX
  5
532
  8
0
 10
23.4951136656865209
 20
168.3635733225889908
 30
0.0
  0
VERTEX
  5
533
  8
0
 10
23.6331254347021797
 20
168.2838921905965037
 30
0.0
  0
VERTEX
  5
534
  8
0
 10
23.7707679032365
 20
168.2044242743363043
 30
0.0
  0
VERTEX
  5
535
  8
0
 10
23.9080780013376284
 20
168.1251482522351068
 30
0.0
  0
VERTEX
  5
536
  8
0
 10
24.0450926590537009
 20
168.0460428027197963
 30
0.0
  0
VERTEX
  5
537
  8
0
 10
24.1818488064328392
 20
167.9670866042170871
 30
0.0
  0
VERTEX
  5
538
  8
0
 10
24.3183833735231509
 20
167.8882583351538926
 30
0.0
  0
VERTEX
  5
539
  8
0
 10
24.4547332903728183
 20
167.8095366739566998
 30
0.0
  0
VERTEX
  5
53A
  8
0
 10
24.590935487029931
 20
167.7309002990525073
 30
0.0
  0
VERTEX
  5
53B
  8
0
 10
24.7270268935426394
 20
167.6523278888680011
 30
0.0
  0
VERTEX
  5
53C
  8
0
 10
24.8630444399591113
 20
167.5737981218300092
 30
0.0
  0
VERTEX
  5
53D
  8
0
 10
24.9990250563274401
 20
167.495289676365104
 30
0.0
  0
SEQEND
  5
53E
  8
0
  0
POLYLINE
  5
2EE
  8
0
 66
     1
 10
0.0
 20
0.0
 30
0.0
  0
VERTEX
  5
53F
  8
0
 10
31.4990250563274685
 20
171.2480664260976937
 30
0.0
  0
VERTEX
  5
540
  8
0
 10
31.3635439394141216
 20
171.1698463667777048
 30
0.0
  0
VERTEX
  5
541
  8
0
 10
31.2279960301806412
 20
171.091587744893701
 30
0.0
  0
VERTEX
  5
542
  8
0
 10
31.0923145363068407
 20
171.0132519978816106
 30
0.0
  0
VERTEX
  5
543
  8
0
 10
30.9564326654726507
 20
170.9348005631773901
 30
0.0
  0
VERTEX
  5
544
  8
0
 10
30.8202836253578916
 20
170.856194878217309
 30
0.0
  0
VERTEX
  5
545
  8
0
 10
30.6838006236424086
 20
170.7773963804370112
 30
0.0
  0
VERTEX
  5
546
  8
0
 10
30.5469242575084401
 20
170.698370773603898
 30
0.0
  0
VERTEX
  5
547
  8
0
 10
30.40965316863225
 20
170.6191172734893087
 30
0.0
  0
VERTEX
  5
548
  8
0
 10
30.2720134205586113
 20
170.5396509278878057
 30
0.0
  0
VERTEX
  5
549
  8
0
 10
30.1340312393412297
 20
170.4599868784185901
 30
0.0
  0
VERTEX
  5
54A
  8
0
 10
29.995732851033889
 20
170.3801402667008063
 30
0.0
  0
VERTEX
  5
54B
  8
0
 10
29.8571444816902591
 20
170.3001262343537121
 30
0.0
  0
VERTEX
  5
54C
  8
0
 10
29.7182920811846998
 20
170.2199597635442103
 30
0.0
  0
VERTEX
  5
54D
  8
0
 10
29.579196815834031
 20
170.1396530746509939
 30
0.0
  0
VERTEX
  5
54E
  8
0
 10
29.4398758052792004
 20
170.0592160517034017
 30
0.0
  0
VERTEX
  5
54F
  8
0
 10
29.3003460416523502
 20
169.9786585051134864
 30
0.0
  0
VERTEX
  5
550
  8
0
 10
29.1606245170855516
 20
169.8979902452933004
 30
0.0
  0
VERTEX
  5
551
  8
0
 10
29.0207282237109609
 20
169.817221082654811
 30
0.0
  0
VERTEX
  5
552
  8
0
 10
28.8806741769178394
 20
169.7363608410377083
 30
0.0
  0
VERTEX
  5
553
  8
0
 10
28.7404838613696789
 20
169.6554219246181958
 30
0.0
  0
VERTEX
  5
554
  8
0
 10
28.6001885157501192
 20
169.5744223690587091
 30
0.0
  0
VERTEX
  5
555
  8
0
 10
28.4598206654588886
 20
169.4933809529075006
 30
0.0
  0
VERTEX
  5
556
  8
0
 10
28.3194128358957187
 20
169.4123164547129079
 30
0.0
  0
VERTEX
  5
557
  8
0
 10
28.1789975524602596
 20
169.3312476530230128
 30
0.0
  0
VERTEX
  5
558
  8
0
 10
28.0386073405522609
 20
169.2501933263864089
 30
0.0
  0
VERTEX
  5
559
  8
0
 10
27.89827323531307
 20
169.1691713929500906
 30
0.0
  0
VERTEX
  5
55A
  8
0
 10
27.7580169516960815
 20
169.0881943898482973
 30
0.0
  0
VERTEX
  5
55B
  8
0
 10
27.6178566087998014
 20
169.00727277814741
 30
0.0
  0
VERTEX
  5
55C
  8
0
 10
27.477810318069551
 20
168.9264170144953141
 30
0.0
  0
VERTEX
  5
55D
  8
0
 10
27.3378961909506017
 20
168.845637555539696
 30
0.0
  0
VERTEX
  5
55E
  8
0
 10
27.1981327239139503
 20
168.7649450802232138
 30
0.0
  0
VERTEX
  5
55F
  8
0
 10
27.0585504773322612
 20
168.6843572325851142
 30
0.0
  0
VERTEX
  5
560
  8
0
 10
26.9191941837307311
 20
168.6038998389610128
 30
0.0
  0
VERTEX
  5
561
  8
0
 10
26.7801093857420902
 20
168.5235991934021058
 30
0.0
  0
VERTEX
  5
562
  8
0
 10
26.6413416259991287
 20
168.4434815899597027
 30
0.0
  0
VERTEX
  5
563
  8
0
 10
26.5029364469683593
 20
168.3635733225889908
 30
0.0
  0
VERTEX
  5
564
  8
0
 10
26.3649246779527004
 20
168.2838921905965037
 30
0.0
  0
VERTEX
  5
565
  8
0
 10
26.2272822094183802
 20
168.2044242743363043
 30
0.0
  0
VERTEX
  5
566
  8
0
 10
26.0899721113172482
 20
168.1251482522351068
 30
0.0
  0
VERTEX
  5
567
  8
0
 10
25.95295745360119
 20
168.0460428027197963
 30
0.0
  0
VERTEX
  5
568
  8
0
 10
25.816201306222041
 20
167.9670866042170871
 30
0.0
  0
VERTEX
  5
569
  8
0
 10
25.6796667391317293
 20
167.8882583351538926
 30
0.0
  0
VERTEX
  5
56A
  8
0
 10
25.543316822282069
 20
167.8095366739566998
 30
0.0
  0
VERTEX
  5
56B
  8
0
 10
25.4071146256249314
 20
167.7309002990525073
 30
0.0
  0
VERTEX
  5
56C
  8
0
 10
25.2710232191122088
 20
167.6523278888680011
 30
0.0
  0
VERTEX
  5
56D
  8
0
 10
25.1350056726957405
 20
167.5737981218300092
 30
0.0
  0
VERTEX
  5
56E
  8
0
 10
24.9990250563274117
 20
167.495289676365104
 30
0.0
  0
SEQEND
  5
56F
  8
0
  0
POLYLINE
  5
2EF
  8
0
 66
     1
 10
0.0
 20
0.0
 30
0.0
  0
VERTEX
  5
570
  8
0
 10
31.4990250563274685
 20
171.2480664260976937
 30
0.0
  0
VERTEX
  5
571
  8
0
 10
31.4990250563274685
 20
171.4044364501380073
 30
0.0
  0
VERTEX
  5
572
  8
0
 10
31.4990250563274685
 20
171.5608922742345044
 30
0.0
  0
VERTEX
  5
573
  8
0
 10
31.4990250563274685
 20
171.7175196984433967
 30
0.0
  0
VERTEX
  5
574
  8
0
 10
31.4990250563274685
 20
171.8744045228208961
 30
0.0
  0
VERTEX
  5
575
  8
0
 10
31.4990250563274685
 20
172.0316325474232997
 30
0.0
  0
VERTEX
  5
576
  8
0
 10
31.4990250563274685
 20
172.189288539382602
 30
0.0
  0
VERTEX
  5
577
  8
0
 10
31.4990250563274685
 20
172.3474106438937952
 30
0.0
  0
VERTEX
  5
578
  8
0
 10
31.4990250563274685
 20
172.5059724107090062
 30
0.0
  0
VERTEX
  5
579
  8
0
 10
31.4990250563274685
 20
172.6649426417152995
 30
0.0
  0
VERTEX
  5
57A
  8
0
 10
31.4990250563274685
 20
172.8242901387993129
 30
0.0
  0
VERTEX
  5
57B
  8
0
 10
31.4990250563274685
 20
172.9839837038483097
 30
0.0
  0
VERTEX
  5
57C
  8
0
 10
31.4990250563274685
 20
173.1439924513387041
 30
0.0
  0
VERTEX
  5
57D
  8
0
 10
31.4990250563274685
 20
173.3042932427781864
 30
0.0
  0
VERTEX
  5
57E
  8
0
 10
31.4990250563274685
 20
173.4648710096786886
 30
0.0
  0
VERTEX
  5
57F
  8
0
 10
31.4990250563274685
 20
173.6257110607704135
 30
0.0
  0
VERTEX
  5
580
  8
0
 10
31.4990250563274685
 20
173.7867987047835925
 30
0.0
  0
VERTEX
  5
581
  8
0
 10
31.4990250563274685
 20
173.9481192504482863
 30
0.0
  0
VERTEX
  5
582
  8
0
 10
31.4990250563274685
 20
174.1096572273409038
 30
0.0
  0
VERTEX
  5
583
  8
0
 10
31.4990250563274685
 20
174.2713852550394904
 30
0.0
  0
VERTEX
  5
584
  8
0
 10
31.4990250563274685
 20
174.4332666544032122
 30
0.0
  0
VERTEX
  5
585
  8
0
 10
31.4990250563274685
 20
174.5952644994416119
 30
0.0
  0
VERTEX
  5
586
  8
0
 10
31.4990250563274685
 20
174.7573418641646015
 30
0.0
  0
VERTEX
  5
587
  8
0
 10
31.4990250563274685
 20
174.919461822581809
 30
0.0
  0
VERTEX
  5
588
  8
0
 10
31.4990250563274685
 20
175.08158781426161
 30
0.0
  0
VERTEX
  5
589
  8
0
 10
31.4990250563274685
 20
175.2436897339370034
 30
0.0
  0
VERTEX
  5
58A
  8
0
 10
31.4990250563274685
 20
175.4057430032370064
 30
0.0
  0
VERTEX
  5
58B
  8
0
 10
31.4990250563274685
 20
175.5677232222913062
 30
0.0
  0
VERTEX
  5
58C
  8
0
 10
31.4990250563274685
 20
175.7296059912299881
 30
0.0
  0
VERTEX
  5
58D
  8
0
 10
31.4990250563274685
 20
175.891366910183109
 30
0.0
  0
VERTEX
  5
58E
  8
0
 10
31.4990250563274685
 20
176.0529812796798979
 30
0.0
  0
VERTEX
  5
58F
  8
0
 10
31.4990250563274685
 20
176.2144182360256082
 30
0.0
  0
VERTEX
  5
590
  8
0
 10
31.4990250563274685
 20
176.3756411298261924
 30
0.0
  0
VERTEX
  5
591
  8
0
 10
31.4990250563274685
 20
176.53661308788719
 30
0.0
  0
VERTEX
  5
592
  8
0
 10
31.4990250563274685
 20
176.6972972370139985
 30
0.0
  0
VERTEX
  5
593
  8
0
 10
31.4990250563274685
 20
176.8576567040122995
 30
0.0
  0
VERTEX
  5
594
  8
0
 10
31.4990250563274685
 20
177.0176546156874053
 30
0.0
  0
VERTEX
  5
595
  8
0
 10
31.4990250563274685
 20
177.1772540988449123
 30
0.0
  0
VERTEX
  5
596
  8
0
 10
31.4990250563274685
 20
177.3364182802903883
 30
0.0
  0
VERTEX
  5
597
  8
0
 10
31.4990250563274685
 20
177.4951183173104994
 30
0.0
  0
VERTEX
  5
598
  8
0
 10
31.4990250563274685
 20
177.6533831853732863
 30
0.0
  0
VERTEX
  5
599
  8
0
 10
31.4990250563274685
 20
177.8112671866236099
 30
0.0
  0
VERTEX
  5
59A
  8
0
 10
31.4990250563274685
 20
177.9688247306060873
 30
0.0
  0
VERTEX
  5
59B
  8
0
 10
31.4990250563274685
 20
178.1261102268653076
 30
0.0
  0
VERTEX
  5
59C
  8
0
 10
31.4990250563274685
 20
178.2831780849460017
 30
0.0
  0
VERTEX
  5
59D
  8
0
 10
31.4990250563274685
 20
178.4400827143925881
 30
0.0
  0
VERTEX
  5
59E
  8
0
 10
31.4990250563274685
 20
178.5968785247501103
 30
0.0
  0
VERTEX
  5
59F
  8
0
 10
31.4990250563274685
 20
178.7536199255629015
 30
0.0
  0
SEQEND
  5
5A0
  8
0
  0
POLYLINE
  5
2F0
  8
0
 66
     1
 10
0.0
 20
0.0
 30
0.0
  0
VERTEX
  5
5A1
  8
0
 10
31.4990250563274685
 20
178.7536199255629015
 30
0.0
  0
VERTEX
  5
5A2
  8
0
 10
31.3635439394141216
 20
178.8318399848828903
 30
0.0
  0
VERTEX
  5
5A3
  8
0
 10
31.2279960301806412
 20
178.9100986067668941
 30
0.0
  0
VERTEX
  5
5A4
  8
0
 10
31.0923145363068407
 20
178.988434353779013
 30
0.0
  0
VERTEX
  5
5A5
  8
0
 10
30.9564326654726507
 20
179.0668857884830913
 30
0.0
  0
VERTEX
  5
5A6
  8
0
 10
30.8202836253578916
 20
179.1454914734432862
 30
0.0
  0
VERTEX
  5
5A7
  8
0
 10
30.6838006236424086
 20
179.2242899712234987
 30
0.0
  0
VERTEX
  5
5A8
  8
0
 10
30.5469242575084401
 20
179.3033155780566972
 30
0.0
  0
VERTEX
  5
5A9
  8
0
 10
30.40965316863225
 20
179.3825690781712865
 30
0.0
  0
VERTEX
  5
5AA
  8
0
 10
30.2720134205586113
 20
179.4620354237727895
 30
0.0
  0
VERTEX
  5
5AB
  8
0
 10
30.1340312393412297
 20
179.5416994732420051
 30
0.0
  0
VERTEX
  5
5AC
  8
0
 10
29.995732851033889
 20
179.6215460849597889
 30
0.0
  0
VERTEX
  5
5AD
  8
0
 10
29.8571444816902591
 20
179.7015601173069115
 30
0.0
  0
VERTEX
  5
5AE
  8
0
 10
29.7182920811846998
 20
179.7817265881164133
 30
0.0
  0
VERTEX
  5
5AF
  8
0
 10
29.579196815834031
 20
179.8620332770096013
 30
0.0
  0
VERTEX
  5
5B0
  8
0
 10
29.4398758052792004
 20
179.9424702999571934
 30
0.0
  0
VERTEX
  5
5B1
  8
0
 10
29.3003460416523502
 20
180.0230278465471088
 30
0.0
  0
VERTEX
  5
5B2
  8
0
 10
29.1606245170855516
 20
180.1036961063672948
 30
0.0
  0
VERTEX
  5
5B3
  8
0
 10
29.0207282237109609
 20
180.1844652690058126
 30
0.0
  0
VERTEX
  5
5B4
  8
0
 10
28.8806741769178394
 20
180.2653255106228869
 30
0.0
  0
VERTEX
  5
5B5
  8
0
 10
28.7404838613696789
 20
180.3462644270423993
 30
0.0
  0
VERTEX
  5
5B6
  8
0
 10
28.6001885157501192
 20
180.427263982601886
 30
0.0
  0
VERTEX
  5
5B7
  8
0
 10
28.4598206654588886
 20
180.5083053987530946
 30
0.0
  0
VERTEX
  5
5B8
  8
0
 10
28.3194128358957187
 20
180.589369896947801
 30
0.0
  0
VERTEX
  5
5B9
  8
0
 10
28.1789975524602596
 20
180.6704386986374971
 30
0.0
  0
VERTEX
  5
5BA
  8
0
 10
28.0386073405522609
 20
180.7514930252741863
 30
0.0
  0
VERTEX
  5
5BB
  8
0
 10
27.89827323531307
 20
180.8325149587105045
 30
0.0
  0
VERTEX
  5
5BC
  8
0
 10
27.7580169516960815
 20
180.9134919618122979
 30
0.0
  0
VERTEX
  5
5BD
  8
0
 10
27.6178566087998014
 20
180.9944135735132136
 30
0.0
  0
VERTEX
  5
5BE
  8
0
 10
27.477810318069551
 20
181.0752693371653095
 30
0.0
  0
VERTEX
  5
5BF
  8
0
 10
27.3378961909506017
 20
181.1560487961208992
 30
0.0
  0
VERTEX
  5
5C0
  8
0
 10
27.1981327239139503
 20
181.2367412714374098
 30
0.0
  0
VERTEX
  5
5C1
  8
0
 10
27.0585504773322612
 20
181.3173291190753957
 30
0.0
  0
VERTEX
  5
5C2
  8
0
 10
26.9191941837307311
 20
181.3977865126994971
 30
0.0
  0
VERTEX
  5
5C3
  8
0
 10
26.7801093857420902
 20
181.4780871582584041
 30
0.0
  0
VERTEX
  5
5C4
  8
0
 10
26.6413416259991287
 20
181.5582047617008925
 30
0.0
  0
VERTEX
  5
5C5
  8
0
 10
26.5029364469683593
 20
181.6381130290714907
 30
0.0
  0
VERTEX
  5
5C6
  8
0
 10
26.3649246779527004
 20
181.7177941610640914
 30
0.0
  0
VERTEX
  5
5C7
  8
0
 10
26.2272822094183802
 20
181.7972620773242909
 30
0.0
  0
VERTEX
  5
5C8
  8
0
 10
26.0899721113172482
 20
181.8765380994254031
 30
0.0
  0
VERTEX
  5
5C9
  8
0
 10
25.95295745360119
 20
181.9556435489407988
 30
0.0
  0
VERTEX
  5
5CA
  8
0
 10
25.816201306222041
 20
182.0345997474433943
 30
0.0
  0
VERTEX
  5
5CB
  8
0
 10
25.6796667391317293
 20
182.1134280165067025
 30
0.0
  0
VERTEX
  5
5CC
  8
0
 10
25.543316822282069
 20
182.1921496777038101
 30
0.0
  0
VERTEX
  5
5CD
  8
0
 10
25.4071146256249314
 20
182.2707860526080026
 30
0.0
  0
VERTEX
  5
5CE
  8
0
 10
25.2710232191122088
 20
182.3493584627925941
 30
0.0
  0
VERTEX
  5
5CF
  8
0
 10
25.1350056726957405
 20
182.4278882298305859
 30
0.0
  0
VERTEX
  5
5D0
  8
0
 10
24.9990250563274117
 20
182.5063966752954059
 30
0.0
  0
SEQEND
  5
5D1
  8
0
  0
POLYLINE
  5
2F1
  8
0
 66
     1
 10
0.0
 20
0.0
 30
0.0
  0
VERTEX
  5
5D2
  8
0
 10
18.4990250563274685
 20
178.7536199255629015
 30
0.0
  0
VERTEX
  5
5D3
  8
0
 10
18.6345061732407906
 20
178.8318399848828903
 30
0.0
  0
VERTEX
  5
5D4
  8
0
 10
18.770054082474271
 20
178.9100986067668941
 30
0.0
  0
VERTEX
  5
5D5
  8
0
 10
18.9057355763480288
 20
178.988434353779013
 30
0.0
  0
VERTEX
  5
5D6
  8
0
 10
19.0416174471822295
 20
179.0668857884830913
 30
0.0
  0
VERTEX
  5
5D7
  8
0
 10
19.1777664872969886
 20
179.1454914734432862
 30
0.0
  0
VERTEX
  5
5D8
  8
0
 10
19.3142494890124716
 20
179.2242899712234987
 30
0.0
  0
VERTEX
  5
5D9
  8
0
 10
19.4511258551464401
 20
179.3033155780566972
 30
0.0
  0
VERTEX
  5
5DA
  8
0
 10
19.5883969440226302
 20
179.3825690781712865
 30
0.0
  0
VERTEX
  5
5DB
  8
0
 10
19.7260366920962689
 20
179.4620354237727895
 30
0.0
  0
VERTEX
  5
5DC
  8
0
 10
19.8640188733136505
 20
179.5416994732420051
 30
0.0
  0
VERTEX
  5
5DD
  8
0
 10
20.0023172616209912
 20
179.6215460849597889
 30
0.0
  0
VERTEX
  5
5DE
  8
0
 10
20.1409056309646317
 20
179.7015601173067978
 30
0.0
  0
VERTEX
  5
5DF
  8
0
 10
20.2797580314701804
 20
179.7817265881164133
 30
0.0
  0
VERTEX
  5
5E0
  8
0
 10
20.4188532968208811
 20
179.8620332770096013
 30
0.0
  0
VERTEX
  5
5E1
  8
0
 10
20.5581743073757117
 20
179.9424702999571934
 30
0.0
  0
VERTEX
  5
5E2
  8
0
 10
20.6977040710025584
 20
180.0230278465471088
 30
0.0
  0
VERTEX
  5
5E3
  8
0
 10
20.8374255955693286
 20
180.1036961063672948
 30
0.0
  0
VERTEX
  5
5E4
  8
0
 10
20.9773218889439192
 20
180.1844652690058126
 30
0.0
  0
VERTEX
  5
5E5
  8
0
 10
21.1173759357370692
 20
180.2653255106228869
 30
0.0
  0
VERTEX
  5
5E6
  8
0
 10
21.2575662512852297
 20
180.3462644270423993
 30
0.0
  0
VERTEX
  5
5E7
  8
0
 10
21.3978615969047894
 20
180.427263982601886
 30
0.0
  0
VERTEX
  5
5E8
  8
0
 10
21.5382294471959916
 20
180.5083053987530946
 30
0.0
  0
VERTEX
  5
5E9
  8
0
 10
21.6786372767591899
 20
180.589369896947801
 30
0.0
  0
VERTEX
  5
5EA
  8
0
 10
21.8190525601946206
 20
180.6704386986374971
 30
0.0
  0
VERTEX
  5
5EB
  8
0
 10
21.9594427721026193
 20
180.7514930252741863
 30
0.0
  0
VERTEX
  5
5EC
  8
0
 10
22.0997768773417818
 20
180.8325149587105045
 30
0.0
  0
VERTEX
  5
5ED
  8
0
 10
22.2400331609587809
 20
180.9134919618122979
 30
0.0
  0
VERTEX
  5
5EE
  8
0
 10
22.380193503855029
 20
180.9944135735132136
 30
0.0
  0
VERTEX
  5
5EF
  8
0
 10
22.5202397945853114
 20
181.0752693371653095
 30
0.0
  0
VERTEX
  5
5F0
  8
0
 10
22.66015392170425
 20
181.1560487961208992
 30
0.0
  0
VERTEX
  5
5F1
  8
0
 10
22.7999173887409405
 20
181.2367412714374098
 30
0.0
  0
VERTEX
  5
5F2
  8
0
 10
22.939499635322619
 20
181.3173291190753957
 30
0.0
  0
VERTEX
  5
5F3
  8
0
 10
23.0788559289241597
 20
181.3977865126994971
 30
0.0
  0
VERTEX
  5
5F4
  8
0
 10
23.21794072691279
 20
181.4780871582584041
 30
0.0
  0
VERTEX
  5
5F5
  8
0
 10
23.3567084866557515
 20
181.5582047617008925
 30
0.0
  0
VERTEX
  5
5F6
  8
0
 10
23.4951136656865209
 20
181.6381130290714907
 30
0.0
  0
VERTEX
  5
5F7
  8
0
 10
23.6331254347021797
 20
181.7177941610640914
 30
0.0
  0
VERTEX
  5
5F8
  8
0
 10
23.7707679032365
 20
181.7972620773242909
 30
0.0
  0
VERTEX
  5
5F9
  8
0
 10
23.9080780013376604
 20
181.8765380994254031
 30
0.0
  0
VERTEX
  5
5FA
  8
0
 10
24.0450926590537009
 20
181.9556435489407136
 30
0.0
  0
VERTEX
  5
5FB
  8
0
 10
24.1818488064328392
 20
182.0345997474433943
 30
0.0
  0
VERTEX
  5
5FC
  8
0
 10
24.3183833735231509
 20
182.1134280165067025
 30
0.0
  0
VERTEX
  5
5FD
  8
0
 10
24.4547332903728183
 20
182.1921496777038101
 30
0.0
  0
VERTEX
  5
5FE
  8
0
 10
24.590935487029931
 20
182.2707860526080026
 30
0.0
  0
VERTEX
  5
5FF
  8
0
 10
24.7270268935426714
 20
182.3493584627925088
 30
0.0
  0
VERTEX
  5
600
  8
0
 10
24.8630444399591113
 20
182.4278882298305859
 30
0.0
  0
VERTEX
  5
601
  8
0
 10
24.9990250563274401
 20
182.5063966752954059
 30
0.0
  0
SEQEND
  5
602
  8
0
  0
POLYLINE
  5
2F2
  8
0
 66
     1
 10
0.0
 20
0.0
 30
0.0
  0
VERTEX
  5
603
  8
0
 10
18.4990250563274685
 20
171.2480664260976937
 30
0.0
  0
VERTEX
  5
604
  8
0
 10
18.4990250563274685
 20
171.4044364501380073
 30
0.0
  0
VERTEX
  5
605
  8
0
 10
18.4990250563274685
 20
171.5608922742345044
 30
0.0
  0
VERTEX
  5
606
  8
0
 10
18.4990250563274685
 20
171.7175196984433967
 30
0.0
  0
VERTEX
  5
607
  8
0
 10
18.4990250563274685
 20
171.8744045228208961
 30
0.0
  0
VERTEX
  5
608
  8
0
 10
18.4990250563274685
 20
172.0316325474232997
 30
0.0
  0
VERTEX
  5
609
  8
0
 10
18.4990250563274685
 20
172.189288539382602
 30
0.0
  0
VERTEX
  5
60A
  8
0
 10
18.4990250563274685
 20
172.3474106438937952
 30
0.0
  0
VERTEX
  5
60B
  8
0
 10
18.4990250563274685
 20
172.5059724107090062
 30
0.0
  0
VERTEX
  5
60C
  8
0
 10
18.4990250563274685
 20
172.6649426417152995
 30
0.0
  0
VERTEX
  5
60D
  8
0
 10
18.4990250563274685
 20
172.8242901387993129
 30
0.0
  0
VERTEX
  5
60E
  8
0
 10
18.4990250563274685
 20
172.9839837038483097
 30
0.0
  0
VERTEX
  5
60F
  8
0
 10
18.4990250563274685
 20
173.1439924513387041
 30
0.0
  0
VERTEX
  5
610
  8
0
 10
18.4990250563274685
 20
173.3042932427781864
 30
0.0
  0
VERTEX
  5
611
  8
0
 10
18.4990250563274685
 20
173.4648710096786886
 30
0.0
  0
VERTEX
  5
612
  8
0
 10
18.4990250563274685
 20
173.6257110607704135
 30
0.0
  0
VERTEX
  5
613
  8
0
 10
18.4990250563274685
 20
173.7867987047835925
 30
0.0
  0
VERTEX
  5
614
  8
0
 10
18.4990250563274685
 20
173.9481192504482863
 30
0.0
  0
VERTEX
  5
615
  8
0
 10
18.4990250563274685
 20
174.1096572273409038
 30
0.0
  0
VERTEX
  5
616
  8
0
 10
18.4990250563274685
 20
174.2713852550394904
 30
0.0
  0
VERTEX
  5
617
  8
0
 10
18.4990250563274685
 20
174.4332666544032122
 30
0.0
  0
VERTEX
  5
618
  8
0
 10
18.4990250563274685
 20
174.5952644994416119
 30
0.0
  0
VERTEX
  5
619
  8
0
 10
18.4990250563274685
 20
174.7573418641646015
 30
0.0
  0
VERTEX
  5
61A
  8
0
 10
18.4990250563274685
 20
174.919461822581809
 30
0.0
  0
VERTEX
  5
61B
  8
0
 10
18.4990250563274685
 20
175.08158781426161
 30
0.0
  0
VERTEX
  5
61C
  8
0
 10
18.4990250563274685
 20
175.2436897339370034
 30
0.0
  0
VERTEX
  5
61D
  8
0
 10
18.4990250563274685
 20
175.4057430032368927
 30
0.0
  0
VERTEX
  5
61E
  8
0
 10
18.4990250563274685
 20
175.5677232222913062
 30
0.0
  0
VERTEX
  5
61F
  8
0
 10
18.4990250563274685
 20
175.7296059912299881
 30
0.0
  0
VERTEX
  5
620
  8
0
 10
18.4990250563274685
 20
175.891366910183109
 30
0.0
  0
VERTEX
  5
621
  8
0
 10
18.4990250563274685
 20
176.0529812796798979
 30
0.0
  0
VERTEX
  5
622
  8
0
 10
18.4990250563274685
 20
176.2144182360256082
 30
0.0
  0
VERTEX
  5
623
  8
0
 10
18.4990250563274685
 20
176.3756411298261924
 30
0.0
  0
VERTEX
  5
624
  8
0
 10
18.4990250563274685
 20
176.5366130878871047
 30
0.0
  0
VERTEX
  5
625
  8
0
 10
18.4990250563274685
 20
176.6972972370139985
 30
0.0
  0
VERTEX
  5
626
  8
0
 10
18.4990250563274685
 20
176.8576567040122995
 30
0.0
  0
VERTEX
  5
627
  8
0
 10
18.4990250563274685
 20
177.0176546156874053
 30
0.0
  0
VERTEX
  5
628
  8
0
 10
18.4990250563274685
 20
177.1772540988449123
 30
0.0
  0
VERTEX
  5
629
  8
0
 10
18.4990250563274685
 20
177.3364182802903883
 30
0.0
  0
VERTEX
  5
62A
  8
0
 10
18.4990250563274685
 20
177.4951183173104994
 30
0.0
  0
VERTEX
  5
62B
  8
0
 10
18.4990250563274685
 20
177.6533831853732863
 30
0.0
  0
VERTEX
  5
62C
  8
0
 10
18.4990250563274685
 20
177.8112671866236099
 30
0.0
  0
VERTEX
  5
62D
  8
0
 10
18.4990250563274685
 20
177.968824730606002
 30
0.0
  0
VERTEX
  5
62E
  8
0
 10
18.4990250563274685
 20
178.1261102268653076
 30
0.0
  0
VERTEX
  5
62F
  8
0
 10
18.4990250563274685
 20
178.283178084945888
 30
0.0
  0
VERTEX
  5
630
  8
0
 10
18.4990250563274685
 20
178.4400827143925881
 30
0.0
  0
VERTEX
  5
631
  8
0
 10
18.4990250563274685
 20
178.5968785247501103
 30
0.0
  0
VERTEX
  5
632
  8
0
 10
18.4990250563274685
 20
178.7536199255629015
 30
0.0
  0
SEQEND
  5
633
  8
0
  0
ENDSEC
  0
EOF
