  0
SECTION
  2
HEADER
  9
$ACADVER
  1
AC1009
  9
$INSBASE
 10
0.0
 20
0.0
 30
0.0
  9
$EXTMIN
 10
-4.0000000000000284
 20
-2.960436562073669
 30
0.0
  9
$EXTMAX
 10
141.3233287858116967
 20
229.999999999999801
 30
0.0
  9
$LIMMIN
 10
0.0
 20
0.0
  9
$LIMMAX
 10
375.0
 20
270.0
  9
$ORTHOMODE
 70
     1
  9
$REGENMODE
 70
     1
  9
$FILLMODE
 70
     1
  9
$QTEXTMODE
 70
     0
  9
$MIRRTEXT
 70
     0
  9
$DRAGMODE
 70
     2
  9
$LTSCALE
 40
6.0
  9
$OSMODE
 70
    37
  9
$ATTMODE
 70
     1
  9
$TEXTSIZE
 40
0.2
  9
$TRACEWID
 40
0.05
  9
$TEXTSTYLE
  7
STANDARD
  9
$CLAYER
  8
0
  9
$CELTYPE
  6
BYLAYER
  9
$CECOLOR
 62
   256
  9
$DIMSCALE
 40
1.0
  9
$DIMASZ
 40
3.0
  9
$DIMEXO
 40
1.0
  9
$DIMDLI
 40
6.0
  9
$DIMRND
 40
0.0
  9
$DIMDLE
 40
0.0
  9
$DIMEXE
 40
1.0
  9
$DIMTP
 40
495.0
  9
$DIMTM
 40
0.0
  9
$DIMTXT
 40
3.0
  9
$DIMCEN
 40
0.0
  9
$DIMTSZ
 40
0.0
  9
$DIMTOL
 70
     0
  9
$DIMLIM
 70
     0
  9
$DIMTIH
 70
     0
  9
$DIMTOH
 70
     0
  9
$DIMSE1
 70
     0
  9
$DIMSE2
 70
     0
  9
$DIMTAD
 70
     1
  9
$DIMZIN
 70
     0
  9
$DIMBLK
  1

  9
$DIMASO
 70
     0
  9
$DIMSHO
 70
     0
  9
$DIMPOST
  1

  9
$DIMAPOST
  1

  9
$DIMALT
 70
     0
  9
$DIMALTD
 70
     2
  9
$DIMALTF
 40
25.3999999999999986
  9
$DIMLFAC
 40
1.0
  9
$DIMTOFL
 70
     1
  9
$DIMTVP
 40
0.0
  9
$DIMTIX
 70
     1
  9
$DIMSOXD
 70
     0
  9
$DIMSAH
 70
     0
  9
$DIMBLK1
  1

  9
$DIMBLK2
  1

  9
$DIMSTYLE
  2
STANDARD
  9
$DIMCLRD
 70
     0
  9
$DIMCLRE
 70
     0
  9
$DIMCLRT
 70
     4
  9
$DIMTFAC
 40
1.0
  9
$DIMGAP
 40
1.0
  9
$LUNITS
 70
     2
  9
$LUPREC
 70
     4
  9
$SKETCHINC
 40
0.1
  9
$FILLETRAD
 40
0.0
  9
$AUNITS
 70
     0
  9
$AUPREC
 70
     0
  9
$MENU
  1
C:\R13\WIN\SUPPORT\ACAD-I
  9
$ELEVATION
 40
0.0
  9
$PELEVATION
 40
0.0
  9
$THICKNESS
 40
0.0
  9
$LIMCHECK
 70
     0
  9
$BLIPMODE
 70
     0
  9
$CHAMFERA
 40
0.0
  9
$CHAMFERB
 40
0.0
  9
$SKPOLY
 70
     0
  9
$TDCREATE
 40
2451961.7115277778357267
  9
$TDUPDATE
 40
2460580.5717129628174007
  9
$TDINDWG
 40
0.2402808681
  9
$TDUSRTIMER
 40
2456598.2017567250877619
  9
$USRTIMER
 70
     1
  9
$ANGBASE
 50
0.0
  9
$ANGDIR
 70
     0
  9
$PDMODE
 70
     0
  9
$PDSIZE
 40
0.0
  9
$PLINEWID
 40
0.0
  9
$COORDS
 70
     1
  9
$SPLFRAME
 70
     0
  9
$SPLINETYPE
 70
     6
  9
$SPLINESEGS
 70
     8
  9
$ATTDIA
 70
     1
  9
$ATTREQ
 70
     1
  9
$HANDLING
 70
     1
  9
$HANDSEED
  5
773
  9
$SURFTAB1
 70
     6
  9
$SURFTAB2
 70
     6
  9
$SURFTYPE
 70
     6
  9
$SURFU
 70
     6
  9
$SURFV
 70
     6
  9
$UCSNAME
  2

  9
$UCSORG
 10
0.0
 20
0.0
 30
0.0
  9
$UCSXDIR
 10
1.0
 20
0.0
 30
0.0
  9
$UCSYDIR
 10
0.0
 20
1.0
 30
0.0
  9
$PUCSNAME
  2

  9
$PUCSORG
 10
0.0
 20
0.0
 30
0.0
  9
$PUCSXDIR
 10
1.0
 20
0.0
 30
0.0
  9
$PUCSYDIR
 10
0.0
 20
1.0
 30
0.0
  9
$USERI1
 70
     4
  9
$USERI2
 70
     1
  9
$USERI3
 70
     0
  9
$USERI4
 70
     0
  9
$USERI5
 70
     0
  9
$USERR1
 40
1.0
  9
$USERR2
 40
3.0
  9
$USERR3
 40
3.0
  9
$USERR4
 40
3.0
  9
$USERR5
 40
10.0
  9
$WORLDVIEW
 70
     1
  9
$SHADEDGE
 70
     3
  9
$SHADEDIF
 70
    70
  9
$TILEMODE
 70
     1
  9
$MAXACTVP
 70
    16
  9
$PLIMCHECK
 70
     0
  9
$PEXTMIN
 10
1.0000000000000000E+20
 20
1.0000000000000000E+20
 30
1.0000000000000000E+20
  9
$PEXTMAX
 10
-1.0000000000000000E+20
 20
-1.0000000000000000E+20
 30
-1.0000000000000000E+20
  9
$PLIMMIN
 10
0.0
 20
0.0
  9
$PLIMMAX
 10
12.0
 20
9.0
  9
$UNITMODE
 70
     0
  9
$VISRETAIN
 70
     0
  9
$PLINEGEN
 70
     0
  9
$PSLTSCALE
 70
     0
  0
ENDSEC
  0
SECTION
  2
TABLES
  0
TABLE
  2
VPORT
 70
     1
  0
VPORT
  2
*ACTIVE
 70
     0
 10
0.0
 20
0.0
 11
1.0
 21
1.0
 12
281.8226600985220784
 22
120.0
 13
0.0
 23
0.0
 14
10.0
 24
10.0
 15
10.0
 25
10.0
 16
0.0
 26
0.0
 36
1.0
 17
0.0
 27
0.0
 37
0.0
 40
240.0
 41
2.3485221674876842
 42
50.0
 43
0.0
 44
0.0
 50
0.0
 51
0.0
 71
    16
 72
   100
 73
     1
 74
     0
 75
     0
 76
     0
 77
     0
 78
     0
  0
ENDTAB
  0
TABLE
  2
LTYPE
 70
     3
  0
LTYPE
  2
CONTINUOUS
 70
     0
  3
Solid Line
 72
    65
 73
     0
 40
0.0
  0
LTYPE
  2
CENTER
 70
     0
  3
____ _ ____ _ ____ _ ____ _ ____ _ ____ _ ____
 72
    65
 73
     4
 40
2.0
 49
1.25
 49
-0.25
 49
0.25
 49
-0.25
  0
LTYPE
  2
HIDDEN
 70
     0
  3
Hidden __ __ __ __ __ __ __ __ __ __ __ __ __ __
 72
    65
 73
     2
 40
1.905
 49
1.27
 49
-0.635
  0
ENDTAB
  0
TABLE
  2
LAYER
 70
     4
  0
LAYER
  2
0
 70
     0
 62
     7
  6
CONTINUOUS
  0
LAYER
  2
1
 70
     0
 62
     1
  6
CENTER
  0
LAYER
  2
3
 70
     0
 62
     3
  6
CONTINUOUS
  0
LAYER
  2
2
 70
     0
 62
     2
  6
HIDDEN
  0
ENDTAB
  0
TABLE
  2
STYLE
 70
     2
  0
STYLE
  2
STANDARD
 70
     0
 40
0.0
 41
1.0
 50
0.0
 71
     0
 42
0.2
  3
SIMPLEX
  4
BIGFONT
  0
STYLE
  2
STANDARD1
 70
     0
 40
0.0
 41
1.0
 50
0.0
 71
     0
 42
3.0
  3
txt
  4

  0
ENDTAB
  0
TABLE
  2
VIEW
 70
     0
  0
ENDTAB
  0
TABLE
  2
UCS
 70
     0
  0
ENDTAB
  0
TABLE
  2
APPID
 70
     7
  0
APPID
  2
ACAD
 70
     0
  0
APPID
  2
ACAD_NAV_VCDISPLAY
 70
     0
  0
APPID
  2
ACAECLAYERSTANDARD
 70
     0
  0
APPID
  2
ACCMTRANSPARENCY
 70
     0
  0
APPID
  2
ACAD_EXEMPT_FROM_CAD_STANDARDS
 70
     0
  0
APPID
  2
ACAD_TC
 70
     0
  0
APPID
  2
ACAD_MLEADERVER
 70
     0
  0
ENDTAB
  0
TABLE
  2
DIMSTYLE
 70
     1
  0
DIMSTYLE
  2
STANDARD
 70
     0
  3

  4

  5

  6

  7

 40
1.0
 41
0.18
 42
0.0625
 43
0.38
 44
0.18
 45
0.0
 46
0.0
 47
0.0
 48
0.0
140
0.18
141
0.09
142
0.0
143
25.3999999999999986
144
1.0
145
0.0
146
1.0
147
0.09
 71
     0
 72
     0
 73
     1
 74
     1
 75
     0
 76
     0
 77
     0
 78
     0
170
     0
171
     2
172
     0
173
     0
174
     0
175
     0
176
     0
177
     0
178
     0
  0
ENDTAB
  0
ENDSEC
  0
SECTION
  2
BLOCKS
  0
BLOCK
  8
0
  2
$MODEL_SPACE
 70
     0
 10
0.0
 20
0.0
 30
0.0
  3
$MODEL_SPACE
  1

  0
ENDBLK
  5
F
  8
0
  0
BLOCK
 67
     1
  8
0
  2
$PAPER_SPACE
 70
     0
 10
0.0
 20
0.0
 30
0.0
  3
$PAPER_SPACE
  1

  0
ENDBLK
  5
14
 67
     1
  8
0
  0
ENDSEC
  0
SECTION
  2
ENTITIES
  0
TEXT
  5
59
  8
0
 62
     3
 10
0.0
 20
0.0
 30
0.0
 40
10.0
  1
LSVA50-M10X68-SUS
  7
STANDARD1
  0
LINE
  5
4DB
  8
0
 10
33.4999999999999716
 20
75.8556624327026725
 30
0.0
 11
33.2499999999999716
 21
76.0
 31
0.0
  0
LINE
  5
4DC
  8
0
 10
16.7499999999999396
 20
76.0
 30
0.0
 11
16.4999999999999396
 21
75.8556624327026725
 31
0.0
  0
LINE
  5
4DD
  8
0
 10
16.4999999999999396
 20
68.1443375672974412
 30
0.0
 11
16.7499999999999396
 21
68.0000000000000568
 31
0.0
  0
LINE
  5
4DE
  8
0
 10
33.2499999999999716
 20
68.0000000000000568
 30
0.0
 11
33.4999999999999716
 21
68.1443375672974412
 31
0.0
  0
LINE
  5
4DF
  8
0
 10
30.5
 20
50.0
 30
0.0
 11
30.5
 21
53.0000000000000568
 31
0.0
  0
LINE
  5
4E0
  8
0
 10
19.5
 20
53.0000000000000568
 30
0.0
 11
19.5
 21
50.0
 31
0.0
  0
LINE
  5
4E1
  8
0
 10
30.0
 20
125.0800000000000978
 30
0.0
 11
29.0799999999999912
 21
126.0
 31
0.0
  0
LINE
  5
4E2
  8
0
 10
20.919999999999991
 20
126.0
 30
0.0
 11
20.0
 21
125.0800000000000978
 31
0.0
  0
LINE
  5
4E3
  8
0
 10
30.0
 20
58.0000000000000568
 30
0.0
 11
30.0
 21
68.0
 31
0.0
  0
LINE
  5
4E4
  8
0
 10
30.0
 20
76.0
 30
0.0
 11
30.0
 21
125.0800000000000978
 31
0.0
  0
LINE
  5
4E5
  8
0
 10
20.0
 20
125.0800000000000978
 30
0.0
 11
20.0
 21
76.0
 31
0.0
  0
LINE
  5
4E6
  8
0
 10
20.0
 20
68.0
 30
0.0
 11
20.0
 21
58.0000000000000568
 31
0.0
  0
LINE
  5
4E7
  8
0
 10
0.0
 20
37.3333333333333712
 30
0.0
 11
0.0
 21
31.6000000000000796
 31
0.0
  0
LINE
  5
4E8
  8
0
 10
50.0
 20
31.6000000000000796
 30
0.0
 11
50.0
 21
37.3333333333333712
 31
0.0
  0
LINE
  5
4E9
  8
0
 10
0.0
 20
31.6000000000000796
 30
0.0
 11
0.5999999999999659
 21
31.0000000000000604
 31
0.0
  0
LINE
  5
4EA
  8
0
 10
49.3999999999999702
 20
31.0000000000000604
 30
0.0
 11
50.0
 21
31.6000000000000796
 31
0.0
  0
LINE
  5
4EB
  8
0
 10
49.9999999999999716
 20
37.3333333333333712
 30
0.0
 11
36.2000000000000171
 21
43.6666666666666785
 31
0.0
  0
LINE
  5
4EC
  8
0
 10
13.7999999999999492
 20
43.6666666666666785
 30
0.0
 11
0.0
 21
37.3333333333333712
 31
0.0
  0
LINE
  5
4ED
  8
0
 10
5.0
 20
31.0000000000000604
 30
0.0
 11
5.0
 21
25.0000000000000604
 31
0.0
  0
LINE
  5
4EE
  8
0
 10
45.0
 20
25.0000000000000604
 30
0.0
 11
45.0
 21
31.0000000000000604
 31
0.0
  0
LINE
  5
4EF
  8
0
 10
36.1999999999999886
 20
43.6666666666666785
 30
0.0
 11
35.0832624555130792
 21
49.9999999999999432
 31
0.0
  0
LINE
  5
4F0
  8
0
 10
14.9167375444869208
 20
50.0000000000000568
 30
0.0
 11
13.7999999999999492
 21
43.6666666666666785
 31
0.0
  0
LINE
  5
4F1
  8
0
 10
16.7499999999999396
 20
76.0
 30
0.0
 11
33.2499999999999716
 21
76.0
 31
0.0
  0
LINE
  5
4F2
  8
0
 10
24.9999999999999716
 20
75.0964730541477934
 30
0.0
 11
24.9999999999999716
 21
68.9035269458522635
 31
0.0
  0
LINE
  5
4F3
  8
0
 10
33.4999999999999716
 20
75.8556624327026725
 30
0.0
 11
33.4999999999999716
 21
68.1443375672974412
 31
0.0
  0
LINE
  5
4F4
  8
0
 10
33.2499999999999716
 20
68.0000000000000568
 30
0.0
 11
16.7499999999999396
 21
68.0
 31
0.0
  0
LINE
  5
4F5
  8
0
 10
16.4999999999999396
 20
75.8556624327027293
 30
0.0
 11
16.4999999999999396
 21
68.144337567297498
 31
0.0
  0
LINE
  5
4F6
  8
0
 10
25.0
 20
53.6252147823392917
 30
0.0
 11
25.0
 21
57.3747852176607012
 31
0.0
  0
LINE
  5
4F7
  8
0
 10
18.0
 20
53.0000000000000568
 30
0.0
 11
18.0
 21
58.0000000000000568
 31
0.0
  0
LINE
  5
4F8
  8
0
 10
32.0
 20
52.9999999999998224
 30
0.0
 11
32.0
 21
57.9999999999998224
 31
0.0
  0
LINE
  5
4F9
  8
0
 10
32.0
 20
57.9999999999998224
 30
0.0
 11
18.0
 21
58.0000000000000568
 31
0.0
  0
LINE
  5
4FA
  8
0
 10
32.0
 20
52.9999999999998224
 30
0.0
 11
18.0
 21
53.0000000000000568
 31
0.0
  0
LINE
  5
4FB
  8
0
 10
29.0799999999999912
 20
126.0
 30
0.0
 11
20.919999999999991
 21
126.0
 31
0.0
  0
LINE
  5
4FC
  8
0
 10
30.0
 20
125.0800000000000978
 30
0.0
 11
20.0
 21
125.0800000000000978
 31
0.0
  0
LINE
  5
4FD
  8
0
 10
25.0
 20
30.9999999999999396
 30
0.0
 11
49.3999999999999702
 21
31.0000000000000604
 31
0.0
  0
LINE
  5
4FE
  8
0
 10
0.6000000000000796
 20
31.0000000000000604
 30
0.0
 11
25.0
 21
30.9999999999999396
 31
0.0
  0
LINE
  5
500
  8
0
 10
5.0
 20
25.0000000000000604
 30
0.0
 11
45.0
 21
25.0000000000000604
 31
0.0
  0
LINE
  5
501
  8
0
 10
14.9167375444869208
 20
50.0000000000000568
 30
0.0
 11
35.0832624555130792
 21
49.9999999999999432
 31
0.0
  0
LINE
  5
502
  8
2
 10
15.7999999999999794
 20
31.0000000000000604
 30
0.0
 11
15.7999999999999794
 21
25.0000000000000604
 31
0.0
  0
LINE
  5
503
  8
2
 10
34.1999999999999886
 20
25.0000000000000604
 30
0.0
 11
34.1999999999999886
 21
31.0000000000000604
 31
0.0
  0
LINE
  5
504
  8
0
 10
90.1850454237767849
 20
68.903526945852235
 30
0.0
 11
91.7500000000003837
 21
68.0000000000000284
 31
0.0
  0
LINE
  5
505
  8
0
 10
108.2500000000003979
 20
68.0000000000000284
 30
0.0
 11
109.8149545762239967
 21
68.903526945852235
 31
0.0
  0
LINE
  5
506
  8
0
 10
109.8149545762239967
 20
75.096473054147765
 30
0.0
 11
108.2500000000003979
 21
75.9999999999999716
 31
0.0
  0
LINE
  5
507
  8
0
 10
91.7500000000003837
 20
75.9999999999999716
 30
0.0
 11
90.1850454237767849
 21
75.096473054147765
 31
0.0
  0
LINE
  5
508
  8
0
 10
105.5000000000000995
 20
50.0000000000000284
 30
0.0
 11
105.5000000000000995
 21
53.0000000000000284
 31
0.0
  0
LINE
  5
509
  8
0
 10
94.5000000000001705
 20
52.9999999999999716
 30
0.0
 11
94.5000000000001705
 21
49.9999999999999716
 31
0.0
  0
LINE
  5
50A
  8
0
 10
105.000000000000199
 20
58.0000000000000284
 30
0.0
 11
105.0000000000000995
 21
67.9999999999999716
 31
0.0
  0
LINE
  5
50B
  8
0
 10
105.0
 20
75.9999999999999716
 30
0.0
 11
105.0
 21
125.0800000000000978
 31
0.0
  0
LINE
  5
50C
  8
0
 10
95.0
 20
125.0799999999999983
 30
0.0
 11
95.0000000000000568
 21
75.9999999999999716
 31
0.0
  0
LINE
  5
50D
  8
0
 10
95.0000000000001137
 20
67.9999999999999716
 30
0.0
 11
95.0000000000001705
 21
57.9999999999999716
 31
0.0
  0
LINE
  5
50E
  8
0
 10
105.0
 20
125.0800000000000978
 30
0.0
 11
104.0799999999999983
 21
126.0
 31
0.0
  0
LINE
  5
50F
  8
0
 10
95.9200000000000159
 20
126.0
 30
0.0
 11
95.0
 21
125.0799999999999983
 31
0.0
  0
LINE
  5
510
  8
0
 10
107.0
 20
52.9999999999999716
 30
0.0
 11
108.0829037686549015
 21
53.6252147823393273
 31
0.0
  0
LINE
  5
511
  8
0
 10
108.0829037686549015
 20
57.3747852176607296
 30
0.0
 11
107.000000000000199
 21
57.9999999999999716
 31
0.0
  0
LINE
  5
512
  8
0
 10
91.917096231345397
 20
53.6252147823392704
 30
0.0
 11
93.0000000000001563
 21
52.9999999999999716
 31
0.0
  0
LINE
  5
513
  8
0
 10
93.0000000000001563
 20
57.9999999999999716
 30
0.0
 11
91.917096231345397
 21
57.3747852176606727
 31
0.0
  0
LINE
  5
514
  8
0
 10
75.0000000000002558
 20
31.599999999999941
 30
0.0
 11
75.6000000000002501
 21
30.9999999999999183
 31
0.0
  0
LINE
  5
515
  8
0
 10
124.4000000000002046
 20
31.0000000000001386
 30
0.0
 11
125.000000000000199
 21
31.6000000000001116
 31
0.0
  0
LINE
  5
516
  8
0
 10
75.0000000000002274
 20
37.3333333333333428
 30
0.0
 11
75.0000000000002558
 21
31.599999999999941
 31
0.0
  0
LINE
  5
517
  8
0
 10
125.000000000000199
 20
31.6000000000001116
 30
0.0
 11
125.0000000000000995
 21
37.3333333333334565
 31
0.0
  0
LINE
  5
518
  8
0
 10
125.0000000000000995
 20
37.3333333333334565
 30
0.0
 11
111.2000000000002018
 21
43.6666666666667069
 31
0.0
  0
LINE
  5
519
  8
0
 10
88.8000000000001819
 20
43.6666666666666003
 30
0.0
 11
75.0000000000002274
 21
37.3333333333333428
 31
0.0
  0
LINE
  5
51A
  8
0
 10
80.0000000000002842
 20
30.9999999999999716
 30
0.0
 11
80.0000000000002842
 21
24.9999999999999716
 31
0.0
  0
LINE
  5
51B
  8
0
 10
120.0000000000002984
 20
25.0000000000000888
 30
0.0
 11
120.000000000000199
 21
31.0000000000000817
 31
0.0
  0
LINE
  5
51C
  8
0
 10
111.2000000000002018
 20
43.6666666666667069
 30
0.0
 11
110.0832624555132071
 21
50.0000000000000284
 31
0.0
  0
LINE
  5
51D
  8
0
 10
89.9167375444871482
 20
49.9999999999999716
 30
0.0
 11
88.8000000000001819
 21
43.6666666666666003
 31
0.0
  0
LINE
  5
51E
  8
0
 10
109.8149545762239967
 20
75.096473054147765
 30
0.0
 11
109.8149545762239967
 21
68.903526945852235
 31
0.0
  0
LINE
  5
51F
  8
0
 10
104.9074772881122044
 20
75.096473054147765
 30
0.0
 11
104.9074772881122044
 21
68.903526945852235
 31
0.0
  0
LINE
  5
520
  8
0
 10
108.2500000000003979
 20
67.9999999999999716
 30
0.0
 11
91.7500000000003837
 21
67.9999999999999716
 31
0.0
  0
LINE
  5
521
  8
0
 10
100.0000000000003979
 20
75.9999999999999716
 30
0.0
 11
108.2500000000003979
 21
75.9999999999999716
 31
0.0
  0
LINE
  5
522
  8
0
 10
91.7500000000003837
 20
75.9999999999999716
 30
0.0
 11
100.0000000000003979
 21
75.9999999999999716
 31
0.0
  0
LINE
  5
523
  8
0
 10
95.0925227118885346
 20
75.096473054147765
 30
0.0
 11
95.0925227118885346
 21
68.903526945852235
 31
0.0
  0
LINE
  5
524
  8
0
 10
90.1850454237767849
 20
75.096473054147765
 30
0.0
 11
90.1850454237767849
 21
68.903526945852235
 31
0.0
  0
LINE
  5
525
  8
0
 10
108.0829037686549015
 20
53.6252147823393273
 30
0.0
 11
108.0829037686549015
 21
57.3747852176607296
 31
0.0
  0
LINE
  5
526
  8
0
 10
104.0414518843275005
 20
53.6252147823393273
 30
0.0
 11
104.0414518843275005
 21
57.3747852176607296
 31
0.0
  0
LINE
  5
527
  8
0
 10
95.9585481156727838
 20
53.6252147823393273
 30
0.0
 11
95.9585481156727838
 21
57.3747852176606727
 31
0.0
  0
LINE
  5
528
  8
0
 10
91.917096231345397
 20
53.6252147823392704
 30
0.0
 11
91.917096231345397
 21
57.3747852176606727
 31
0.0
  0
LINE
  5
529
  8
0
 10
105.0
 20
125.0800000000000978
 30
0.0
 11
95.0
 21
125.0799999999999983
 31
0.0
  0
LINE
  5
52A
  8
0
 10
104.0799999999999983
 20
126.0
 30
0.0
 11
95.9200000000000159
 21
126.0
 31
0.0
  0
LINE
  5
52B
  8
0
 10
107.0
 20
52.9999999999999716
 30
0.0
 11
93.0000000000001563
 21
52.9999999999999716
 31
0.0
  0
LINE
  5
52C
  8
0
 10
107.000000000000199
 20
57.9999999999999716
 30
0.0
 11
93.0000000000001563
 21
57.9999999999999716
 31
0.0
  0
LINE
  5
52D
  8
0
 10
75.6000000000002501
 20
30.9999999999999183
 30
0.0
 11
124.4000000000002046
 21
31.0000000000001386
 31
0.0
  0
LINE
  5
52E
  8
0
 10
80.0000000000002842
 20
24.9999999999999716
 30
0.0
 11
120.0000000000002984
 21
25.0000000000000888
 31
0.0
  0
LINE
  5
52F
  8
0
 10
89.9167375444871482
 20
49.9999999999999716
 30
0.0
 11
110.0832624555132071
 21
50.0000000000000284
 31
0.0
  0
LINE
  5
530
  8
2
 10
90.8000000000002387
 20
31.0000000000000284
 30
0.0
 11
90.8000000000002387
 21
25.0000000000000284
 31
0.0
  0
LINE
  5
531
  8
2
 10
109.2000000000002018
 20
25.0000000000000888
 30
0.0
 11
109.2000000000002018
 21
31.0000000000000817
 31
0.0
  0
LINE
  5
543
  8
0
 10
125.0000000000000995
 20
37.3333333333334565
 30
0.0
 11
75.0000000000002274
 21
37.3333333333333428
 31
0.0
  0
LINE
  5
544
  8
0
 10
49.9999999999999716
 20
37.3333333333333712
 30
0.0
 11
0.0
 21
37.3333333333333712
 31
0.0
  0
LINE
  5
545
  8
0
 10
13.7999999999999492
 20
43.6666666666666785
 30
0.0
 11
36.2000000000000171
 21
43.6666666666666785
 31
0.0
  0
LINE
  5
546
  8
0
 10
88.8000000000001819
 20
43.6666666666666003
 30
0.0
 11
111.2000000000002018
 21
43.6666666666667069
 31
0.0
  0
ARC
  5
54A
  8
0
 10
21.5
 20
47.8907592389623389
 30
0.0
 40
10.1092407610376593
 50
69.7438419995831822
 51
110.2561580004168036
  0
ARC
  5
54B
  8
0
 10
28.4999999999999396
 20
47.8907592389620618
 30
0.0
 40
10.1092407610379205
 50
69.7438419995831822
 51
110.2561580004168036
  0
ARC
  5
54C
  8
0
 10
28.4999999999998899
 20
63.1092407610364035
 30
0.0
 40
10.1092407610363999
 50
249.7438419995797005
 51
290.2561580004203279
  0
ARC
  5
54D
  8
0
 10
21.5
 20
63.1092407610369222
 30
0.0
 40
10.1092407610369097
 50
249.7438419995814911
 51
290.2561580004185089
  0
ARC
  5
54E
  8
0
 10
20.7499999999998899
 20
63.5781644682634166
 30
0.0
 40
12.2773748285069804
 50
69.7470594287487415
 51
110.2529405712512016
  0
ARC
  5
54F
  8
0
 10
29.2500000000000604
 20
63.5781644682615479
 30
0.0
 40
12.2773748285087496
 50
69.7470594287505321
 51
110.2529405712494963
  0
ARC
  5
550
  8
0
 10
29.2499999999522515
 20
80.4218355314125546
 30
0.0
 40
12.2773748281828592
 50
249.7470594287921983
 51
290.252940572047919
  0
ARC
  5
551
  8
0
 10
20.7500000001207887
 20
80.4218355318221256
 30
0.0
 40
12.2773748285924
 50
249.7470594282939942
 51
290.2529405708676791
  0
ARC
  5
552
  8
0
 10
93.9378221735091188
 20
54.4218481522077298
 30
0.0
 40
3.578151847792248
 50
55.6157525319557635
 51
115.6157525319698038
  0
ARC
  5
553
  8
0
 10
100.0000000000002984
 20
44.6252147823390928
 30
0.0
 40
13.3747852176608895
 50
72.4120462260073339
 51
107.5879537739943004
  0
ARC
  5
554
  8
0
 10
106.0621778264911939
 20
54.4218481522075024
 30
0.0
 40
3.5781518477924661
 50
55.6157525319597212
 51
124.3842474680422043
  0
ARC
  5
555
  8
0
 10
106.0621778264911939
 20
56.5781518477920429
 30
0.0
 40
3.5781518477920429
 50
235.6157525319538024
 51
304.384247468046226
  0
ARC
  5
556
  8
0
 10
100.0
 20
66.3747852176587401
 30
0.0
 40
13.3747852176587703
 50
252.4120462260038948
 51
287.5879537739961052
  0
ARC
  5
557
  8
0
 10
93.937822173508934
 20
56.5781518477919931
 30
0.0
 40
3.5781518477920451
 50
244.3842474680517967
 51
304.3842474680482724
  0
ARC
  5
558
  8
0
 10
92.6387840678327734
 20
72.4899408878977454
 30
0.0
 40
4.3454802147784708
 50
244.3790005303785904
 51
304.3790005303973203
  0
ARC
  5
559
  8
0
 10
100.0000000000003979
 20
84.3967650264965243
 30
0.0
 40
16.25188480013502
 50
252.4244215740135076
 51
287.5755784259865209
  0
ARC
  5
55A
  8
0
 10
107.3612159321680934
 20
72.4899408878980864
 30
0.0
 40
4.3454802147788181
 50
235.6209994696048113
 51
295.620999469601486
  0
ARC
  5
55B
  8
0
 10
107.361215932167994
 20
71.510059112102013
 30
0.0
 40
4.3454802147786928
 50
64.3790005303877138
 51
124.3790005303952029
  0
ARC
  5
55C
  8
0
 10
100.0000000000003979
 20
59.6041251865918014
 30
0.0
 40
16.2510361448954583
 50
72.4234738320405143
 51
107.5765261679594005
  0
ARC
  5
55D
  8
0
 10
92.6387840678327734
 20
71.510059112102013
 30
0.0
 40
4.345480214778676
 50
55.62099946960479
 51
115.6209994696158958
  0
LINE
  5
55E
  8
1
 10
24.9999999999999716
 20
130.0
 30
0.0
 11
24.9999999999999716
 21
21.0000000000002309
 31
0.0
  0
LINE
  5
55F
  8
3
 10
20.8119999999998093
 20
76.0
 30
0.0
 11
20.8120000000000083
 21
125.8919999999999959
 31
0.0
  0
LINE
  5
560
  8
3
 10
29.1879999999999917
 20
75.9999999999999432
 30
0.0
 11
29.1880000000001587
 21
125.8919999999998964
 31
0.0
  0
LINE
  5
561
  8
3
 10
29.1880000000001303
 20
60.0000000000000568
 30
0.0
 11
30.0000000000000284
 21
58.5935747442542194
 31
0.0
  0
LINE
  5
562
  8
3
 10
20.8119999999999514
 20
60.0000000000000568
 30
0.0
 11
20.0000000000000604
 21
58.5935747442542194
 31
0.0
  0
LINE
  5
563
  8
0
 10
20.0000000000000817
 20
60.0000000000000568
 30
0.0
 11
30.0000000000000604
 21
59.9999999999999432
 31
0.0
  0
LINE
  5
564
  8
3
 10
20.8120000000000083
 20
60.0000000000000568
 30
0.0
 11
20.8120000000000083
 21
68.0
 31
0.0
  0
LINE
  5
565
  8
3
 10
29.1880000000001587
 20
59.9999999999999432
 30
0.0
 11
29.1880000000002191
 21
68.0
 31
0.0
  0
LINE
  5
566
  8
1
 10
99.9999999999999432
 20
130.0
 30
0.0
 11
99.9999999999999858
 21
21.0000000000001386
 31
0.0
  0
LINE
  5
567
  8
3
 10
95.8119999999998413
 20
75.9999999999999716
 30
0.0
 11
95.811999999999955
 21
125.8919999999999959
 31
0.0
  0
LINE
  5
568
  8
3
 10
104.1880000000000024
 20
75.9999999999999147
 30
0.0
 11
104.1880000000001019
 21
125.891999999999797
 31
0.0
  0
LINE
  5
569
  8
3
 10
104.1880000000001019
 20
60.0000000000000284
 30
0.0
 11
105.0
 21
58.593574744254191
 31
0.0
  0
LINE
  5
56A
  8
3
 10
95.811999999999955
 20
60.0000000000000284
 30
0.0
 11
95.0000000000000568
 21
58.593574744254191
 31
0.0
  0
LINE
  5
56B
  8
0
 10
95.0000000000000568
 20
60.0000000000000284
 30
0.0
 11
105.0
 21
59.9999999999999218
 31
0.0
  0
LINE
  5
56C
  8
3
 10
95.811999999999955
 20
60.0000000000000284
 30
0.0
 11
95.811999999999955
 21
67.9999999999999716
 31
0.0
  0
LINE
  5
56D
  8
3
 10
104.1880000000001019
 20
59.9999999999999218
 30
0.0
 11
104.1880000000001019
 21
67.9999999999999716
 31
0.0
  0
CIRCLE
  5
5A1
  8
0
 10
24.9999999999999503
 20
201.000000000000199
 30
0.0
 40
8.25
  0
CIRCLE
  5
5A2
  8
0
 10
24.9999999999999716
 20
200.999999999999801
 30
0.0
 40
5.0
  0
CIRCLE
  5
5A3
  8
0
 10
24.9999999999999716
 20
201.0
 30
0.0
 40
10.0832624555130792
  0
CIRCLE
  5
5A4
  8
0
 10
24.9999999999999716
 20
201.0000000000001137
 30
0.0
 40
11.2000000000000295
  0
CIRCLE
  5
5A5
  8
0
 10
24.9999999999999716
 20
201.0000000000001137
 30
0.0
 40
25.0
  0
ARC
  5
5A6
  8
0
 10
24.9999999999999716
 20
201.0
 30
0.0
 40
9.3280727874535305
 50
276.1348584959126242
 51
323.8624579089305939
  0
ARC
  5
5A7
  8
0
 10
24.9999999999999716
 20
201.0
 30
0.0
 40
9.3280727874535359
 50
336.1320501384390127
 51
23.8599000624173208
  0
ARC
  5
5A8
  8
0
 10
24.9999999999999716
 20
201.0
 30
0.0
 40
9.3280727874535501
 50
36.1291179956424813
 51
83.8574689603327812
  0
ARC
  5
5A9
  8
0
 10
24.9999999999999716
 20
201.0
 30
0.0
 40
9.3280727874535483
 50
96.1260630352990972
 51
143.8551656080219914
  0
ARC
  5
5AA
  8
0
 10
24.9999999999999716
 20
201.0
 30
0.0
 40
9.3280727874535376
 50
156.1228862160745052
 51
203.8529910205128033
  0
ARC
  5
5AB
  8
0
 10
24.9999999999999716
 20
201.0
 30
0.0
 40
9.3280727874535234
 50
216.1195884876352125
 51
263.8509462226290907
  0
LINE
  5
5AC
  8
1
 10
-4.0000000000000284
 20
200.999999999999801
 30
0.0
 11
53.9999999999999716
 21
200.999999999999801
 31
0.0
  0
LINE
  5
5AD
  8
1
 10
24.9999999999999716
 20
171.999999999999801
 30
0.0
 11
24.9999999999999716
 21
229.999999999999801
 31
0.0
  0
CIRCLE
  5
5AE
  8
3
 10
24.9999999999999716
 20
200.999999999999801
 30
0.0
 40
4.1879999999999971
  0
POLYLINE
  5
5AF
  8
0
 66
     1
 10
0.0
 20
0.0
 30
0.0
  0
VERTEX
  5
635
  8
0
 10
16.4999999999999112
 20
196.0925227118883925
 30
0.0
  0
VERTEX
  5
636
  8
0
 10
16.657122750356649
 20
196.0018078496740941
 30
0.0
  0
VERTEX
  5
637
  8
0
 10
16.8143064039577688
 20
195.911057824955293
 30
0.0
  0
VERTEX
  5
638
  8
0
 10
16.9716118640475884
 20
195.8202374752274864
 30
0.0
  0
VERTEX
  5
639
  8
0
 10
17.1291000338705111
 20
195.729311637986001
 30
0.0
  0
VERTEX
  5
63A
  8
0
 10
17.2868318166708512
 20
195.6382451507263909
 30
0.0
  0
VERTEX
  5
63B
  8
0
 10
17.4448681156930192
 20
195.5470028509442955
 30
0.0
  0
VERTEX
  5
63C
  8
0
 10
17.6032698341813294
 20
195.455549576135013
 30
0.0
  0
VERTEX
  5
63D
  8
0
 10
17.7620842672766592
 20
195.3638580204361972
 30
0.0
  0
VERTEX
  5
63E
  8
0
 10
17.9213022521880703
 20
195.2719334739877013
 30
0.0
  0
VERTEX
  5
63F
  8
0
 10
18.0808999865604889
 20
195.179789679085701
 30
0.0
  0
VERTEX
  5
640
  8
0
 10
18.2408536680133295
 20
195.0874403780410944
 30
0.0
  0
VERTEX
  5
641
  8
0
 10
18.4011394941659887
 20
194.9948993131646091
 30
0.0
  0
VERTEX
  5
642
  8
0
 10
18.5617336626379199
 20
194.9021802267670012
 30
0.0
  0
VERTEX
  5
643
  8
0
 10
18.722612371048541
 20
194.8092968611593108
 30
0.0
  0
VERTEX
  5
644
  8
0
 10
18.8837530403372895
 20
194.7162622523680113
 30
0.0
  0
VERTEX
  5
645
  8
0
 10
19.0451383245247108
 20
194.623086415099209
 30
0.0
  0
VERTEX
  5
646
  8
0
 10
19.2067522766691603
 20
194.5297785563238051
 30
0.0
  0
VERTEX
  5
647
  8
0
 10
19.3685789498435916
 20
194.4363478830044869
 30
0.0
  0
VERTEX
  5
648
  8
0
 10
19.5306023971210116
 20
194.3428036021037997
 30
0.0
  0
VERTEX
  5
649
  8
0
 10
19.6928066715743988
 20
194.2491549205844024
 30
0.0
  0
VERTEX
  5
64A
  8
0
 10
19.8551758262767599
 20
194.1554110454088971
 30
0.0
  0
VERTEX
  5
64B
  8
0
 10
20.017692843760301
 20
194.0615818016169101
 30
0.0
  0
VERTEX
  5
64C
  8
0
 10
20.1803330587134084
 20
193.9676814297326075
 30
0.0
  0
VERTEX
  5
64D
  8
0
 10
20.3430684787291014
 20
193.8737260911798899
 30
0.0
  0
VERTEX
  5
64E
  8
0
 10
20.5058710977474483
 20
193.7797319552649071
 30
0.0
  0
VERTEX
  5
64F
  8
0
 10
20.6687129097085496
 20
193.6857151912938093
 30
0.0
  0
VERTEX
  5
650
  8
0
 10
20.8315659085525091
 20
193.5916919685728885
 30
0.0
  0
VERTEX
  5
651
  8
0
 10
20.9944020882193989
 20
193.4976784564084085
 30
0.0
  0
VERTEX
  5
652
  8
0
 10
21.1571936095695605
 20
193.4036907277350963
 30
0.0
  0
VERTEX
  5
653
  8
0
 10
21.3199147356803884
 20
193.3097436417722861
 30
0.0
  0
VERTEX
  5
654
  8
0
 10
21.4825411668868504
 20
193.2158512279378897
 30
0.0
  0
VERTEX
  5
655
  8
0
 10
21.6450486313945589
 20
193.1220274995590103
 30
0.0
  0
VERTEX
  5
656
  8
0
 10
21.8074128574091617
 20
193.0282864699626941
 30
0.0
  0
VERTEX
  5
657
  8
0
 10
21.9696095731362107
 20
192.9346421524759876
 30
0.0
  0
VERTEX
  5
658
  8
0
 10
22.1316148274932516
 20
192.8411083752627917
 30
0.0
  0
VERTEX
  5
659
  8
0
 10
22.2934108313231683
 20
192.7476954088978118
 30
0.0
  0
VERTEX
  5
65A
  8
0
 10
22.4549853498432093
 20
192.6544103171360973
 30
0.0
  0
VERTEX
  5
65B
  8
0
 10
22.6163263470617686
 20
192.5612600489606052
 30
0.0
  0
VERTEX
  5
65C
  8
0
 10
22.7774217869872793
 20
192.4682515533544915
 30
0.0
  0
VERTEX
  5
65D
  8
0
 10
22.938259633628121
 20
192.375391779300486
 30
0.0
  0
VERTEX
  5
65E
  8
0
 10
23.0988276823779017
 20
192.2826877731314994
 30
0.0
  0
VERTEX
  5
65F
  8
0
 10
23.2591083120421693
 20
192.1901497084488994
 30
0.0
  0
VERTEX
  5
660
  8
0
 10
23.4190774607789116
 20
192.0977914773638133
 30
0.0
  0
VERTEX
  5
661
  8
0
 10
23.5787106913921107
 20
192.0056271886975878
 30
0.0
  0
VERTEX
  5
662
  8
0
 10
23.7379835666858412
 20
191.913670951272195
 30
0.0
  0
VERTEX
  5
663
  8
0
 10
23.8968716494641491
 20
191.8219368739090953
 30
0.0
  0
VERTEX
  5
664
  8
0
 10
24.0553506624797286
 20
191.7304389730836078
 30
0.0
  0
VERTEX
  5
665
  8
0
 10
24.2134237584374716
 20
191.6391754285808133
 30
0.0
  0
VERTEX
  5
666
  8
0
 10
24.3711523781928499
 20
191.5481107675061025
 30
0.0
  0
VERTEX
  5
667
  8
0
 10
24.5286054169862986
 20
191.4572052131740065
 30
0.0
  0
VERTEX
  5
668
  8
0
 10
24.6858517700582993
 20
191.3664189888988005
 30
0.0
  0
VERTEX
  5
669
  8
0
 10
24.8429603326493691
 20
191.2757123179949019
 30
0.0
  0
VERTEX
  5
66A
  8
0
 10
24.9999999999999503
 20
191.1850454237765859
 30
0.0
  0
SEQEND
  5
66B
  8
0
  0
POLYLINE
  5
5B0
  8
0
 66
     1
 10
0.0
 20
0.0
 30
0.0
  0
VERTEX
  5
66C
  8
0
 10
33.4999999999999432
 20
196.0925227118883925
 30
0.0
  0
VERTEX
  5
66D
  8
0
 10
33.3428772496432089
 20
196.0018078496740941
 30
0.0
  0
VERTEX
  5
66E
  8
0
 10
33.1856935960420927
 20
195.911057824955293
 30
0.0
  0
VERTEX
  5
66F
  8
0
 10
33.0283881359522695
 20
195.8202374752274864
 30
0.0
  0
VERTEX
  5
670
  8
0
 10
32.8708999661293717
 20
195.729311637986001
 30
0.0
  0
VERTEX
  5
671
  8
0
 10
32.7131681833290102
 20
195.6382451507263909
 30
0.0
  0
VERTEX
  5
672
  8
0
 10
32.55513188430686
 20
195.5470028509442955
 30
0.0
  0
VERTEX
  5
673
  8
0
 10
32.3967301658185605
 20
195.455549576135013
 30
0.0
  0
VERTEX
  5
674
  8
0
 10
32.2379157327232022
 20
195.3638580204361972
 30
0.0
  0
VERTEX
  5
675
  8
0
 10
32.0786977478117876
 20
195.2719334739877013
 30
0.0
  0
VERTEX
  5
676
  8
0
 10
31.9191000134393583
 20
195.179789679085701
 30
0.0
  0
VERTEX
  5
677
  8
0
 10
31.7591463319865284
 20
195.0874403780410944
 30
0.0
  0
VERTEX
  5
678
  8
0
 10
31.5988605058338692
 20
194.9948993131646091
 30
0.0
  0
VERTEX
  5
679
  8
0
 10
31.4382663373619415
 20
194.9021802267670012
 30
0.0
  0
VERTEX
  5
67A
  8
0
 10
31.2773876289513204
 20
194.8092968611593108
 30
0.0
  0
VERTEX
  5
67B
  8
0
 10
31.1162469596625897
 20
194.7162622523680113
 30
0.0
  0
VERTEX
  5
67C
  8
0
 10
30.9548616754751684
 20
194.623086415099209
 30
0.0
  0
VERTEX
  5
67D
  8
0
 10
30.7932477233307189
 20
194.5297785563238051
 30
0.0
  0
VERTEX
  5
67E
  8
0
 10
30.6314210501562911
 20
194.4363478830044869
 30
0.0
  0
VERTEX
  5
67F
  8
0
 10
30.4693976028788711
 20
194.3428036021037997
 30
0.0
  0
VERTEX
  5
680
  8
0
 10
30.3071933284254911
 20
194.2491549205844024
 30
0.0
  0
VERTEX
  5
681
  8
0
 10
30.1448241737231193
 20
194.1554110454088971
 30
0.0
  0
VERTEX
  5
682
  8
0
 10
29.9823071562395889
 20
194.0615818016169101
 30
0.0
  0
VERTEX
  5
683
  8
0
 10
29.8196669412864708
 20
193.9676814297326928
 30
0.0
  0
VERTEX
  5
684
  8
0
 10
29.6569315212707885
 20
193.8737260911800036
 30
0.0
  0
VERTEX
  5
685
  8
0
 10
29.4941289022524415
 20
193.7797319552649071
 30
0.0
  0
VERTEX
  5
686
  8
0
 10
29.3312870902913403
 20
193.6857151912938946
 30
0.0
  0
VERTEX
  5
687
  8
0
 10
29.1684340914473808
 20
193.5916919685730022
 30
0.0
  0
VERTEX
  5
688
  8
0
 10
29.005597911780491
 20
193.4976784564084937
 30
0.0
  0
VERTEX
  5
689
  8
0
 10
28.8428063904303293
 20
193.40369072773521
 30
0.0
  0
VERTEX
  5
68A
  8
0
 10
28.6800852643195014
 20
193.3097436417722861
 30
0.0
  0
VERTEX
  5
68B
  8
0
 10
28.5174588331130394
 20
193.2158512279378897
 30
0.0
  0
VERTEX
  5
68C
  8
0
 10
28.3549513686053309
 20
193.1220274995590103
 30
0.0
  0
VERTEX
  5
68D
  8
0
 10
28.1925871425907317
 20
193.0282864699626941
 30
0.0
  0
VERTEX
  5
68E
  8
0
 10
28.0303904268636792
 20
192.9346421524761013
 30
0.0
  0
VERTEX
  5
68F
  8
0
 10
27.8683851725066383
 20
192.8411083752627917
 30
0.0
  0
VERTEX
  5
690
  8
0
 10
27.7065891686767216
 20
192.7476954088978118
 30
0.0
  0
VERTEX
  5
691
  8
0
 10
27.5450146501566806
 20
192.6544103171360973
 30
0.0
  0
VERTEX
  5
692
  8
0
 10
27.3836736529381106
 20
192.5612600489606052
 30
0.0
  0
VERTEX
  5
693
  8
0
 10
27.2225782130126106
 20
192.4682515533544915
 30
0.0
  0
VERTEX
  5
694
  8
0
 10
27.0617403663717688
 20
192.375391779300486
 30
0.0
  0
VERTEX
  5
695
  8
0
 10
26.9011723176219917
 20
192.2826877731314994
 30
0.0
  0
VERTEX
  5
696
  8
0
 10
26.7408916879577099
 20
192.1901497084490131
 30
0.0
  0
VERTEX
  5
697
  8
0
 10
26.5809225392209783
 20
192.0977914773638133
 30
0.0
  0
VERTEX
  5
698
  8
0
 10
26.4212893086077791
 20
192.0056271886977015
 30
0.0
  0
VERTEX
  5
699
  8
0
 10
26.2620164333140487
 20
191.913670951272195
 30
0.0
  0
VERTEX
  5
69A
  8
0
 10
26.1031283505357408
 20
191.821936873909209
 30
0.0
  0
VERTEX
  5
69B
  8
0
 10
25.9446493375201612
 20
191.7304389730836931
 30
0.0
  0
VERTEX
  5
69C
  8
0
 10
25.7865762415624182
 20
191.6391754285808133
 30
0.0
  0
VERTEX
  5
69D
  8
0
 10
25.62884762180704
 20
191.5481107675061878
 30
0.0
  0
VERTEX
  5
69E
  8
0
 10
25.4713945830135913
 20
191.4572052131740918
 30
0.0
  0
VERTEX
  5
69F
  8
0
 10
25.3141482299415692
 20
191.3664189888988005
 30
0.0
  0
VERTEX
  5
6A0
  8
0
 10
25.1570396673505208
 20
191.2757123179949019
 30
0.0
  0
VERTEX
  5
6A1
  8
0
 10
24.9999999999999503
 20
191.1850454237765859
 30
0.0
  0
SEQEND
  5
6A2
  8
0
  0
POLYLINE
  5
5B1
  8
0
 66
     1
 10
0.0
 20
0.0
 30
0.0
  0
VERTEX
  5
6A3
  8
0
 10
33.4999999999999432
 20
196.0925227118883925
 30
0.0
  0
VERTEX
  5
6A4
  8
0
 10
33.4999999999999432
 20
196.2970256942458889
 30
0.0
  0
VERTEX
  5
6A5
  8
0
 10
33.4999999999999432
 20
196.5016384518474979
 30
0.0
  0
VERTEX
  5
6A6
  8
0
 10
33.4999999999999432
 20
196.7064707599371047
 30
0.0
  0
VERTEX
  5
6A7
  8
0
 10
33.4999999999999432
 20
196.9116323937589073
 30
0.0
  0
VERTEX
  5
6A8
  8
0
 10
33.4999999999999432
 20
197.1172331285569896
 30
0.0
  0
VERTEX
  5
6A9
  8
0
 10
33.4999999999999432
 20
197.3233823704867973
 30
0.0
  0
VERTEX
  5
6AA
  8
0
 10
33.4999999999999432
 20
197.5301424018902878
 30
0.0
  0
VERTEX
  5
6AB
  8
0
 10
33.4999999999999432
 20
197.737482627450305
 30
0.0
  0
VERTEX
  5
6AC
  8
0
 10
33.4999999999999432
 20
197.9453615890560059
 30
0.0
  0
VERTEX
  5
6AD
  8
0
 10
33.4999999999999432
 20
198.1537378285964905
 30
0.0
  0
VERTEX
  5
6AE
  8
0
 10
33.4999999999999432
 20
198.3625698879608024
 30
0.0
  0
VERTEX
  5
6AF
  8
0
 10
33.4999999999999432
 20
198.5718164802476906
 30
0.0
  0
VERTEX
  5
6B0
  8
0
 10
33.4999999999999432
 20
198.7814448489831136
 30
0.0
  0
VERTEX
  5
6B1
  8
0
 10
33.4999999999999432
 20
198.9914345449629991
 30
0.0
  0
VERTEX
  5
6B2
  8
0
 10
33.4999999999999432
 20
199.2017660775223078
 30
0.0
  0
VERTEX
  5
6B3
  8
0
 10
33.4999999999999432
 20
199.4124199559958868
 30
0.0
  0
VERTEX
  5
6B4
  8
0
 10
33.4999999999999432
 20
199.6233766897184125
 30
0.0
  0
VERTEX
  5
6B5
  8
0
 10
33.4999999999999432
 20
199.8346162632309984
 30
0.0
  0
VERTEX
  5
6B6
  8
0
 10
33.4999999999999432
 20
200.0461052060246914
 30
0.0
  0
VERTEX
  5
6B7
  8
0
 10
33.4999999999999432
 20
200.2577957750459063
 30
0.0
  0
VERTEX
  5
6B8
  8
0
 10
33.4999999999999432
 20
200.4696395387705081
 30
0.0
  0
VERTEX
  5
6B9
  8
0
 10
33.4999999999999432
 20
200.6815880656741911
 30
0.0
  0
VERTEX
  5
6BA
  8
0
 10
33.4999999999999432
 20
200.8935929242327916
 30
0.0
  0
VERTEX
  5
6BB
  8
0
 10
33.4999999999999432
 20
201.1056059335878956
 30
0.0
  0
VERTEX
  5
6BC
  8
0
 10
33.4999999999999432
 20
201.3175863350267036
 30
0.0
  0
VERTEX
  5
6BD
  8
0
 10
33.4999999999999432
 20
201.5295018489815106
 30
0.0
  0
VERTEX
  5
6BE
  8
0
 10
33.4999999999999432
 20
201.7413206591265009
 30
0.0
  0
VERTEX
  5
6BF
  8
0
 10
33.4999999999999432
 20
201.9530109491352903
 30
0.0
  0
VERTEX
  5
6C0
  8
0
 10
33.4999999999999432
 20
202.1645409026818925
 30
0.0
  0
VERTEX
  5
6C1
  8
0
 10
33.4999999999999432
 20
202.37587850221351
 30
0.0
  0
VERTEX
  5
6C2
  8
0
 10
33.4999999999999432
 20
202.5869847815808953
 30
0.0
  0
VERTEX
  5
6C3
  8
0
 10
33.4999999999999432
 20
202.7978122235975889
 30
0.0
  0
VERTEX
  5
6C4
  8
0
 10
33.4999999999999432
 20
203.0083127850300002
 30
0.0
  0
VERTEX
  5
6C5
  8
0
 10
33.4999999999999432
 20
203.2184384226445957
 30
0.0
  0
VERTEX
  5
6C6
  8
0
 10
33.4999999999999432
 20
203.4281410932075005
 30
0.0
  0
VERTEX
  5
6C7
  8
0
 10
33.4999999999999432
 20
203.6373727534850957
 30
0.0
  0
VERTEX
  5
6C8
  8
0
 10
33.4999999999999432
 20
203.8460853602437055
 30
0.0
  0
VERTEX
  5
6C9
  8
0
 10
33.4999999999999432
 20
204.0542308702497962
 30
0.0
  0
VERTEX
  5
6CA
  8
0
 10
33.4999999999999432
 20
204.2617698347006865
 30
0.0
  0
VERTEX
  5
6CB
  8
0
 10
33.4999999999999432
 20
204.468736283330486
 30
0.0
  0
VERTEX
  5
6CC
  8
0
 10
33.4999999999999432
 20
204.6752015251788919
 30
0.0
  0
VERTEX
  5
6CD
  8
0
 10
33.4999999999999432
 20
204.8812371612148127
 30
0.0
  0
VERTEX
  5
6CE
  8
0
 10
33.4999999999999432
 20
205.0869147924067875
 30
0.0
  0
VERTEX
  5
6CF
  8
0
 10
33.4999999999999432
 20
205.2923060197238101
 30
0.0
  0
VERTEX
  5
6D0
  8
0
 10
33.4999999999999432
 20
205.4974824441345049
 30
0.0
  0
VERTEX
  5
6D1
  8
0
 10
33.4999999999999432
 20
205.70251566660761
 30
0.0
  0
VERTEX
  5
6D2
  8
0
 10
33.4999999999999432
 20
205.9074772881120055
 30
0.0
  0
SEQEND
  5
6D3
  8
0
  0
POLYLINE
  5
5B2
  8
0
 66
     1
 10
0.0
 20
0.0
 30
0.0
  0
VERTEX
  5
6D4
  8
0
 10
33.4999999999999432
 20
205.9074772881120055
 30
0.0
  0
VERTEX
  5
6D5
  8
0
 10
33.3428772496432089
 20
205.9981921503263038
 30
0.0
  0
VERTEX
  5
6D6
  8
0
 10
33.1856935960421069
 20
206.0889421750451049
 30
0.0
  0
VERTEX
  5
6D7
  8
0
 10
33.0283881359522695
 20
206.1797625247729968
 30
0.0
  0
VERTEX
  5
6D8
  8
0
 10
32.8708999661293717
 20
206.2706883620143969
 30
0.0
  0
VERTEX
  5
6D9
  8
0
 10
32.7131681833290315
 20
206.361754849274007
 30
0.0
  0
VERTEX
  5
6DA
  8
0
 10
32.55513188430686
 20
206.4529971490561024
 30
0.0
  0
VERTEX
  5
6DB
  8
0
 10
32.3967301658185605
 20
206.5444504238654986
 30
0.0
  0
VERTEX
  5
6DC
  8
0
 10
32.2379157327232235
 20
206.636141979564286
 30
0.0
  0
VERTEX
  5
6DD
  8
0
 10
32.0786977478118231
 20
206.7280665260126966
 30
0.0
  0
VERTEX
  5
6DE
  8
0
 10
31.9191000134393903
 20
206.8202103209146969
 30
0.0
  0
VERTEX
  5
6DF
  8
0
 10
31.7591463319865603
 20
206.9125596219593035
 30
0.0
  0
VERTEX
  5
6E0
  8
0
 10
31.5988605058339012
 20
207.0051006868359025
 30
0.0
  0
VERTEX
  5
6E1
  8
0
 10
31.43826633736197
 20
207.0978197732333967
 30
0.0
  0
VERTEX
  5
6E2
  8
0
 10
31.2773876289513417
 20
207.1907031388410871
 30
0.0
  0
VERTEX
  5
6E3
  8
0
 10
31.1162469596626217
 20
207.2837377476323866
 30
0.0
  0
VERTEX
  5
6E4
  8
0
 10
30.9548616754752004
 20
207.3769135849013026
 30
0.0
  0
VERTEX
  5
6E5
  8
0
 10
30.7932477233307509
 20
207.4702214436765928
 30
0.0
  0
VERTEX
  5
6E6
  8
0
 10
30.6314210501563196
 20
207.5636521169959963
 30
0.0
  0
VERTEX
  5
6E7
  8
0
 10
30.4693976028788995
 20
207.6571963978965982
 30
0.0
  0
VERTEX
  5
6E8
  8
0
 10
30.3071933284255088
 20
207.7508450794159955
 30
0.0
  0
VERTEX
  5
6E9
  8
0
 10
30.1448241737231513
 20
207.8445889545915009
 30
0.0
  0
VERTEX
  5
6EA
  8
0
 10
29.9823071562395889
 20
207.9384181983836015
 30
0.0
  0
VERTEX
  5
6EB
  8
0
 10
29.8196669412864708
 20
208.0323185702677904
 30
0.0
  0
VERTEX
  5
6EC
  8
0
 10
29.6569315212707885
 20
208.126273908820508
 30
0.0
  0
VERTEX
  5
6ED
  8
0
 10
29.4941289022524415
 20
208.2202680447354908
 30
0.0
  0
VERTEX
  5
6EE
  8
0
 10
29.3312870902913403
 20
208.3142848087065886
 30
0.0
  0
VERTEX
  5
6EF
  8
0
 10
29.1684340914473808
 20
208.4083080314275094
 30
0.0
  0
VERTEX
  5
6F0
  8
0
 10
29.005597911780491
 20
208.5023215435919894
 30
0.0
  0
VERTEX
  5
6F1
  8
0
 10
28.8428063904303293
 20
208.5963092722653016
 30
0.0
  0
VERTEX
  5
6F2
  8
0
 10
28.6800852643195014
 20
208.6902563582281118
 30
0.0
  0
VERTEX
  5
6F3
  8
0
 10
28.5174588331130394
 20
208.7841487720625935
 30
0.0
  0
VERTEX
  5
6F4
  8
0
 10
28.3549513686053309
 20
208.8779725004413876
 30
0.0
  0
VERTEX
  5
6F5
  8
0
 10
28.1925871425907317
 20
208.9717135300377038
 30
0.0
  0
VERTEX
  5
6F6
  8
0
 10
28.0303904268636792
 20
209.0653578475244103
 30
0.0
  0
VERTEX
  5
6F7
  8
0
 10
27.8683851725066383
 20
209.1588916247376062
 30
0.0
  0
VERTEX
  5
6F8
  8
0
 10
27.7065891686767216
 20
209.2523045911025861
 30
0.0
  0
VERTEX
  5
6F9
  8
0
 10
27.5450146501566806
 20
209.3455896828643006
 30
0.0
  0
VERTEX
  5
6FA
  8
0
 10
27.3836736529381106
 20
209.4387399510397927
 30
0.0
  0
VERTEX
  5
6FB
  8
0
 10
27.2225782130126106
 20
209.5317484466459916
 30
0.0
  0
VERTEX
  5
6FC
  8
0
 10
27.0617403663717688
 20
209.6246082206999972
 30
0.0
  0
VERTEX
  5
6FD
  8
0
 10
26.9011723176219917
 20
209.7173122268688985
 30
0.0
  0
VERTEX
  5
6FE
  8
0
 10
26.7408916879577099
 20
209.8098502915514985
 30
0.0
  0
VERTEX
  5
6FF
  8
0
 10
26.5809225392209783
 20
209.9022085226366983
 30
0.0
  0
VERTEX
  5
700
  8
0
 10
26.4212893086077791
 20
209.9943728113028101
 30
0.0
  0
VERTEX
  5
701
  8
0
 10
26.2620164333140487
 20
210.0863290487282882
 30
0.0
  0
VERTEX
  5
702
  8
0
 10
26.1031283505357408
 20
210.1780631260913026
 30
0.0
  0
VERTEX
  5
703
  8
0
 10
25.9446493375201612
 20
210.2695610269167901
 30
0.0
  0
VERTEX
  5
704
  8
0
 10
25.7865762415624182
 20
210.360824571419613
 30
0.0
  0
VERTEX
  5
705
  8
0
 10
25.62884762180704
 20
210.4518892324942954
 30
0.0
  0
VERTEX
  5
706
  8
0
 10
25.4713945830135913
 20
210.5427947868263914
 30
0.0
  0
VERTEX
  5
707
  8
0
 10
25.3141482299416012
 20
210.6335810111015974
 30
0.0
  0
VERTEX
  5
708
  8
0
 10
25.1570396673505208
 20
210.724287682005496
 30
0.0
  0
VERTEX
  5
709
  8
0
 10
24.9999999999999503
 20
210.8149545762238972
 30
0.0
  0
SEQEND
  5
70A
  8
0
  0
POLYLINE
  5
5B3
  8
0
 66
     1
 10
0.0
 20
0.0
 30
0.0
  0
VERTEX
  5
70B
  8
0
 10
16.4999999999999112
 20
205.9074772881120055
 30
0.0
  0
VERTEX
  5
70C
  8
0
 10
16.657122750356649
 20
205.9981921503263038
 30
0.0
  0
VERTEX
  5
70D
  8
0
 10
16.8143064039577688
 20
206.0889421750451049
 30
0.0
  0
VERTEX
  5
70E
  8
0
 10
16.9716118640475884
 20
206.1797625247729968
 30
0.0
  0
VERTEX
  5
70F
  8
0
 10
17.1291000338705111
 20
206.2706883620143969
 30
0.0
  0
VERTEX
  5
710
  8
0
 10
17.2868318166708512
 20
206.361754849274007
 30
0.0
  0
VERTEX
  5
711
  8
0
 10
17.4448681156930014
 20
206.4529971490561024
 30
0.0
  0
VERTEX
  5
712
  8
0
 10
17.6032698341813294
 20
206.5444504238654986
 30
0.0
  0
VERTEX
  5
713
  8
0
 10
17.7620842672766592
 20
206.636141979564286
 30
0.0
  0
VERTEX
  5
714
  8
0
 10
17.9213022521880703
 20
206.7280665260126966
 30
0.0
  0
VERTEX
  5
715
  8
0
 10
18.0808999865604889
 20
206.8202103209146969
 30
0.0
  0
VERTEX
  5
716
  8
0
 10
18.2408536680133295
 20
206.9125596219593035
 30
0.0
  0
VERTEX
  5
717
  8
0
 10
18.4011394941659887
 20
207.0051006868359025
 30
0.0
  0
VERTEX
  5
718
  8
0
 10
18.5617336626379199
 20
207.0978197732333967
 30
0.0
  0
VERTEX
  5
719
  8
0
 10
18.722612371048541
 20
207.1907031388410871
 30
0.0
  0
VERTEX
  5
71A
  8
0
 10
18.8837530403372718
 20
207.2837377476323866
 30
0.0
  0
VERTEX
  5
71B
  8
0
 10
19.0451383245246788
 20
207.3769135849013026
 30
0.0
  0
VERTEX
  5
71C
  8
0
 10
19.2067522766691283
 20
207.4702214436765928
 30
0.0
  0
VERTEX
  5
71D
  8
0
 10
19.3685789498435597
 20
207.5636521169959963
 30
0.0
  0
VERTEX
  5
71E
  8
0
 10
19.5306023971209903
 20
207.6571963978965982
 30
0.0
  0
VERTEX
  5
71F
  8
0
 10
19.6928066715743704
 20
207.7508450794159955
 30
0.0
  0
VERTEX
  5
720
  8
0
 10
19.8551758262767315
 20
207.8445889545915009
 30
0.0
  0
VERTEX
  5
721
  8
0
 10
20.017692843760301
 20
207.9384181983836015
 30
0.0
  0
VERTEX
  5
722
  8
0
 10
20.1803330587134084
 20
208.0323185702677904
 30
0.0
  0
VERTEX
  5
723
  8
0
 10
20.3430684787291014
 20
208.126273908820508
 30
0.0
  0
VERTEX
  5
724
  8
0
 10
20.5058710977474483
 20
208.2202680447354908
 30
0.0
  0
VERTEX
  5
725
  8
0
 10
20.6687129097085496
 20
208.3142848087065886
 30
0.0
  0
VERTEX
  5
726
  8
0
 10
20.8315659085525091
 20
208.4083080314275094
 30
0.0
  0
VERTEX
  5
727
  8
0
 10
20.9944020882193989
 20
208.5023215435919894
 30
0.0
  0
VERTEX
  5
728
  8
0
 10
21.1571936095695285
 20
208.5963092722653016
 30
0.0
  0
VERTEX
  5
729
  8
0
 10
21.3199147356803316
 20
208.6902563582281118
 30
0.0
  0
VERTEX
  5
72A
  8
0
 10
21.4825411668867901
 20
208.7841487720625935
 30
0.0
  0
VERTEX
  5
72B
  8
0
 10
21.6450486313945305
 20
208.8779725004413876
 30
0.0
  0
VERTEX
  5
72C
  8
0
 10
21.8074128574091084
 20
208.9717135300377038
 30
0.0
  0
VERTEX
  5
72D
  8
0
 10
21.9696095731361787
 20
209.0653578475244103
 30
0.0
  0
VERTEX
  5
72E
  8
0
 10
22.1316148274932196
 20
209.1588916247376062
 30
0.0
  0
VERTEX
  5
72F
  8
0
 10
22.2934108313231505
 20
209.2523045911025861
 30
0.0
  0
VERTEX
  5
730
  8
0
 10
22.4549853498431915
 20
209.3455896828643006
 30
0.0
  0
VERTEX
  5
731
  8
0
 10
22.6163263470617402
 20
209.4387399510397927
 30
0.0
  0
VERTEX
  5
732
  8
0
 10
22.7774217869872508
 20
209.5317484466459916
 30
0.0
  0
VERTEX
  5
733
  8
0
 10
22.938259633628121
 20
209.6246082206999972
 30
0.0
  0
VERTEX
  5
734
  8
0
 10
23.0988276823779017
 20
209.7173122268688985
 30
0.0
  0
VERTEX
  5
735
  8
0
 10
23.2591083120421693
 20
209.8098502915514985
 30
0.0
  0
VERTEX
  5
736
  8
0
 10
23.4190774607789116
 20
209.9022085226366983
 30
0.0
  0
VERTEX
  5
737
  8
0
 10
23.5787106913921107
 20
209.9943728113028101
 30
0.0
  0
VERTEX
  5
738
  8
0
 10
23.7379835666858412
 20
210.0863290487282882
 30
0.0
  0
VERTEX
  5
739
  8
0
 10
23.8968716494641491
 20
210.1780631260913026
 30
0.0
  0
VERTEX
  5
73A
  8
0
 10
24.0553506624797286
 20
210.2695610269167901
 30
0.0
  0
VERTEX
  5
73B
  8
0
 10
24.2134237584374716
 20
210.360824571419613
 30
0.0
  0
VERTEX
  5
73C
  8
0
 10
24.3711523781928499
 20
210.4518892324942954
 30
0.0
  0
VERTEX
  5
73D
  8
0
 10
24.5286054169862986
 20
210.5427947868263914
 30
0.0
  0
VERTEX
  5
73E
  8
0
 10
24.6858517700583207
 20
210.6335810111015974
 30
0.0
  0
VERTEX
  5
73F
  8
0
 10
24.8429603326493691
 20
210.724287682005496
 30
0.0
  0
VERTEX
  5
740
  8
0
 10
24.9999999999999503
 20
210.8149545762238972
 30
0.0
  0
SEQEND
  5
741
  8
0
  0
POLYLINE
  5
5B4
  8
0
 66
     1
 10
0.0
 20
0.0
 30
0.0
  0
VERTEX
  5
742
  8
0
 10
16.4999999999999112
 20
196.0925227118883925
 30
0.0
  0
VERTEX
  5
743
  8
0
 10
16.4999999999999112
 20
196.2970256942458889
 30
0.0
  0
VERTEX
  5
744
  8
0
 10
16.4999999999999112
 20
196.5016384518474979
 30
0.0
  0
VERTEX
  5
745
  8
0
 10
16.4999999999999112
 20
196.7064707599371047
 30
0.0
  0
VERTEX
  5
746
  8
0
 10
16.4999999999999112
 20
196.9116323937589073
 30
0.0
  0
VERTEX
  5
747
  8
0
 10
16.4999999999999112
 20
197.1172331285569896
 30
0.0
  0
VERTEX
  5
748
  8
0
 10
16.4999999999999112
 20
197.3233823704867973
 30
0.0
  0
VERTEX
  5
749
  8
0
 10
16.4999999999999112
 20
197.5301424018902878
 30
0.0
  0
VERTEX
  5
74A
  8
0
 10
16.4999999999999112
 20
197.737482627450305
 30
0.0
  0
VERTEX
  5
74B
  8
0
 10
16.4999999999999112
 20
197.9453615890560059
 30
0.0
  0
VERTEX
  5
74C
  8
0
 10
16.4999999999999112
 20
198.1537378285964905
 30
0.0
  0
VERTEX
  5
74D
  8
0
 10
16.4999999999999112
 20
198.3625698879608024
 30
0.0
  0
VERTEX
  5
74E
  8
0
 10
16.4999999999999396
 20
198.5718164802476906
 30
0.0
  0
VERTEX
  5
74F
  8
0
 10
16.4999999999999396
 20
198.7814448489831136
 30
0.0
  0
VERTEX
  5
750
  8
0
 10
16.4999999999999396
 20
198.9914345449629991
 30
0.0
  0
VERTEX
  5
751
  8
0
 10
16.4999999999999396
 20
199.2017660775223078
 30
0.0
  0
VERTEX
  5
752
  8
0
 10
16.4999999999999396
 20
199.4124199559958868
 30
0.0
  0
VERTEX
  5
753
  8
0
 10
16.4999999999999396
 20
199.6233766897184125
 30
0.0
  0
VERTEX
  5
754
  8
0
 10
16.4999999999999112
 20
199.8346162632309984
 30
0.0
  0
VERTEX
  5
755
  8
0
 10
16.4999999999999112
 20
200.0461052060246914
 30
0.0
  0
VERTEX
  5
756
  8
0
 10
16.4999999999999112
 20
200.2577957750459063
 30
0.0
  0
VERTEX
  5
757
  8
0
 10
16.4999999999999112
 20
200.4696395387705081
 30
0.0
  0
VERTEX
  5
758
  8
0
 10
16.4999999999999112
 20
200.6815880656741911
 30
0.0
  0
VERTEX
  5
759
  8
0
 10
16.4999999999999112
 20
200.8935929242327916
 30
0.0
  0
VERTEX
  5
75A
  8
0
 10
16.4999999999999112
 20
201.1056059335878956
 30
0.0
  0
VERTEX
  5
75B
  8
0
 10
16.4999999999999112
 20
201.3175863350267036
 30
0.0
  0
VERTEX
  5
75C
  8
0
 10
16.4999999999999112
 20
201.5295018489815106
 30
0.0
  0
VERTEX
  5
75D
  8
0
 10
16.4999999999999112
 20
201.7413206591265009
 30
0.0
  0
VERTEX
  5
75E
  8
0
 10
16.4999999999999112
 20
201.9530109491352903
 30
0.0
  0
VERTEX
  5
75F
  8
0
 10
16.4999999999999112
 20
202.1645409026818925
 30
0.0
  0
VERTEX
  5
760
  8
0
 10
16.4999999999999112
 20
202.37587850221351
 30
0.0
  0
VERTEX
  5
761
  8
0
 10
16.4999999999999112
 20
202.5869847815808953
 30
0.0
  0
VERTEX
  5
762
  8
0
 10
16.4999999999999112
 20
202.7978122235975889
 30
0.0
  0
VERTEX
  5
763
  8
0
 10
16.4999999999999112
 20
203.0083127850300002
 30
0.0
  0
VERTEX
  5
764
  8
0
 10
16.4999999999999112
 20
203.2184384226445957
 30
0.0
  0
VERTEX
  5
765
  8
0
 10
16.4999999999999112
 20
203.4281410932075005
 30
0.0
  0
VERTEX
  5
766
  8
0
 10
16.4999999999999112
 20
203.6373727534850957
 30
0.0
  0
VERTEX
  5
767
  8
0
 10
16.4999999999999112
 20
203.8460853602437055
 30
0.0
  0
VERTEX
  5
768
  8
0
 10
16.4999999999999112
 20
204.0542308702497962
 30
0.0
  0
VERTEX
  5
769
  8
0
 10
16.4999999999999396
 20
204.2617698347006865
 30
0.0
  0
VERTEX
  5
76A
  8
0
 10
16.4999999999999396
 20
204.468736283330486
 30
0.0
  0
VERTEX
  5
76B
  8
0
 10
16.4999999999999396
 20
204.6752015251788919
 30
0.0
  0
VERTEX
  5
76C
  8
0
 10
16.4999999999999396
 20
204.8812371612148127
 30
0.0
  0
VERTEX
  5
76D
  8
0
 10
16.4999999999999396
 20
205.0869147924067875
 30
0.0
  0
VERTEX
  5
76E
  8
0
 10
16.4999999999999396
 20
205.2923060197238101
 30
0.0
  0
VERTEX
  5
76F
  8
0
 10
16.4999999999999396
 20
205.4974824441345049
 30
0.0
  0
VERTEX
  5
770
  8
0
 10
16.4999999999999112
 20
205.70251566660761
 30
0.0
  0
VERTEX
  5
771
  8
0
 10
16.4999999999999112
 20
205.9074772881120055
 30
0.0
  0
SEQEND
  5
772
  8
0
  0
ENDSEC
  0
EOF
