  0
SECTION
  2
HEADER
  9
$ACADVER
  1
AC1009
  9
$INSBASE
 10
0.0
 20
0.0
 30
0.0
  9
$EXTMIN
 10
-3.9999999999999711
 20
-2.960436562073669
 30
0.0
  9
$EXTMAX
 10
125.0000000000004974
 20
204.999999999999801
 30
0.0
  9
$LIMMIN
 10
0.0
 20
0.0
  9
$LIMMAX
 10
375.0
 20
270.0
  9
$ORTHOMODE
 70
     1
  9
$REGENMODE
 70
     1
  9
$FILLMODE
 70
     1
  9
$QTEXTMODE
 70
     0
  9
$MIRRTEXT
 70
     0
  9
$DRAGMODE
 70
     2
  9
$LTSCALE
 40
6.0
  9
$OSMODE
 70
    37
  9
$ATTMODE
 70
     1
  9
$TEXTSIZE
 40
0.2
  9
$TRACEWID
 40
0.05
  9
$TEXTSTYLE
  7
STANDARD
  9
$CLAYER
  8
0
  9
$CELTYPE
  6
BYLAYER
  9
$CECOLOR
 62
   256
  9
$DIMSCALE
 40
1.0
  9
$DIMASZ
 40
3.0
  9
$DIMEXO
 40
1.0
  9
$DIMDLI
 40
6.0
  9
$DIMRND
 40
0.0
  9
$DIMDLE
 40
0.0
  9
$DIMEXE
 40
1.0
  9
$DIMTP
 40
495.0
  9
$DIMTM
 40
0.0
  9
$DIMTXT
 40
3.0
  9
$DIMCEN
 40
0.0
  9
$DIMTSZ
 40
0.0
  9
$DIMTOL
 70
     0
  9
$DIMLIM
 70
     0
  9
$DIMTIH
 70
     0
  9
$DIMTOH
 70
     0
  9
$DIMSE1
 70
     0
  9
$DIMSE2
 70
     0
  9
$DIMTAD
 70
     1
  9
$DIMZIN
 70
     0
  9
$DIMBLK
  1

  9
$DIMASO
 70
     0
  9
$DIMSHO
 70
     0
  9
$DIMPOST
  1

  9
$DIMAPOST
  1

  9
$DIMALT
 70
     0
  9
$DIMALTD
 70
     2
  9
$DIMALTF
 40
25.3999999999999986
  9
$DIMLFAC
 40
1.0
  9
$DIMTOFL
 70
     1
  9
$DIMTVP
 40
0.0
  9
$DIMTIX
 70
     1
  9
$DIMSOXD
 70
     0
  9
$DIMSAH
 70
     0
  9
$DIMBLK1
  1

  9
$DIMBLK2
  1

  9
$DIMSTYLE
  2
STANDARD
  9
$DIMCLRD
 70
     0
  9
$DIMCLRE
 70
     0
  9
$DIMCLRT
 70
     4
  9
$DIMTFAC
 40
1.0
  9
$DIMGAP
 40
1.0
  9
$LUNITS
 70
     2
  9
$LUPREC
 70
     4
  9
$SKETCHINC
 40
0.1
  9
$FILLETRAD
 40
0.0
  9
$AUNITS
 70
     0
  9
$AUPREC
 70
     0
  9
$MENU
  1
C:\R13\WIN\SUPPORT\ACAD-I
  9
$ELEVATION
 40
0.0
  9
$PELEVATION
 40
0.0
  9
$THICKNESS
 40
0.0
  9
$LIMCHECK
 70
     0
  9
$BLIPMODE
 70
     0
  9
$CHAMFERA
 40
0.0
  9
$CHAMFERB
 40
0.0
  9
$SKPOLY
 70
     0
  9
$TDCREATE
 40
2451961.7115277778357267
  9
$TDUPDATE
 40
2460580.5717476848512888
  9
$TDINDWG
 40
0.2430933681
  9
$TDUSRTIMER
 40
2456598.2045692251995206
  9
$USRTIMER
 70
     1
  9
$ANGBASE
 50
0.0
  9
$ANGDIR
 70
     0
  9
$PDMODE
 70
     0
  9
$PDSIZE
 40
0.0
  9
$PLINEWID
 40
0.0
  9
$COORDS
 70
     1
  9
$SPLFRAME
 70
     0
  9
$SPLINETYPE
 70
     6
  9
$SPLINESEGS
 70
     8
  9
$ATTDIA
 70
     1
  9
$ATTREQ
 70
     1
  9
$HANDLING
 70
     1
  9
$HANDSEED
  5
990
  9
$SURFTAB1
 70
     6
  9
$SURFTAB2
 70
     6
  9
$SURFTYPE
 70
     6
  9
$SURFU
 70
     6
  9
$SURFV
 70
     6
  9
$UCSNAME
  2

  9
$UCSORG
 10
0.0
 20
0.0
 30
0.0
  9
$UCSXDIR
 10
1.0
 20
0.0
 30
0.0
  9
$UCSYDIR
 10
0.0
 20
1.0
 30
0.0
  9
$PUCSNAME
  2

  9
$PUCSORG
 10
0.0
 20
0.0
 30
0.0
  9
$PUCSXDIR
 10
1.0
 20
0.0
 30
0.0
  9
$PUCSYDIR
 10
0.0
 20
1.0
 30
0.0
  9
$USERI1
 70
     4
  9
$USERI2
 70
     1
  9
$USERI3
 70
     0
  9
$USERI4
 70
     0
  9
$USERI5
 70
     0
  9
$USERR1
 40
1.0
  9
$USERR2
 40
3.0
  9
$USERR3
 40
3.0
  9
$USERR4
 40
3.0
  9
$USERR5
 40
10.0
  9
$WORLDVIEW
 70
     1
  9
$SHADEDGE
 70
     3
  9
$SHADEDIF
 70
    70
  9
$TILEMODE
 70
     1
  9
$MAXACTVP
 70
    16
  9
$PLIMCHECK
 70
     0
  9
$PEXTMIN
 10
1.0000000000000000E+20
 20
1.0000000000000000E+20
 30
1.0000000000000000E+20
  9
$PEXTMAX
 10
-1.0000000000000000E+20
 20
-1.0000000000000000E+20
 30
-1.0000000000000000E+20
  9
$PLIMMIN
 10
0.0
 20
0.0
  9
$PLIMMAX
 10
12.0
 20
9.0
  9
$UNITMODE
 70
     0
  9
$VISRETAIN
 70
     0
  9
$PLINEGEN
 70
     0
  9
$PSLTSCALE
 70
     0
  0
ENDSEC
  0
SECTION
  2
TABLES
  0
TABLE
  2
VPORT
 70
     1
  0
VPORT
  2
*ACTIVE
 70
     0
 10
0.0
 20
0.0
 11
1.0
 21
1.0
 12
246.5948275862068897
 22
105.0
 13
0.0
 23
0.0
 14
10.0
 24
10.0
 15
10.0
 25
10.0
 16
0.0
 26
0.0
 36
1.0
 17
0.0
 27
0.0
 37
0.0
 40
210.0
 41
2.3485221674876842
 42
50.0
 43
0.0
 44
0.0
 50
0.0
 51
0.0
 71
    16
 72
   100
 73
     1
 74
     0
 75
     0
 76
     0
 77
     0
 78
     0
  0
ENDTAB
  0
TABLE
  2
LTYPE
 70
     3
  0
LTYPE
  2
CONTINUOUS
 70
     0
  3
Solid Line
 72
    65
 73
     0
 40
0.0
  0
LTYPE
  2
CENTER
 70
     0
  3
____ _ ____ _ ____ _ ____ _ ____ _ ____ _ ____
 72
    65
 73
     4
 40
2.0
 49
1.25
 49
-0.25
 49
0.25
 49
-0.25
  0
LTYPE
  2
HIDDEN
 70
     0
  3
Hidden __ __ __ __ __ __ __ __ __ __ __ __ __ __
 72
    65
 73
     2
 40
1.905
 49
1.27
 49
-0.635
  0
ENDTAB
  0
TABLE
  2
LAYER
 70
     4
  0
LAYER
  2
0
 70
     0
 62
     7
  6
CONTINUOUS
  0
LAYER
  2
1
 70
     0
 62
     1
  6
CENTER
  0
LAYER
  2
3
 70
     0
 62
     3
  6
CONTINUOUS
  0
LAYER
  2
2
 70
     0
 62
     2
  6
HIDDEN
  0
ENDTAB
  0
TABLE
  2
STYLE
 70
     2
  0
STYLE
  2
STANDARD
 70
     0
 40
0.0
 41
1.0
 50
0.0
 71
     0
 42
0.2
  3
SIMPLEX
  4
BIGFONT
  0
STYLE
  2
STANDARD1
 70
     0
 40
0.0
 41
1.0
 50
0.0
 71
     0
 42
3.0
  3
txt
  4

  0
ENDTAB
  0
TABLE
  2
VIEW
 70
     0
  0
ENDTAB
  0
TABLE
  2
UCS
 70
     0
  0
ENDTAB
  0
TABLE
  2
APPID
 70
     8
  0
APPID
  2
ACAD
 70
     0
  0
APPID
  2
ACAD_NAV_VCDISPLAY
 70
     0
  0
APPID
  2
ACAECLAYERSTANDARD
 70
     0
  0
APPID
  2
ACCMTRANSPARENCY
 70
     0
  0
APPID
  2
ACAD_EXEMPT_FROM_CAD_STANDARDS
 70
     0
  0
APPID
  2
ACAD_TC
 70
     0
  0
APPID
  2
ACAD_DSTYLE_DIMRADIAL_EXTENSION
 70
     0
  0
APPID
  2
ACAD_MLEADERVER
 70
     0
  0
ENDTAB
  0
TABLE
  2
DIMSTYLE
 70
     1
  0
DIMSTYLE
  2
STANDARD
 70
     0
  3

  4

  5

  6

  7

 40
1.0
 41
0.18
 42
0.0625
 43
0.38
 44
0.18
 45
0.0
 46
0.0
 47
0.0
 48
0.0
140
0.18
141
0.09
142
0.0
143
25.3999999999999986
144
1.0
145
0.0
146
1.0
147
0.09
 71
     0
 72
     0
 73
     1
 74
     1
 75
     0
 76
     0
 77
     0
 78
     0
170
     0
171
     2
172
     0
173
     0
174
     0
175
     0
176
     0
177
     0
178
     0
  0
ENDTAB
  0
ENDSEC
  0
SECTION
  2
BLOCKS
  0
BLOCK
  8
0
  2
$MODEL_SPACE
 70
     0
 10
0.0
 20
0.0
 30
0.0
  3
$MODEL_SPACE
  1

  0
ENDBLK
  5
F
  8
0
  0
BLOCK
 67
     1
  8
0
  2
$PAPER_SPACE
 70
     0
 10
0.0
 20
0.0
 30
0.0
  3
$PAPER_SPACE
  1

  0
ENDBLK
  5
14
 67
     1
  8
0
  0
ENDSEC
  0
SECTION
  2
ENTITIES
  0
TEXT
  5
59
  8
0
 62
     3
 10
0.0
 20
0.0
 30
0.0
 40
10.0
  1
LSVA50-M12X43
  7
STANDARD1
  0
LINE
  5
720
  8
0
 10
15.5
 20
68.2886751345949392
 30
0.0
 11
16.0
 21
68.0000000000000568
 31
0.0
  0
LINE
  5
721
  8
0
 10
34.0
 20
68.0000000000000568
 30
0.0
 11
34.5
 21
68.2886751345949392
 31
0.0
  0
LINE
  5
722
  8
0
 10
34.5
 20
77.7113248654051745
 30
0.0
 11
34.0
 21
78.0000000000000568
 31
0.0
  0
LINE
  5
723
  8
0
 10
16.0
 20
78.0000000000000568
 30
0.0
 11
15.5
 21
77.7113248654051745
 31
0.0
  0
LINE
  5
724
  8
0
 10
31.0000000000000284
 20
99.9265000000001038
 30
0.0
 11
29.9265000000000292
 21
101.0
 31
0.0
  0
LINE
  5
725
  8
0
 10
20.0735000000000205
 20
101.0
 30
0.0
 11
19.0000000000000284
 21
99.9265000000001038
 31
0.0
  0
LINE
  5
726
  8
0
 10
31.0000000000000284
 20
58.0000000000000568
 30
0.0
 11
31.0000000000000284
 21
68.0000000000000568
 31
0.0
  0
LINE
  5
727
  8
0
 10
31.0000000000000284
 20
78.0000000000000568
 30
0.0
 11
31.0000000000000284
 21
99.9265000000001038
 31
0.0
  0
LINE
  5
728
  8
0
 10
19.0000000000000284
 20
99.9265000000001038
 30
0.0
 11
19.0000000000000284
 21
78.0000000000000568
 31
0.0
  0
LINE
  5
729
  8
0
 10
19.0000000000000284
 20
68.0000000000000568
 30
0.0
 11
19.0000000000000284
 21
58.0000000000000568
 31
0.0
  0
LINE
  5
72A
  8
0
 10
30.5000000000000284
 20
50.0000000000000568
 30
0.0
 11
30.5000000000000284
 21
53.0000000000000568
 31
0.0
  0
LINE
  5
72B
  8
0
 10
19.5000000000000284
 20
53.0000000000000568
 30
0.0
 11
19.5000000000000284
 21
50.0000000000000568
 31
0.0
  0
LINE
  5
72C
  8
0
 10
0.0000000000000284
 20
37.3333333333333215
 30
0.0
 11
0.0000000000000284
 21
31.6000000000000796
 31
0.0
  0
LINE
  5
72D
  8
0
 10
50.0
 20
31.6000000000000796
 30
0.0
 11
50.0
 21
37.3333333333333215
 31
0.0
  0
LINE
  5
72E
  8
0
 10
0.0000000000000284
 20
31.6000000000000796
 30
0.0
 11
0.6000000000000228
 21
31.0000000000000604
 31
0.0
  0
LINE
  5
72F
  8
0
 10
49.400000000000027
 20
31.0000000000000604
 30
0.0
 11
50.0
 21
31.6000000000000796
 31
0.0
  0
LINE
  5
730
  8
0
 10
50.0000000000000284
 20
37.3333333333333215
 30
0.0
 11
36.2000000000000384
 21
43.6666666666667993
 31
0.0
  0
LINE
  5
731
  8
0
 10
13.8000000000000096
 20
43.6666666666667993
 30
0.0
 11
0.0
 21
37.3333333333333215
 31
0.0
  0
LINE
  5
732
  8
0
 10
5.0
 20
31.0000000000000604
 30
0.0
 11
5.0
 21
25.0000000000000604
 31
0.0
  0
LINE
  5
733
  8
0
 10
45.0000000000000213
 20
25.0000000000000604
 30
0.0
 11
45.0000000000000213
 21
31.0000000000000604
 31
0.0
  0
LINE
  5
734
  8
0
 10
36.2000000000000384
 20
43.6666666666667993
 30
0.0
 11
35.0832624555130792
 21
50.0000000000000568
 31
0.0
  0
LINE
  5
735
  8
0
 10
14.9167375444869705
 20
50.0000000000000568
 30
0.0
 11
13.8000000000000096
 21
43.6666666666667993
 31
0.0
  0
LINE
  5
736
  8
0
 10
34.0
 20
68.0000000000000568
 30
0.0
 11
16.0
 21
68.0000000000000568
 31
0.0
  0
LINE
  5
737
  8
0
 10
16.0000000000000604
 20
78.0000000000000568
 30
0.0
 11
34.0
 21
78.0000000000000568
 31
0.0
  0
LINE
  5
738
  8
0
 10
25.0000000000000604
 20
76.8628190893734313
 30
0.0
 11
25.0000000000000604
 21
69.137180910626796
 31
0.0
  0
LINE
  5
739
  8
0
 10
34.5
 20
77.7113248654051745
 30
0.0
 11
34.5
 21
68.2886751345949392
 31
0.0
  0
LINE
  5
73A
  8
0
 10
15.5
 20
77.7113248654051745
 30
0.0
 11
15.5
 21
68.2886751345949392
 31
0.0
  0
LINE
  5
73B
  8
0
 10
25.0000000000000604
 20
53.6252147823393628
 30
0.0
 11
25.0000000000000604
 21
57.3747852176606372
 31
0.0
  0
LINE
  5
73C
  8
0
 10
18.0000000000000284
 20
53.0000000000000568
 30
0.0
 11
18.0000000000000284
 21
58.0000000000000568
 31
0.0
  0
LINE
  5
73D
  8
0
 10
32.0000000000000284
 20
53.0000000000000568
 30
0.0
 11
32.0000000000000284
 21
58.0000000000000568
 31
0.0
  0
LINE
  5
73E
  8
0
 10
32.0000000000000284
 20
58.0000000000000568
 30
0.0
 11
18.0000000000000284
 21
58.0000000000000568
 31
0.0
  0
LINE
  5
73F
  8
0
 10
32.0000000000000284
 20
53.0000000000000568
 30
0.0
 11
18.0000000000000284
 21
53.0000000000000568
 31
0.0
  0
LINE
  5
740
  8
0
 10
29.9265000000000292
 20
101.0
 30
0.0
 11
20.0735000000000205
 21
101.0
 31
0.0
  0
LINE
  5
741
  8
0
 10
31.0000000000000284
 20
99.9265000000001038
 30
0.0
 11
19.0000000000000284
 21
99.9265000000001038
 31
0.0
  0
LINE
  5
742
  8
0
 10
25.0000000000000284
 20
31.0000000000000604
 30
0.0
 11
49.4000000000000128
 21
31.0000000000000604
 31
0.0
  0
LINE
  5
743
  8
0
 10
0.6000000000000796
 20
31.0000000000000604
 30
0.0
 11
25.0000000000000284
 21
31.0000000000000604
 31
0.0
  0
LINE
  5
744
  8
0
 10
5.0
 20
25.0000000000000604
 30
0.0
 11
45.0000000000000213
 21
25.0000000000000604
 31
0.0
  0
LINE
  5
745
  8
0
 10
14.9167375444869705
 20
50.0000000000000568
 30
0.0
 11
35.0832624555130792
 21
50.0000000000000568
 31
0.0
  0
LINE
  5
746
  8
2
 10
15.8000000000000096
 20
31.0000000000000604
 30
0.0
 11
15.8000000000000096
 21
25.0000000000000604
 31
0.0
  0
LINE
  5
747
  8
2
 10
34.2000000000000171
 20
25.0000000000000604
 30
0.0
 11
34.2000000000000171
 21
31.0000000000000604
 31
0.0
  0
LINE
  5
748
  8
0
 10
110.9696551146034977
 20
76.8628190893734455
 30
0.0
 11
109.0000000000005969
 21
78.0000000000000853
 31
0.0
  0
LINE
  5
749
  8
0
 10
91.0000000000006253
 20
78.0000000000000853
 30
0.0
 11
89.0303448853978239
 21
76.8628190893734455
 31
0.0
  0
LINE
  5
74A
  8
0
 10
89.0303448853978239
 20
69.1371809106268245
 30
0.0
 11
91.0000000000006253
 21
68.0000000000000853
 31
0.0
  0
LINE
  5
74B
  8
0
 10
109.0000000000005969
 20
68.0000000000000853
 30
0.0
 11
110.9696551146034977
 21
69.1371809106268245
 31
0.0
  0
LINE
  5
74C
  8
0
 10
106.0000000000003979
 20
58.000000000000199
 30
0.0
 11
106.0000000000003979
 21
68.0000000000000853
 31
0.0
  0
LINE
  5
74D
  8
0
 10
106.0000000000002984
 20
78.0000000000000853
 30
0.0
 11
106.0000000000002984
 21
99.9265000000001038
 31
0.0
  0
LINE
  5
74E
  8
0
 10
94.0000000000002842
 20
99.9265000000000043
 30
0.0
 11
94.0000000000003411
 21
78.0000000000000853
 31
0.0
  0
LINE
  5
74F
  8
0
 10
94.0000000000003837
 20
68.0000000000000853
 30
0.0
 11
94.0000000000003837
 21
58.0000000000000782
 31
0.0
  0
LINE
  5
750
  8
0
 10
106.0000000000002984
 20
99.9265000000001038
 30
0.0
 11
104.9265000000002033
 21
101.0000000000000995
 31
0.0
  0
LINE
  5
751
  8
0
 10
95.0735000000002515
 20
101.0000000000000995
 30
0.0
 11
94.0000000000002842
 21
99.9265000000000043
 31
0.0
  0
LINE
  5
752
  8
0
 10
105.5000000000003979
 20
50.000000000000199
 30
0.0
 11
105.5000000000003979
 21
53.0000000000000782
 31
0.0
  0
LINE
  5
753
  8
0
 10
94.5000000000003979
 20
53.0000000000000782
 30
0.0
 11
94.5000000000004547
 21
50.0000000000000782
 31
0.0
  0
LINE
  5
754
  8
0
 10
107.000000000000199
 20
53.0000000000000782
 30
0.0
 11
108.0829037686551004
 21
53.625214782339377
 31
0.0
  0
LINE
  5
755
  8
0
 10
108.0829037686551004
 20
57.3747852176607793
 30
0.0
 11
107.0000000000005969
 21
58.0000000000000782
 31
0.0
  0
LINE
  5
756
  8
0
 10
91.9170962313456954
 20
53.625214782339377
 30
0.0
 11
93.0000000000003837
 21
53.0000000000000782
 31
0.0
  0
LINE
  5
757
  8
0
 10
93.0000000000003837
 20
58.0000000000000782
 30
0.0
 11
91.9170962313456243
 21
57.3747852176607793
 31
0.0
  0
LINE
  5
758
  8
0
 10
75.0000000000005116
 20
31.6000000000000014
 30
0.0
 11
75.6000000000005059
 21
31.0000000000000817
 31
0.0
  0
LINE
  5
759
  8
0
 10
124.4000000000005031
 20
31.000000000000199
 30
0.0
 11
125.0000000000004974
 21
31.6000000000002217
 31
0.0
  0
LINE
  5
75A
  8
0
 10
75.0000000000004832
 20
37.3333333333332291
 30
0.0
 11
75.0000000000005116
 21
31.6000000000000014
 31
0.0
  0
LINE
  5
75B
  8
0
 10
125.0000000000004974
 20
31.6000000000002217
 30
0.0
 11
125.0000000000004974
 21
37.3333333333334565
 31
0.0
  0
LINE
  5
75C
  8
0
 10
125.0000000000004974
 20
37.3333333333334565
 30
0.0
 11
111.2000000000004007
 21
43.6666666666668277
 31
0.0
  0
LINE
  5
75D
  8
0
 10
88.8000000000004661
 20
43.6666666666667069
 30
0.0
 11
75.0000000000004832
 21
37.3333333333332291
 31
0.0
  0
LINE
  5
75E
  8
0
 10
80.0000000000005116
 20
31.0000000000000817
 30
0.0
 11
80.0000000000005116
 21
24.9999999999999716
 31
0.0
  0
LINE
  5
75F
  8
0
 10
120.0000000000004974
 20
25.0000000000000888
 30
0.0
 11
120.0000000000004974
 21
31.000000000000199
 31
0.0
  0
LINE
  5
760
  8
0
 10
111.2000000000004007
 20
43.6666666666668277
 30
0.0
 11
110.0832624555135055
 21
50.000000000000199
 31
0.0
  0
LINE
  5
761
  8
0
 10
89.9167375444873755
 20
50.0000000000000782
 30
0.0
 11
88.8000000000004661
 21
43.6666666666667069
 31
0.0
  0
LINE
  5
762
  8
0
 10
91.0000000000006253
 20
78.0000000000000853
 30
0.0
 11
109.0000000000005969
 21
78.0000000000000853
 31
0.0
  0
LINE
  5
763
  8
0
 10
109.0000000000005969
 20
68.0000000000000853
 30
0.0
 11
91.0000000000006253
 21
68.0000000000000853
 31
0.0
  0
LINE
  5
764
  8
0
 10
110.9696551146034977
 20
76.8628190893734455
 30
0.0
 11
110.9696551146034977
 21
69.1371809106268245
 31
0.0
  0
LINE
  5
765
  8
0
 10
105.484827557302097
 20
76.8628190893734455
 30
0.0
 11
105.484827557302097
 21
69.1371809106268245
 31
0.0
  0
LINE
  5
766
  8
0
 10
94.5151724426992246
 20
76.8628190893734455
 30
0.0
 11
94.5151724426992246
 21
69.1371809106268245
 31
0.0
  0
LINE
  5
767
  8
0
 10
89.0303448853978239
 20
76.8628190893734455
 30
0.0
 11
89.0303448853978239
 21
69.1371809106268245
 31
0.0
  0
LINE
  5
768
  8
0
 10
108.0829037686551004
 20
53.625214782339377
 30
0.0
 11
108.0829037686551004
 21
57.3747852176607793
 31
0.0
  0
LINE
  5
769
  8
0
 10
104.0414518843277989
 20
53.625214782339377
 30
0.0
 11
104.0414518843277989
 21
57.3747852176607793
 31
0.0
  0
LINE
  5
76A
  8
0
 10
95.9585481156730538
 20
53.625214782339377
 30
0.0
 11
95.9585481156730538
 21
57.3747852176607793
 31
0.0
  0
LINE
  5
76B
  8
0
 10
91.9170962313456954
 20
53.625214782339377
 30
0.0
 11
91.9170962313456243
 21
57.3747852176606727
 31
0.0
  0
LINE
  5
76C
  8
0
 10
106.0000000000002984
 20
99.9265000000001038
 30
0.0
 11
94.0000000000002842
 21
99.9265000000000043
 31
0.0
  0
LINE
  5
76D
  8
0
 10
104.9265000000002033
 20
101.0000000000000995
 30
0.0
 11
95.0735000000002515
 21
101.0000000000000995
 31
0.0
  0
LINE
  5
76E
  8
0
 10
107.000000000000199
 20
53.0000000000000782
 30
0.0
 11
93.0000000000003837
 21
53.0000000000000782
 31
0.0
  0
LINE
  5
76F
  8
0
 10
107.0000000000005969
 20
58.0000000000000782
 30
0.0
 11
93.0000000000003837
 21
58.0000000000000782
 31
0.0
  0
LINE
  5
770
  8
0
 10
75.6000000000005059
 20
31.0000000000000817
 30
0.0
 11
124.4000000000005031
 21
31.000000000000199
 31
0.0
  0
LINE
  5
771
  8
0
 10
80.0000000000005116
 20
24.9999999999999716
 30
0.0
 11
120.0000000000004974
 21
25.0000000000000888
 31
0.0
  0
LINE
  5
772
  8
0
 10
89.9167375444873755
 20
50.0000000000000782
 30
0.0
 11
110.0832624555135055
 21
50.000000000000199
 31
0.0
  0
LINE
  5
773
  8
2
 10
90.8000000000004661
 20
31.0000000000000817
 30
0.0
 11
90.800000000000523
 21
24.9999999999999716
 31
0.0
  0
LINE
  5
774
  8
2
 10
109.2000000000005002
 20
25.0000000000000888
 30
0.0
 11
109.2000000000005002
 21
31.000000000000199
 31
0.0
  0
LINE
  5
77F
  8
0
 10
125.0000000000004974
 20
37.3333333333334565
 30
0.0
 11
75.0000000000009663
 21
37.3333333333334565
 31
0.0
  0
LINE
  5
780
  8
0
 10
50.0000000000000284
 20
37.3333333333333215
 30
0.0
 11
0.0000000000000284
 21
37.3333333333333215
 31
0.0
  0
LINE
  5
781
  8
0
 10
13.8000000000000096
 20
43.6666666666667993
 30
0.0
 11
36.2000000000000384
 21
43.6666666666667993
 31
0.0
  0
LINE
  5
782
  8
0
 10
88.8000000000004661
 20
43.6666666666667069
 30
0.0
 11
111.2000000000006992
 21
43.6666666666667069
 31
0.0
  0
ARC
  5
78C
  8
0
 10
28.4999999999998899
 20
63.1092407610370216
 30
0.0
 40
10.1092407610369506
 50
249.7438419995814911
 51
290.2561580004203279
  0
ARC
  5
78D
  8
0
 10
21.5000000000000604
 20
63.1092407610378174
 30
0.0
 40
10.1092407610377606
 50
249.7438419995831964
 51
290.2561580004168036
  0
ARC
  5
78E
  8
0
 10
21.4999999999998899
 20
47.8907592389631915
 30
0.0
 40
10.10924076103686
 50
69.7438419995797148
 51
110.2561580004184947
  0
ARC
  5
78F
  8
0
 10
28.5000000000000604
 20
47.8907592389624028
 30
0.0
 40
10.1092407610376593
 50
69.7438419995831822
 51
110.2561580004168036
  0
ARC
  5
790
  8
0
 10
29.7500000000056311
 20
63.9894151594038973
 30
0.0
 40
13.7217720701118502
 50
69.7470597414649944
 51
110.2529402582208036
  0
ARC
  5
791
  8
0
 10
20.25000000007606
 20
63.9894151589450573
 30
0.0
 40
13.7217720705706796
 50
69.7470597421210812
 51
110.2529402581913018
  0
ARC
  5
792
  8
0
 10
20.2500000000001705
 20
82.0105848406285958
 30
0.0
 40
13.7217720701441408
 50
249.747059741489295
 51
290.2529402585089997
  0
ARC
  5
793
  8
0
 10
29.7499999999998899
 20
82.0105848406248441
 30
0.0
 40
13.7217720701406005
 50
249.7470597414840938
 51
290.2529402585158778
  0
ARC
  5
794
  8
0
 10
106.062177826491407
 20
56.5781518477927818
 30
0.0
 40
3.578151847792558
 50
235.61575253196159
 51
295.6157525319770798
  0
ARC
  5
795
  8
0
 10
100.0000000000003979
 20
66.3747852176606727
 30
0.0
 40
13.3747852176605608
 50
252.4120462260057138
 51
287.5879537739925809
  0
ARC
  5
796
  8
0
 10
93.9378221735093462
 20
56.5781518477922134
 30
0.0
 40
3.5781518477921841
 50
244.3842474680535872
 51
304.3842474680441796
  0
ARC
  5
797
  8
0
 10
93.9378221735093462
 20
54.4218481522077298
 30
0.0
 40
3.5781518477923671
 50
55.6157525319578028
 51
115.6157525319590036
  0
ARC
  5
798
  8
0
 10
100.0000000000006963
 20
44.6252147823381335
 30
0.0
 40
13.3747852176619393
 50
72.412046226009025
 51
107.5879537739926946
  0
ARC
  5
799
  8
0
 10
106.0621778264915065
 20
54.42184815220795
 30
0.0
 40
3.5781518477921499
 50
64.3842474680391632
 51
124.3842474680403001
  0
ARC
  5
79A
  8
0
 10
91.7727586640484532
 20
73.1455259807316622
 30
0.0
 40
4.8567132439919662
 50
244.3790000237640072
 51
304.379000023766821
  0
ARC
  5
79B
  8
0
 10
100.0000000000005969
 20
86.452428046392896
 30
0.0
 40
18.1631802475774684
 50
252.4237311347364141
 51
287.5762688652636143
  0
ARC
  5
79C
  8
0
 10
108.2272413359528969
 20
73.1455259807320033
 30
0.0
 40
4.8567132439923109
 50
235.620999976234998
 51
295.6209999762198208
  0
ARC
  5
79D
  8
0
 10
108.2272413359527974
 20
72.8544740192680536
 30
0.0
 40
4.8567132439924201
 50
64.379000023763993
 51
124.3790000237629982
  0
ARC
  5
79E
  8
0
 10
100.0000000000006963
 20
59.5479261577694103
 30
0.0
 40
18.1628425794599906
 50
72.4233937203790958
 51
107.5766062796209042
  0
ARC
  5
79F
  8
0
 10
91.7727586640484532
 20
72.8544740192679399
 30
0.0
 40
4.8567132439925453
 50
55.6209999762370231
 51
115.6209999762323974
  0
LINE
  5
7A0
  8
1
 10
25.0000000000000284
 20
105.0
 30
0.0
 11
25.0000000000000284
 21
21.0000000000000604
 31
0.0
  0
LINE
  5
7A1
  8
3
 10
19.946999999999889
 20
77.9999999999999432
 30
0.0
 11
19.9470000000001697
 21
100.873500000000206
 31
0.0
  0
LINE
  5
7A2
  8
3
 10
30.0529999999999404
 20
77.9999999999999432
 30
0.0
 11
30.0530000000002318
 21
100.8734999999996944
 31
0.0
  0
LINE
  5
7A3
  8
3
 10
30.0530000000001998
 20
60.0000000000000568
 30
0.0
 11
30.0530000000001998
 21
68.0000000000000568
 31
0.0
  0
LINE
  5
7A4
  8
3
 10
19.9470000000001093
 20
60.0000000000000568
 30
0.0
 11
19.9470000000001093
 21
68.0000000000000568
 31
0.0
  0
LINE
  5
7A5
  8
0
 10
31.0000000000001208
 20
60.0000000000000568
 30
0.0
 11
19.0000000000001386
 21
60.0000000000000568
 31
0.0
  0
LINE
  5
7A6
  8
3
 10
19.9470000000001093
 20
60.0000000000000568
 30
0.0
 11
19.0000000000001386
 21
58.3597478852323732
 31
0.0
  0
LINE
  5
7A7
  8
3
 10
30.0530000000001394
 20
60.0000000000000568
 30
0.0
 11
31.0000000000001208
 21
58.3597478852323732
 31
0.0
  0
LINE
  5
7A8
  8
1
 10
100.0000000000002984
 20
105.0000000000000995
 30
0.0
 11
100.0000000000002984
 21
21.0000000000000817
 31
0.0
  0
LINE
  5
7A9
  8
3
 10
94.9470000000001164
 20
77.9999999999999716
 30
0.0
 11
94.9470000000004006
 21
100.873500000000206
 31
0.0
  0
LINE
  5
7AA
  8
3
 10
105.0530000000000967
 20
77.9999999999999716
 30
0.0
 11
105.0530000000003952
 21
100.8734999999996944
 31
0.0
  0
LINE
  5
7AB
  8
3
 10
105.0530000000003952
 20
60.0000000000000782
 30
0.0
 11
105.0530000000003952
 21
68.0000000000000853
 31
0.0
  0
LINE
  5
7AC
  8
3
 10
94.9470000000003438
 20
60.0000000000000782
 30
0.0
 11
94.9470000000003438
 21
68.0000000000000853
 31
0.0
  0
LINE
  5
7AD
  8
0
 10
106.0000000000002984
 20
60.0000000000000782
 30
0.0
 11
94.0000000000003837
 21
60.0000000000000782
 31
0.0
  0
LINE
  5
7AE
  8
3
 10
94.9470000000003438
 20
60.0000000000000782
 30
0.0
 11
94.0000000000003837
 21
58.3597478852323874
 31
0.0
  0
LINE
  5
7AF
  8
3
 10
105.0530000000003952
 20
60.0000000000000782
 30
0.0
 11
106.0000000000002984
 21
58.3597478852323874
 31
0.0
  0
CIRCLE
  5
7DC
  8
0
 10
25.0
 20
176.0000000000003126
 30
0.0
 40
8.9999999999999858
  0
CIRCLE
  5
7DD
  8
0
 10
25.0000000000000284
 20
175.999999999999801
 30
0.0
 40
6.0
  0
CIRCLE
  5
7DE
  8
0
 10
25.0
 20
176.0
 30
0.0
 40
11.2000000000000099
  0
CIRCLE
  5
7DF
  8
0
 10
25.0
 20
176.0
 30
0.0
 40
25.0
  0
LINE
  5
7E0
  8
1
 10
-3.9999999999999711
 20
175.999999999999801
 30
0.0
 11
54.0000000000000284
 21
175.999999999999801
 31
0.0
  0
LINE
  5
7E1
  8
1
 10
25.0000000000000284
 20
146.999999999999801
 30
0.0
 11
25.0000000000000284
 21
204.999999999999801
 31
0.0
  0
CIRCLE
  5
7E2
  8
3
 10
25.0000000000000284
 20
175.999999999999801
 30
0.0
 40
5.052999999999999
  0
ARC
  5
7E3
  8
0
 10
25.0000000000000284
 20
175.999999999999801
 30
0.0
 40
10.0832624555130206
 50
40.4167335218018522
 51
79.5832664797937213
  0
ARC
  5
7E4
  8
0
 10
25.0000000000000284
 20
175.999999999999801
 30
0.0
 40
10.0832624555130206
 50
100.416733521752704
 51
139.583266478196208
  0
ARC
  5
7E5
  8
0
 10
25.0000000000000284
 20
175.999999999999801
 30
0.0
 40
10.0832624555130206
 50
160.4167335217942139
 51
199.5832664788555917
  0
ARC
  5
7E6
  8
0
 10
25.0000000000000284
 20
175.999999999999801
 30
0.0
 40
10.0832624555130206
 50
220.4167335214017953
 51
259.5832664782125221
  0
ARC
  5
7E7
  8
0
 10
25.0000000000000284
 20
175.999999999999801
 30
0.0
 40
10.0832624555130206
 50
280.4167335217891832
 51
319.5832664800698808
  0
ARC
  5
7E8
  8
0
 10
25.0000000000000284
 20
175.999999999999801
 30
0.0
 40
10.0832624555130206
 50
340.4167335217941854
 51
19.583266478205779
  0
POLYLINE
  5
7E9
  8
0
 66
     1
 10
0.0
 20
0.0
 30
0.0
  0
VERTEX
  5
852
  8
0
 10
15.4999999999999698
 20
170.5151724426987982
 30
0.0
  0
VERTEX
  5
853
  8
0
 10
15.6756077825755504
 20
170.4137852421569903
 30
0.0
  0
VERTEX
  5
854
  8
0
 10
15.8512836332418203
 20
170.3123587424846903
 30
0.0
  0
VERTEX
  5
855
  8
0
 10
16.0270956200894794
 20
170.2108536445514062
 30
0.0
  0
VERTEX
  5
856
  8
0
 10
16.2031118112092507
 20
170.1092306492267028
 30
0.0
  0
VERTEX
  5
857
  8
0
 10
16.3794002746918217
 20
170.0074504573800027
 30
0.0
  0
VERTEX
  5
858
  8
0
 10
16.5560290786279083
 20
169.9054737698808992
 30
0.0
  0
VERTEX
  5
859
  8
0
 10
16.7330662911082015
 20
169.8032612875987866
 30
0.0
  0
VERTEX
  5
85A
  8
0
 10
16.9105647723248502
 20
169.7007824916877041
 30
0.0
  0
VERTEX
  5
85B
  8
0
 10
17.0885142826469689
 20
169.5980432940010019
 30
0.0
  0
VERTEX
  5
85C
  8
0
 10
17.2668882194458604
 20
169.4950590535738115
 30
0.0
  0
VERTEX
  5
85D
  8
0
 10
17.4456599800642209
 20
169.3918451294572947
 30
0.0
  0
VERTEX
  5
85E
  8
0
 10
17.6248029618446616
 20
169.2884168807028971
 30
0.0
  0
VERTEX
  5
85F
  8
0
 10
17.8042905621298608
 20
169.1847896663620077
 30
0.0
  0
VERTEX
  5
860
  8
0
 10
17.9840961782624618
 20
169.0809788454861007
 30
0.0
  0
VERTEX
  5
861
  8
0
 10
18.1641945746036093
 20
168.9769989878778915
 30
0.0
  0
VERTEX
  5
862
  8
0
 10
18.3445663641549004
 20
168.872861286626204
 30
0.0
  0
VERTEX
  5
863
  8
0
 10
18.5251937237491404
 20
168.7685760319415067
 30
0.0
  0
VERTEX
  5
864
  8
0
 10
18.7060588302355697
 20
168.6641535140244912
 30
0.0
  0
VERTEX
  5
865
  8
0
 10
18.8871438604635706
 20
168.5596040230761048
 30
0.0
  0
VERTEX
  5
866
  8
0
 10
19.0684309912823515
 20
168.4549378492972949
 30
0.0
  0
VERTEX
  5
867
  8
0
 10
19.2499023995412415
 20
168.3501652828888098
 30
0.0
  0
VERTEX
  5
868
  8
0
 10
19.4315390659367289
 20
168.2452973046505917
 30
0.0
  0
VERTEX
  5
869
  8
0
 10
19.6133134239292417
 20
168.1403498301318962
 30
0.0
  0
VERTEX
  5
86A
  8
0
 10
19.7951941878343689
 20
168.0353409221308993
 30
0.0
  0
VERTEX
  5
86B
  8
0
 10
19.9771500566905615
 20
167.930288652266114
 30
0.0
  0
VERTEX
  5
86C
  8
0
 10
20.1591497295362707
 20
167.825211092156195
 30
0.0
  0
VERTEX
  5
86D
  8
0
 10
20.3411619054099901
 20
167.720126313419712
 30
0.0
  0
VERTEX
  5
86E
  8
0
 10
20.5231552833501212
 20
167.6150523876752914
 30
0.0
  0
VERTEX
  5
86F
  8
0
 10
20.7050987488757414
 20
167.5100072788767136
 30
0.0
  0
VERTEX
  5
870
  8
0
 10
20.8869635369502191
 20
167.4050075945258982
 30
0.0
  0
VERTEX
  5
871
  8
0
 10
21.0687224892498399
 20
167.3000690144880025
 30
0.0
  0
VERTEX
  5
872
  8
0
 10
21.2503484786286094
 20
167.195207200628289
 30
0.0
  0
VERTEX
  5
873
  8
0
 10
21.4318143779405013
 20
167.0904378148119065
 30
0.0
  0
VERTEX
  5
874
  8
0
 10
21.6130930600395494
 20
166.9857765189036058
 30
0.0
  0
VERTEX
  5
875
  8
0
 10
21.7941577560697191
 20
166.8812387679099061
 30
0.0
  0
VERTEX
  5
876
  8
0
 10
21.9749885833889813
 20
166.776836041079406
 30
0.0
  0
VERTEX
  5
877
  8
0
 10
22.1555718678423617
 20
166.6725762331890905
 30
0.0
  0
VERTEX
  5
878
  8
0
 10
22.335894157563331
 20
166.5684671106778012
 30
0.0
  0
VERTEX
  5
879
  8
0
 10
22.5159420006853317
 20
166.464516439984294
 30
0.0
  0
VERTEX
  5
87A
  8
0
 10
22.6957019453417388
 20
166.3607319875474104
 30
0.0
  0
VERTEX
  5
87B
  8
0
 10
22.8751603512798205
 20
166.257121628570701
 30
0.0
  0
VERTEX
  5
87C
  8
0
 10
23.0542975248183417
 20
166.1536967332064023
 30
0.0
  0
VERTEX
  5
87D
  8
0
 10
23.2330865734082614
 20
166.0504728278748132
 30
0.0
  0
VERTEX
  5
87E
  8
0
 10
23.4115001848674886
 20
165.9474656812716944
 30
0.0
  0
VERTEX
  5
87F
  8
0
 10
23.589511047014021
 20
165.8446910620928065
 30
0.0
  0
VERTEX
  5
880
  8
0
 10
23.7670918476658208
 20
165.7421647390335124
 30
0.0
  0
VERTEX
  5
881
  8
0
 10
23.9442154533434994
 20
165.639902377615698
 30
0.0
  0
VERTEX
  5
882
  8
0
 10
24.1208853859236285
 20
165.5379019444827975
 30
0.0
  0
VERTEX
  5
883
  8
0
 10
24.2971703140651982
 20
165.4361237937663134
 30
0.0
  0
VERTEX
  5
884
  8
0
 10
24.4731472386559084
 20
165.3345234689826952
 30
0.0
  0
VERTEX
  5
885
  8
0
 10
24.6488931605834694
 20
165.2330565136487905
 30
0.0
  0
VERTEX
  5
886
  8
0
 10
24.8244850807355988
 20
165.1316784712815036
 30
0.0
  0
VERTEX
  5
887
  8
0
 10
25.0000000000000284
 20
165.0303448853973123
 30
0.0
  0
SEQEND
  5
888
  8
0
  0
POLYLINE
  5
7EA
  8
0
 66
     1
 10
0.0
 20
0.0
 30
0.0
  0
VERTEX
  5
889
  8
0
 10
34.4999999999999716
 20
170.5151724426987982
 30
0.0
  0
VERTEX
  5
88A
  8
0
 10
34.3243922174244176
 20
170.4137852421569903
 30
0.0
  0
VERTEX
  5
88B
  8
0
 10
34.1487163667581513
 20
170.3123587424846903
 30
0.0
  0
VERTEX
  5
88C
  8
0
 10
33.9729043799104886
 20
170.2108536445514062
 30
0.0
  0
VERTEX
  5
88D
  8
0
 10
33.7968881887907173
 20
170.1092306492267028
 30
0.0
  0
VERTEX
  5
88E
  8
0
 10
33.6205997253081534
 20
170.0074504573800027
 30
0.0
  0
VERTEX
  5
88F
  8
0
 10
33.4439709213720633
 20
169.9054737698808992
 30
0.0
  0
VERTEX
  5
890
  8
0
 10
33.26693370889177
 20
169.8032612875987866
 30
0.0
  0
VERTEX
  5
891
  8
0
 10
33.089435227675132
 20
169.7007824916877041
 30
0.0
  0
VERTEX
  5
892
  8
0
 10
32.9114857173530098
 20
169.5980432940010019
 30
0.0
  0
VERTEX
  5
893
  8
0
 10
32.7331117805541112
 20
169.4950590535738115
 30
0.0
  0
VERTEX
  5
894
  8
0
 10
32.5543400199357507
 20
169.3918451294572947
 30
0.0
  0
VERTEX
  5
895
  8
0
 10
32.3751970381553065
 20
169.2884168807028971
 30
0.0
  0
VERTEX
  5
896
  8
0
 10
32.1957094378701072
 20
169.1847896663620077
 30
0.0
  0
VERTEX
  5
897
  8
0
 10
32.0159038217375098
 20
169.0809788454861007
 30
0.0
  0
VERTEX
  5
898
  8
0
 10
31.8358054253963587
 20
168.9769989878778915
 30
0.0
  0
VERTEX
  5
899
  8
0
 10
31.6554336358450712
 20
168.872861286626204
 30
0.0
  0
VERTEX
  5
89A
  8
0
 10
31.4748062762508312
 20
168.7685760319415067
 30
0.0
  0
VERTEX
  5
89B
  8
0
 10
31.2939411697643983
 20
168.6641535140244912
 30
0.0
  0
VERTEX
  5
89C
  8
0
 10
31.1128561395364009
 20
168.5596040230761048
 30
0.0
  0
VERTEX
  5
89D
  8
0
 10
30.9315690087176201
 20
168.4549378492972949
 30
0.0
  0
VERTEX
  5
89E
  8
0
 10
30.7500976004587301
 20
168.3501652828888098
 30
0.0
  0
VERTEX
  5
89F
  8
0
 10
30.5684609340632392
 20
168.2452973046505917
 30
0.0
  0
VERTEX
  5
8A0
  8
0
 10
30.3866865760707299
 20
168.1403498301318962
 30
0.0
  0
VERTEX
  5
8A1
  8
0
 10
30.2048058121655991
 20
168.0353409221308993
 30
0.0
  0
VERTEX
  5
8A2
  8
0
 10
30.02284994330941
 20
167.930288652266114
 30
0.0
  0
VERTEX
  5
8A3
  8
0
 10
29.8408502704637115
 20
167.825211092156195
 30
0.0
  0
VERTEX
  5
8A4
  8
0
 10
29.6588380945899814
 20
167.720126313419712
 30
0.0
  0
VERTEX
  5
8A5
  8
0
 10
29.4768447166498504
 20
167.6150523876752914
 30
0.0
  0
VERTEX
  5
8A6
  8
0
 10
29.2949012511242302
 20
167.5100072788767136
 30
0.0
  0
VERTEX
  5
8A7
  8
0
 10
29.1130364630497809
 20
167.4050075945258982
 30
0.0
  0
VERTEX
  5
8A8
  8
0
 10
28.9312775107501707
 20
167.3000690144880025
 30
0.0
  0
VERTEX
  5
8A9
  8
0
 10
28.7496515213713906
 20
167.195207200628289
 30
0.0
  0
VERTEX
  5
8AA
  8
0
 10
28.568185622059481
 20
167.0904378148119065
 30
0.0
  0
VERTEX
  5
8AB
  8
0
 10
28.3869069399604612
 20
166.9857765189036058
 30
0.0
  0
VERTEX
  5
8AC
  8
0
 10
28.2058422439302987
 20
166.8812387679099061
 30
0.0
  0
VERTEX
  5
8AD
  8
0
 10
28.0250114166110507
 20
166.776836041079406
 30
0.0
  0
VERTEX
  5
8AE
  8
0
 10
27.8444281321576703
 20
166.6725762331890905
 30
0.0
  0
VERTEX
  5
8AF
  8
0
 10
27.664105842436701
 20
166.5684671106778012
 30
0.0
  0
VERTEX
  5
8B0
  8
0
 10
27.4840579993147003
 20
166.464516439984294
 30
0.0
  0
VERTEX
  5
8B1
  8
0
 10
27.3042980546582896
 20
166.3607319875474104
 30
0.0
  0
VERTEX
  5
8B2
  8
0
 10
27.1248396487201795
 20
166.257121628570701
 30
0.0
  0
VERTEX
  5
8B3
  8
0
 10
26.9457024751816583
 20
166.1536967332064023
 30
0.0
  0
VERTEX
  5
8B4
  8
0
 10
26.7669134265917386
 20
166.0504728278748132
 30
0.0
  0
VERTEX
  5
8B5
  8
0
 10
26.5884998151325114
 20
165.9474656812716944
 30
0.0
  0
VERTEX
  5
8B6
  8
0
 10
26.4104889529859612
 20
165.8446910620928065
 30
0.0
  0
VERTEX
  5
8B7
  8
0
 10
26.2329081523341792
 20
165.7421647390335124
 30
0.0
  0
VERTEX
  5
8B8
  8
0
 10
26.0557845466565006
 20
165.639902377615698
 30
0.0
  0
VERTEX
  5
8B9
  8
0
 10
25.8791146140763715
 20
165.5379019444827975
 30
0.0
  0
VERTEX
  5
8BA
  8
0
 10
25.7028296859348018
 20
165.4361237937663134
 30
0.0
  0
VERTEX
  5
8BB
  8
0
 10
25.5268527613441201
 20
165.3345234689826952
 30
0.0
  0
VERTEX
  5
8BC
  8
0
 10
25.3511068394165591
 20
165.2330565136487905
 30
0.0
  0
VERTEX
  5
8BD
  8
0
 10
25.1755149192644616
 20
165.1316784712815036
 30
0.0
  0
VERTEX
  5
8BE
  8
0
 10
25.0000000000000604
 20
165.0303448853973123
 30
0.0
  0
SEQEND
  5
8BF
  8
0
  0
POLYLINE
  5
7EB
  8
0
 66
     1
 10
0.0
 20
0.0
 30
0.0
  0
VERTEX
  5
8C0
  8
0
 10
34.4999999999999716
 20
170.5151724426987982
 30
0.0
  0
VERTEX
  5
8C1
  8
0
 10
34.4999999999999716
 20
170.743740892836712
 30
0.0
  0
VERTEX
  5
8C2
  8
0
 10
34.4999999999999716
 20
170.9724312565572859
 30
0.0
  0
VERTEX
  5
8C3
  8
0
 10
34.4999999999999716
 20
171.2013654474428108
 30
0.0
  0
VERTEX
  5
8C4
  8
0
 10
34.4999999999999716
 20
171.430665379076089
 30
0.0
  0
VERTEX
  5
8C5
  8
0
 10
34.4999999999999716
 20
171.6604529650394113
 30
0.0
  0
VERTEX
  5
8C6
  8
0
 10
34.4999999999999716
 20
171.890849872981903
 30
0.0
  0
VERTEX
  5
8C7
  8
0
 10
34.4999999999999716
 20
172.1219294881670976
 30
0.0
  0
VERTEX
  5
8C8
  8
0
 10
34.4999999999999716
 20
172.3536593060227915
 30
0.0
  0
VERTEX
  5
8C9
  8
0
 10
34.4999999999999716
 20
172.5859927744631932
 30
0.0
  0
VERTEX
  5
8CA
  8
0
 10
34.4999999999999716
 20
172.8188833414027954
 30
0.0
  0
VERTEX
  5
8CB
  8
0
 10
34.4999999999999716
 20
173.0522844547558918
 30
0.0
  0
VERTEX
  5
8CC
  8
0
 10
34.4999999999999716
 20
173.2861497020170987
 30
0.0
  0
VERTEX
  5
8CD
  8
0
 10
34.4999999999999716
 20
173.5204416527517992
 30
0.0
  0
VERTEX
  5
8CE
  8
0
 10
34.4999999999999716
 20
173.7551371596100012
 30
0.0
  0
VERTEX
  5
8CF
  8
0
 10
34.4999999999999716
 20
173.9902143470619933
 30
0.0
  0
VERTEX
  5
8D0
  8
0
 10
34.4999999999999716
 20
174.2256513395780075
 30
0.0
  0
VERTEX
  5
8D1
  8
0
 10
34.4999999999999716
 20
174.4614262616283042
 30
0.0
  0
VERTEX
  5
8D2
  8
0
 10
34.4999999999999716
 20
174.6975167700277893
 30
0.0
  0
VERTEX
  5
8D3
  8
0
 10
34.4999999999999716
 20
174.9338862209019965
 30
0.0
  0
VERTEX
  5
8D4
  8
0
 10
34.4999999999999716
 20
175.170481369750604
 30
0.0
  0
VERTEX
  5
8D5
  8
0
 10
34.4999999999999716
 20
175.4072480412222035
 30
0.0
  0
VERTEX
  5
8D6
  8
0
 10
34.4999999999999716
 20
175.6441320599651874
 30
0.0
  0
VERTEX
  5
8D7
  8
0
 10
34.4999999999999716
 20
175.8810792506280904
 30
0.0
  0
VERTEX
  5
8D8
  8
0
 10
34.4999999999999716
 20
176.1180356623765135
 30
0.0
  0
VERTEX
  5
8D9
  8
0
 10
34.4999999999999716
 20
176.3549552789446011
 30
0.0
  0
VERTEX
  5
8DA
  8
0
 10
34.4999999999999716
 20
176.5918019544278934
 30
0.0
  0
VERTEX
  5
8DB
  8
0
 10
34.4999999999999716
 20
176.8285401603909008
 30
0.0
  0
VERTEX
  5
8DC
  8
0
 10
34.4999999999999716
 20
177.0651343683979064
 30
0.0
  0
VERTEX
  5
8DD
  8
0
 10
34.4999999999999716
 20
177.3015490500133922
 30
0.0
  0
VERTEX
  5
8DE
  8
0
 10
34.4999999999999716
 20
177.5377484976768017
 30
0.0
  0
VERTEX
  5
8DF
  8
0
 10
34.4999999999999716
 20
177.773689613445498
 30
0.0
  0
VERTEX
  5
8E0
  8
0
 10
34.4999999999999716
 20
178.0093194444663993
 30
0.0
  0
VERTEX
  5
8E1
  8
0
 10
34.4999999999999716
 20
178.2445843530231002
 30
0.0
  0
VERTEX
  5
8E2
  8
0
 10
34.4999999999999716
 20
178.4794307013993944
 30
0.0
  0
VERTEX
  5
8E3
  8
0
 10
34.4999999999999716
 20
178.7138048518789049
 30
0.0
  0
VERTEX
  5
8E4
  8
0
 10
34.4999999999999716
 20
178.9476531667451127
 30
0.0
  0
VERTEX
  5
8E5
  8
0
 10
34.4999999999999716
 20
179.1809220082820104
 30
0.0
  0
VERTEX
  5
8E6
  8
0
 10
34.4999999999999716
 20
179.4135577387729086
 30
0.0
  0
VERTEX
  5
8E7
  8
0
 10
34.4999999999999716
 20
179.6455157512976086
 30
0.0
  0
VERTEX
  5
8E8
  8
0
 10
34.4999999999999716
 20
179.8768327669367864
 30
0.0
  0
VERTEX
  5
8E9
  8
0
 10
34.4999999999999716
 20
180.1075885666205068
 30
0.0
  0
VERTEX
  5
8EA
  8
0
 10
34.4999999999999716
 20
180.3378633240567126
 30
0.0
  0
VERTEX
  5
8EB
  8
0
 10
34.4999999999999716
 20
180.5677372129532046
 30
0.0
  0
VERTEX
  5
8EC
  8
0
 10
34.4999999999999716
 20
180.7972904070180107
 30
0.0
  0
VERTEX
  5
8ED
  8
0
 10
34.4999999999999716
 20
181.0266030799591022
 30
0.0
  0
VERTEX
  5
8EE
  8
0
 10
34.4999999999999716
 20
181.2557554054843933
 30
0.0
  0
VERTEX
  5
8EF
  8
0
 10
34.4999999999999716
 20
181.4848275573017133
 30
0.0
  0
SEQEND
  5
8F0
  8
0
  0
POLYLINE
  5
7EC
  8
0
 66
     1
 10
0.0
 20
0.0
 30
0.0
  0
VERTEX
  5
8F1
  8
0
 10
34.4999999999999716
 20
181.4848275573017133
 30
0.0
  0
VERTEX
  5
8F2
  8
0
 10
34.3243922174244176
 20
181.5862147578434076
 30
0.0
  0
VERTEX
  5
8F3
  8
0
 10
34.1487163667581513
 20
181.6876412575157076
 30
0.0
  0
VERTEX
  5
8F4
  8
0
 10
33.9729043799104886
 20
181.7891463554489917
 30
0.0
  0
VERTEX
  5
8F5
  8
0
 10
33.7968881887907173
 20
181.8907693507736951
 30
0.0
  0
VERTEX
  5
8F6
  8
0
 10
33.6205997253081534
 20
181.9925495426203952
 30
0.0
  0
VERTEX
  5
8F7
  8
0
 10
33.4439709213720633
 20
182.0945262301196124
 30
0.0
  0
VERTEX
  5
8F8
  8
0
 10
33.26693370889177
 20
182.1967387124016113
 30
0.0
  0
VERTEX
  5
8F9
  8
0
 10
33.089435227675132
 20
182.2992175083128075
 30
0.0
  0
VERTEX
  5
8FA
  8
0
 10
32.9114857173530098
 20
182.401956705999396
 30
0.0
  0
VERTEX
  5
8FB
  8
0
 10
32.7331117805541112
 20
182.5049409464267001
 30
0.0
  0
VERTEX
  5
8FC
  8
0
 10
32.5543400199357507
 20
182.6081548705431885
 30
0.0
  0
VERTEX
  5
8FD
  8
0
 10
32.3751970381553065
 20
182.7115831192975861
 30
0.0
  0
VERTEX
  5
8FE
  8
0
 10
32.1957094378701427
 20
182.8152103336383902
 30
0.0
  0
VERTEX
  5
8FF
  8
0
 10
32.0159038217375098
 20
182.9190211545144109
 30
0.0
  0
VERTEX
  5
900
  8
0
 10
31.8358054253963587
 20
183.0230010121225916
 30
0.0
  0
VERTEX
  5
901
  8
0
 10
31.6554336358450712
 20
183.1271387133743076
 30
0.0
  0
VERTEX
  5
902
  8
0
 10
31.4748062762508312
 20
183.2314239680590049
 30
0.0
  0
VERTEX
  5
903
  8
0
 10
31.2939411697643983
 20
183.335846485975992
 30
0.0
  0
VERTEX
  5
904
  8
0
 10
31.1128561395364009
 20
183.4403959769242931
 30
0.0
  0
VERTEX
  5
905
  8
0
 10
30.9315690087176201
 20
183.545062150703103
 30
0.0
  0
VERTEX
  5
906
  8
0
 10
30.7500976004587301
 20
183.6498347171115881
 30
0.0
  0
VERTEX
  5
907
  8
0
 10
30.5684609340632711
 20
183.7547026953498062
 30
0.0
  0
VERTEX
  5
908
  8
0
 10
30.3866865760707583
 20
183.859650169868587
 30
0.0
  0
VERTEX
  5
909
  8
0
 10
30.2048058121656311
 20
183.9646590778696122
 30
0.0
  0
VERTEX
  5
90A
  8
0
 10
30.0228499433094385
 20
184.0697113477343976
 30
0.0
  0
VERTEX
  5
90B
  8
0
 10
29.8408502704637115
 20
184.1747889078442881
 30
0.0
  0
VERTEX
  5
90C
  8
0
 10
29.6588380945900099
 20
184.2798736865806859
 30
0.0
  0
VERTEX
  5
90D
  8
0
 10
29.4768447166498504
 20
184.3849476123251918
 30
0.0
  0
VERTEX
  5
90E
  8
0
 10
29.2949012511242302
 20
184.4899927211237127
 30
0.0
  0
VERTEX
  5
90F
  8
0
 10
29.1130364630497489
 20
184.5949924054746134
 30
0.0
  0
VERTEX
  5
910
  8
0
 10
28.9312775107501317
 20
184.6999309855123954
 30
0.0
  0
VERTEX
  5
911
  8
0
 10
28.7496515213713906
 20
184.8047927993721089
 30
0.0
  0
VERTEX
  5
912
  8
0
 10
28.568185622059481
 20
184.9095621851884914
 30
0.0
  0
VERTEX
  5
913
  8
0
 10
28.3869069399604612
 20
185.0142234810967921
 30
0.0
  0
VERTEX
  5
914
  8
0
 10
28.2058422439302809
 20
185.1187612320904918
 30
0.0
  0
VERTEX
  5
915
  8
0
 10
28.0250114166110187
 20
185.2231639589211056
 30
0.0
  0
VERTEX
  5
916
  8
0
 10
27.844428132157649
 20
185.3274237668113926
 30
0.0
  0
VERTEX
  5
917
  8
0
 10
27.664105842436669
 20
185.4315328893227104
 30
0.0
  0
VERTEX
  5
918
  8
0
 10
27.4840579993146683
 20
185.5354835600161891
 30
0.0
  0
VERTEX
  5
919
  8
0
 10
27.3042980546582612
 20
185.6392680124529875
 30
0.0
  0
VERTEX
  5
91A
  8
0
 10
27.1248396487201795
 20
185.7428783714296969
 30
0.0
  0
VERTEX
  5
91B
  8
0
 10
26.9457024751816583
 20
185.8463032667941093
 30
0.0
  0
VERTEX
  5
91C
  8
0
 10
26.7669134265917386
 20
185.9495271721256131
 30
0.0
  0
VERTEX
  5
91D
  8
0
 10
26.5884998151325114
 20
186.0525343187287035
 30
0.0
  0
VERTEX
  5
91E
  8
0
 10
26.4104889529859612
 20
186.1553089379077051
 30
0.0
  0
VERTEX
  5
91F
  8
0
 10
26.2329081523341792
 20
186.2578352609668002
 30
0.0
  0
VERTEX
  5
920
  8
0
 10
26.0557845466565006
 20
186.3600976223846999
 30
0.0
  0
VERTEX
  5
921
  8
0
 10
25.8791146140763715
 20
186.4620980555174867
 30
0.0
  0
VERTEX
  5
922
  8
0
 10
25.7028296859348018
 20
186.5638762062341982
 30
0.0
  0
VERTEX
  5
923
  8
0
 10
25.5268527613441201
 20
186.6654765310177879
 30
0.0
  0
VERTEX
  5
924
  8
0
 10
25.3511068394165591
 20
186.7669434863516074
 30
0.0
  0
VERTEX
  5
925
  8
0
 10
25.1755149192644296
 20
186.868321528719008
 30
0.0
  0
VERTEX
  5
926
  8
0
 10
25.0000000000000284
 20
186.969655114603114
 30
0.0
  0
SEQEND
  5
927
  8
0
  0
POLYLINE
  5
7ED
  8
0
 66
     1
 10
0.0
 20
0.0
 30
0.0
  0
VERTEX
  5
928
  8
0
 10
15.4999999999999698
 20
181.4848275573017133
 30
0.0
  0
VERTEX
  5
929
  8
0
 10
15.6756077825755504
 20
181.5862147578434076
 30
0.0
  0
VERTEX
  5
92A
  8
0
 10
15.8512836332418203
 20
181.6876412575157076
 30
0.0
  0
VERTEX
  5
92B
  8
0
 10
16.0270956200894794
 20
181.7891463554489917
 30
0.0
  0
VERTEX
  5
92C
  8
0
 10
16.2031118112092507
 20
181.8907693507736951
 30
0.0
  0
VERTEX
  5
92D
  8
0
 10
16.3794002746918217
 20
181.9925495426203952
 30
0.0
  0
VERTEX
  5
92E
  8
0
 10
16.5560290786279083
 20
182.0945262301196124
 30
0.0
  0
VERTEX
  5
92F
  8
0
 10
16.7330662911082015
 20
182.1967387124016113
 30
0.0
  0
VERTEX
  5
930
  8
0
 10
16.9105647723248502
 20
182.2992175083128075
 30
0.0
  0
VERTEX
  5
931
  8
0
 10
17.0885142826469689
 20
182.401956705999396
 30
0.0
  0
VERTEX
  5
932
  8
0
 10
17.2668882194458604
 20
182.5049409464267001
 30
0.0
  0
VERTEX
  5
933
  8
0
 10
17.4456599800642209
 20
182.6081548705431885
 30
0.0
  0
VERTEX
  5
934
  8
0
 10
17.6248029618446616
 20
182.7115831192975861
 30
0.0
  0
VERTEX
  5
935
  8
0
 10
17.8042905621298608
 20
182.8152103336383902
 30
0.0
  0
VERTEX
  5
936
  8
0
 10
17.9840961782624618
 20
182.9190211545144109
 30
0.0
  0
VERTEX
  5
937
  8
0
 10
18.1641945746036093
 20
183.0230010121225916
 30
0.0
  0
VERTEX
  5
938
  8
0
 10
18.3445663641549004
 20
183.1271387133743076
 30
0.0
  0
VERTEX
  5
939
  8
0
 10
18.5251937237491404
 20
183.2314239680590049
 30
0.0
  0
VERTEX
  5
93A
  8
0
 10
18.7060588302355697
 20
183.335846485975992
 30
0.0
  0
VERTEX
  5
93B
  8
0
 10
18.8871438604635706
 20
183.4403959769242931
 30
0.0
  0
VERTEX
  5
93C
  8
0
 10
19.0684309912823515
 20
183.545062150703103
 30
0.0
  0
VERTEX
  5
93D
  8
0
 10
19.2499023995412415
 20
183.6498347171115881
 30
0.0
  0
VERTEX
  5
93E
  8
0
 10
19.4315390659367289
 20
183.7547026953498062
 30
0.0
  0
VERTEX
  5
93F
  8
0
 10
19.6133134239292417
 20
183.859650169868587
 30
0.0
  0
VERTEX
  5
940
  8
0
 10
19.7951941878343689
 20
183.9646590778696122
 30
0.0
  0
VERTEX
  5
941
  8
0
 10
19.9771500566905615
 20
184.0697113477343976
 30
0.0
  0
VERTEX
  5
942
  8
0
 10
20.1591497295362707
 20
184.1747889078442881
 30
0.0
  0
VERTEX
  5
943
  8
0
 10
20.3411619054099901
 20
184.2798736865806859
 30
0.0
  0
VERTEX
  5
944
  8
0
 10
20.5231552833501212
 20
184.3849476123251918
 30
0.0
  0
VERTEX
  5
945
  8
0
 10
20.7050987488757414
 20
184.4899927211237127
 30
0.0
  0
VERTEX
  5
946
  8
0
 10
20.8869635369502191
 20
184.5949924054746134
 30
0.0
  0
VERTEX
  5
947
  8
0
 10
21.0687224892498399
 20
184.6999309855123954
 30
0.0
  0
VERTEX
  5
948
  8
0
 10
21.2503484786286094
 20
184.8047927993721089
 30
0.0
  0
VERTEX
  5
949
  8
0
 10
21.4318143779405013
 20
184.9095621851884914
 30
0.0
  0
VERTEX
  5
94A
  8
0
 10
21.6130930600395494
 20
185.0142234810967921
 30
0.0
  0
VERTEX
  5
94B
  8
0
 10
21.7941577560697191
 20
185.1187612320904918
 30
0.0
  0
VERTEX
  5
94C
  8
0
 10
21.9749885833889813
 20
185.2231639589211056
 30
0.0
  0
VERTEX
  5
94D
  8
0
 10
22.1555718678423617
 20
185.3274237668113926
 30
0.0
  0
VERTEX
  5
94E
  8
0
 10
22.335894157563331
 20
185.4315328893227104
 30
0.0
  0
VERTEX
  5
94F
  8
0
 10
22.5159420006853317
 20
185.5354835600161891
 30
0.0
  0
VERTEX
  5
950
  8
0
 10
22.6957019453417388
 20
185.6392680124529875
 30
0.0
  0
VERTEX
  5
951
  8
0
 10
22.8751603512798205
 20
185.7428783714296969
 30
0.0
  0
VERTEX
  5
952
  8
0
 10
23.0542975248183417
 20
185.8463032667941093
 30
0.0
  0
VERTEX
  5
953
  8
0
 10
23.2330865734082614
 20
185.9495271721256131
 30
0.0
  0
VERTEX
  5
954
  8
0
 10
23.4115001848674886
 20
186.0525343187287035
 30
0.0
  0
VERTEX
  5
955
  8
0
 10
23.589511047014021
 20
186.1553089379077051
 30
0.0
  0
VERTEX
  5
956
  8
0
 10
23.7670918476658208
 20
186.2578352609668002
 30
0.0
  0
VERTEX
  5
957
  8
0
 10
23.9442154533434994
 20
186.3600976223846999
 30
0.0
  0
VERTEX
  5
958
  8
0
 10
24.1208853859236285
 20
186.4620980555174867
 30
0.0
  0
VERTEX
  5
959
  8
0
 10
24.2971703140651982
 20
186.5638762062341982
 30
0.0
  0
VERTEX
  5
95A
  8
0
 10
24.4731472386558799
 20
186.6654765310177879
 30
0.0
  0
VERTEX
  5
95B
  8
0
 10
24.6488931605834409
 20
186.7669434863516074
 30
0.0
  0
VERTEX
  5
95C
  8
0
 10
24.8244850807355704
 20
186.868321528719008
 30
0.0
  0
VERTEX
  5
95D
  8
0
 10
25.0
 20
186.969655114603114
 30
0.0
  0
SEQEND
  5
95E
  8
0
  0
POLYLINE
  5
7EE
  8
0
 66
     1
 10
0.0
 20
0.0
 30
0.0
  0
VERTEX
  5
95F
  8
0
 10
15.4999999999999698
 20
170.5151724426987982
 30
0.0
  0
VERTEX
  5
960
  8
0
 10
15.4999999999999698
 20
170.743740892836712
 30
0.0
  0
VERTEX
  5
961
  8
0
 10
15.4999999999999698
 20
170.9724312565572859
 30
0.0
  0
VERTEX
  5
962
  8
0
 10
15.4999999999999698
 20
171.2013654474428108
 30
0.0
  0
VERTEX
  5
963
  8
0
 10
15.4999999999999698
 20
171.430665379076089
 30
0.0
  0
VERTEX
  5
964
  8
0
 10
15.5
 20
171.6604529650394113
 30
0.0
  0
VERTEX
  5
965
  8
0
 10
15.5
 20
171.890849872981903
 30
0.0
  0
VERTEX
  5
966
  8
0
 10
15.5
 20
172.1219294881670976
 30
0.0
  0
VERTEX
  5
967
  8
0
 10
15.5
 20
172.3536593060227915
 30
0.0
  0
VERTEX
  5
968
  8
0
 10
15.5
 20
172.5859927744631932
 30
0.0
  0
VERTEX
  5
969
  8
0
 10
15.5
 20
172.8188833414027954
 30
0.0
  0
VERTEX
  5
96A
  8
0
 10
15.5
 20
173.0522844547558918
 30
0.0
  0
VERTEX
  5
96B
  8
0
 10
15.5
 20
173.2861497020170987
 30
0.0
  0
VERTEX
  5
96C
  8
0
 10
15.5
 20
173.5204416527517992
 30
0.0
  0
VERTEX
  5
96D
  8
0
 10
15.5
 20
173.7551371596100012
 30
0.0
  0
VERTEX
  5
96E
  8
0
 10
15.5
 20
173.9902143470619933
 30
0.0
  0
VERTEX
  5
96F
  8
0
 10
15.5
 20
174.2256513395780075
 30
0.0
  0
VERTEX
  5
970
  8
0
 10
15.5
 20
174.4614262616283042
 30
0.0
  0
VERTEX
  5
971
  8
0
 10
15.4999999999999698
 20
174.6975167700277893
 30
0.0
  0
VERTEX
  5
972
  8
0
 10
15.4999999999999698
 20
174.9338862209019965
 30
0.0
  0
VERTEX
  5
973
  8
0
 10
15.4999999999999698
 20
175.170481369750604
 30
0.0
  0
VERTEX
  5
974
  8
0
 10
15.4999999999999698
 20
175.4072480412222035
 30
0.0
  0
VERTEX
  5
975
  8
0
 10
15.4999999999999698
 20
175.6441320599651874
 30
0.0
  0
VERTEX
  5
976
  8
0
 10
15.4999999999999698
 20
175.8810792506280904
 30
0.0
  0
VERTEX
  5
977
  8
0
 10
15.5
 20
176.1180356623765135
 30
0.0
  0
VERTEX
  5
978
  8
0
 10
15.5
 20
176.3549552789446011
 30
0.0
  0
VERTEX
  5
979
  8
0
 10
15.5
 20
176.5918019544278934
 30
0.0
  0
VERTEX
  5
97A
  8
0
 10
15.5
 20
176.8285401603909008
 30
0.0
  0
VERTEX
  5
97B
  8
0
 10
15.5
 20
177.0651343683979064
 30
0.0
  0
VERTEX
  5
97C
  8
0
 10
15.5
 20
177.3015490500133922
 30
0.0
  0
VERTEX
  5
97D
  8
0
 10
15.4999999999999698
 20
177.5377484976768017
 30
0.0
  0
VERTEX
  5
97E
  8
0
 10
15.4999999999999698
 20
177.773689613445498
 30
0.0
  0
VERTEX
  5
97F
  8
0
 10
15.4999999999999698
 20
178.0093194444663993
 30
0.0
  0
VERTEX
  5
980
  8
0
 10
15.4999999999999698
 20
178.2445843530231002
 30
0.0
  0
VERTEX
  5
981
  8
0
 10
15.4999999999999698
 20
178.4794307013993944
 30
0.0
  0
VERTEX
  5
982
  8
0
 10
15.4999999999999698
 20
178.7138048518789049
 30
0.0
  0
VERTEX
  5
983
  8
0
 10
15.4999999999999698
 20
178.9476531667451127
 30
0.0
  0
VERTEX
  5
984
  8
0
 10
15.4999999999999698
 20
179.1809220082820104
 30
0.0
  0
VERTEX
  5
985
  8
0
 10
15.4999999999999698
 20
179.4135577387729086
 30
0.0
  0
VERTEX
  5
986
  8
0
 10
15.5
 20
179.6455157512976086
 30
0.0
  0
VERTEX
  5
987
  8
0
 10
15.5
 20
179.8768327669367864
 30
0.0
  0
VERTEX
  5
988
  8
0
 10
15.5
 20
180.1075885666205068
 30
0.0
  0
VERTEX
  5
989
  8
0
 10
15.5
 20
180.3378633240567126
 30
0.0
  0
VERTEX
  5
98A
  8
0
 10
15.5
 20
180.5677372129532046
 30
0.0
  0
VERTEX
  5
98B
  8
0
 10
15.5
 20
180.7972904070180107
 30
0.0
  0
VERTEX
  5
98C
  8
0
 10
15.5
 20
181.0266030799591022
 30
0.0
  0
VERTEX
  5
98D
  8
0
 10
15.4999999999999698
 20
181.2557554054843933
 30
0.0
  0
VERTEX
  5
98E
  8
0
 10
15.4999999999999698
 20
181.4848275573017133
 30
0.0
  0
SEQEND
  5
98F
  8
0
  0
ENDSEC
  0
EOF
