  0
SECTION
  2
HEADER
  9
$ACADVER
  1
AC1009
  9
$INSBASE
 10
0.0
 20
0.0
 30
0.0
  9
$EXTMIN
 10
-3.9194330932225219
 20
-2.960436562073669
 30
0.0
  9
$EXTMAX
 10
125.000000000000199
 20
243.9194297177047019
 30
0.0
  9
$LIMMIN
 10
0.0
 20
0.0
  9
$LIMMAX
 10
375.0
 20
270.0
  9
$ORTHOMODE
 70
     1
  9
$REGENMODE
 70
     1
  9
$FILLMODE
 70
     1
  9
$QTEXTMODE
 70
     0
  9
$MIRRTEXT
 70
     0
  9
$DRAGMODE
 70
     2
  9
$LTSCALE
 40
6.0
  9
$OSMODE
 70
    37
  9
$ATTMODE
 70
     1
  9
$TEXTSIZE
 40
0.2
  9
$TRACEWID
 40
0.05
  9
$TEXTSTYLE
  7
STANDARD
  9
$CLAYER
  8
0
  9
$CELTYPE
  6
BYLAYER
  9
$CECOLOR
 62
   256
  9
$DIMSCALE
 40
1.0
  9
$DIMASZ
 40
3.0
  9
$DIMEXO
 40
1.0
  9
$DIMDLI
 40
6.0
  9
$DIMRND
 40
0.0
  9
$DIMDLE
 40
0.0
  9
$DIMEXE
 40
1.0
  9
$DIMTP
 40
495.0
  9
$DIMTM
 40
0.0
  9
$DIMTXT
 40
3.0
  9
$DIMCEN
 40
0.0
  9
$DIMTSZ
 40
0.0
  9
$DIMTOL
 70
     0
  9
$DIMLIM
 70
     0
  9
$DIMTIH
 70
     0
  9
$DIMTOH
 70
     0
  9
$DIMSE1
 70
     0
  9
$DIMSE2
 70
     0
  9
$DIMTAD
 70
     1
  9
$DIMZIN
 70
     0
  9
$DIMBLK
  1

  9
$DIMASO
 70
     0
  9
$DIMSHO
 70
     0
  9
$DIMPOST
  1

  9
$DIMAPOST
  1

  9
$DIMALT
 70
     0
  9
$DIMALTD
 70
     2
  9
$DIMALTF
 40
25.3999999999999986
  9
$DIMLFAC
 40
1.0
  9
$DIMTOFL
 70
     1
  9
$DIMTVP
 40
0.0
  9
$DIMTIX
 70
     1
  9
$DIMSOXD
 70
     0
  9
$DIMSAH
 70
     0
  9
$DIMBLK1
  1

  9
$DIMBLK2
  1

  9
$DIMSTYLE
  2
STANDARD
  9
$DIMCLRD
 70
     0
  9
$DIMCLRE
 70
     0
  9
$DIMCLRT
 70
     4
  9
$DIMTFAC
 40
1.0
  9
$DIMGAP
 40
1.0
  9
$LUNITS
 70
     2
  9
$LUPREC
 70
     4
  9
$SKETCHINC
 40
0.1
  9
$FILLETRAD
 40
0.0
  9
$AUNITS
 70
     0
  9
$AUPREC
 70
     0
  9
$MENU
  1
C:\R13\WIN\SUPPORT\ACAD-I
  9
$ELEVATION
 40
0.0
  9
$PELEVATION
 40
0.0
  9
$THICKNESS
 40
0.0
  9
$LIMCHECK
 70
     0
  9
$BLIPMODE
 70
     0
  9
$CHAMFERA
 40
0.0
  9
$CHAMFERB
 40
0.0
  9
$SKPOLY
 70
     0
  9
$TDCREATE
 40
2451961.7115277778357267
  9
$TDUPDATE
 40
2460580.5717939818277955
  9
$TDINDWG
 40
0.2478271644
  9
$TDUSRTIMER
 40
2456598.209303020965308
  9
$USRTIMER
 70
     1
  9
$ANGBASE
 50
0.0
  9
$ANGDIR
 70
     0
  9
$PDMODE
 70
     0
  9
$PDSIZE
 40
0.0
  9
$PLINEWID
 40
0.0
  9
$COORDS
 70
     1
  9
$SPLFRAME
 70
     0
  9
$SPLINETYPE
 70
     6
  9
$SPLINESEGS
 70
     8
  9
$ATTDIA
 70
     1
  9
$ATTREQ
 70
     1
  9
$HANDLING
 70
     1
  9
$HANDSEED
  5
A9E
  9
$SURFTAB1
 70
     6
  9
$SURFTAB2
 70
     6
  9
$SURFTYPE
 70
     6
  9
$SURFU
 70
     6
  9
$SURFV
 70
     6
  9
$UCSNAME
  2

  9
$UCSORG
 10
0.0
 20
0.0
 30
0.0
  9
$UCSXDIR
 10
1.0
 20
0.0
 30
0.0
  9
$UCSYDIR
 10
0.0
 20
1.0
 30
0.0
  9
$PUCSNAME
  2

  9
$PUCSORG
 10
0.0
 20
0.0
 30
0.0
  9
$PUCSXDIR
 10
1.0
 20
0.0
 30
0.0
  9
$PUCSYDIR
 10
0.0
 20
1.0
 30
0.0
  9
$USERI1
 70
     4
  9
$USERI2
 70
     1
  9
$USERI3
 70
     0
  9
$USERI4
 70
     0
  9
$USERI5
 70
     0
  9
$USERR1
 40
1.0
  9
$USERR2
 40
3.0
  9
$USERR3
 40
3.0
  9
$USERR4
 40
3.0
  9
$USERR5
 40
10.0
  9
$WORLDVIEW
 70
     1
  9
$SHADEDGE
 70
     3
  9
$SHADEDIF
 70
    70
  9
$TILEMODE
 70
     1
  9
$MAXACTVP
 70
    16
  9
$PLIMCHECK
 70
     0
  9
$PEXTMIN
 10
1.0000000000000000E+20
 20
1.0000000000000000E+20
 30
1.0000000000000000E+20
  9
$PEXTMAX
 10
-1.0000000000000000E+20
 20
-1.0000000000000000E+20
 30
-1.0000000000000000E+20
  9
$PLIMMIN
 10
0.0
 20
0.0
  9
$PLIMMAX
 10
12.0
 20
9.0
  9
$UNITMODE
 70
     0
  9
$VISRETAIN
 70
     0
  9
$PLINEGEN
 70
     0
  9
$PSLTSCALE
 70
     0
  0
ENDSEC
  0
SECTION
  2
TABLES
  0
TABLE
  2
VPORT
 70
     1
  0
VPORT
  2
*ACTIVE
 70
     0
 10
0.0
 20
0.0
 11
1.0
 21
1.0
 12
293.5652709359605979
 22
125.0
 13
0.0
 23
0.0
 14
10.0
 24
10.0
 15
10.0
 25
10.0
 16
0.0
 26
0.0
 36
1.0
 17
0.0
 27
0.0
 37
0.0
 40
250.0
 41
2.3485221674876842
 42
50.0
 43
0.0
 44
0.0
 50
0.0
 51
0.0
 71
    16
 72
   100
 73
     1
 74
     0
 75
     0
 76
     0
 77
     0
 78
     0
  0
ENDTAB
  0
TABLE
  2
LTYPE
 70
     3
  0
LTYPE
  2
CONTINUOUS
 70
     0
  3
Solid Line
 72
    65
 73
     0
 40
0.0
  0
LTYPE
  2
CENTER
 70
     0
  3
____ _ ____ _ ____ _ ____ _ ____ _ ____ _ ____
 72
    65
 73
     4
 40
2.0
 49
1.25
 49
-0.25
 49
0.25
 49
-0.25
  0
LTYPE
  2
HIDDEN
 70
     0
  3
Hidden __ __ __ __ __ __ __ __ __ __ __ __ __ __
 72
    65
 73
     2
 40
1.905
 49
1.27
 49
-0.635
  0
ENDTAB
  0
TABLE
  2
LAYER
 70
     4
  0
LAYER
  2
0
 70
     0
 62
     7
  6
CONTINUOUS
  0
LAYER
  2
1
 70
     0
 62
     1
  6
CENTER
  0
LAYER
  2
3
 70
     0
 62
     3
  6
CONTINUOUS
  0
LAYER
  2
2
 70
     0
 62
     2
  6
HIDDEN
  0
ENDTAB
  0
TABLE
  2
STYLE
 70
     2
  0
STYLE
  2
STANDARD
 70
     0
 40
0.0
 41
1.0
 50
0.0
 71
     0
 42
0.2
  3
SIMPLEX
  4
BIGFONT
  0
STYLE
  2
STANDARD1
 70
     0
 40
0.0
 41
1.0
 50
0.0
 71
     0
 42
3.0
  3
txt
  4

  0
ENDTAB
  0
TABLE
  2
VIEW
 70
     0
  0
ENDTAB
  0
TABLE
  2
UCS
 70
     0
  0
ENDTAB
  0
TABLE
  2
APPID
 70
     8
  0
APPID
  2
ACAD
 70
     0
  0
APPID
  2
ACAD_NAV_VCDISPLAY
 70
     0
  0
APPID
  2
ACAECLAYERSTANDARD
 70
     0
  0
APPID
  2
ACCMTRANSPARENCY
 70
     0
  0
APPID
  2
ACAD_EXEMPT_FROM_CAD_STANDARDS
 70
     0
  0
APPID
  2
ACAD_TC
 70
     0
  0
APPID
  2
ACAD_DSTYLE_DIMRADIAL_EXTENSION
 70
     0
  0
APPID
  2
ACAD_MLEADERVER
 70
     0
  0
ENDTAB
  0
TABLE
  2
DIMSTYLE
 70
     1
  0
DIMSTYLE
  2
STANDARD
 70
     0
  3

  4

  5

  6

  7

 40
1.0
 41
0.18
 42
0.0625
 43
0.38
 44
0.18
 45
0.0
 46
0.0
 47
0.0
 48
0.0
140
0.18
141
0.09
142
0.0
143
25.3999999999999986
144
1.0
145
0.0
146
1.0
147
0.09
 71
     0
 72
     0
 73
     1
 74
     1
 75
     0
 76
     0
 77
     0
 78
     0
170
     0
171
     2
172
     0
173
     0
174
     0
175
     0
176
     0
177
     0
178
     0
  0
ENDTAB
  0
ENDSEC
  0
SECTION
  2
BLOCKS
  0
BLOCK
  8
0
  2
$MODEL_SPACE
 70
     0
 10
0.0
 20
0.0
 30
0.0
  3
$MODEL_SPACE
  1

  0
ENDBLK
  5
F
  8
0
  0
BLOCK
 67
     1
  8
0
  2
$PAPER_SPACE
 70
     0
 10
0.0
 20
0.0
 30
0.0
  3
$PAPER_SPACE
  1

  0
ENDBLK
  5
14
 67
     1
  8
0
  0
ENDSEC
  0
SECTION
  2
ENTITIES
  0
TEXT
  5
59
  8
0
 62
     3
 10
0.0
 20
0.0
 30
0.0
 40
10.0
  1
LSVA50-M16X108
  7
STANDARD1
  0
LINE
  5
84E
  8
0
 10
13.0
 20
68.2886751345949392
 30
0.0
 11
13.5
 21
68.0000000000001705
 31
0.0
  0
LINE
  5
84F
  8
0
 10
36.5
 20
68.0000000000001705
 30
0.0
 11
37.0
 21
68.2886751345949392
 31
0.0
  0
LINE
  5
850
  8
0
 10
37.0
 20
80.7113248654052882
 30
0.0
 11
36.5
 21
81.0000000000001705
 31
0.0
  0
LINE
  5
851
  8
0
 10
13.5
 20
81.0000000000001705
 30
0.0
 11
13.0
 21
80.7113248654052882
 31
0.0
  0
LINE
  5
852
  8
0
 10
33.0
 20
164.7730000000001098
 30
0.0
 11
31.7729999999999997
 21
166.0
 31
0.0
  0
LINE
  5
853
  8
0
 10
18.2270000000000287
 20
166.0
 30
0.0
 11
17.0000000000000284
 21
164.7730000000001098
 31
0.0
  0
LINE
  5
854
  8
0
 10
33.0
 20
53.0000000000000568
 30
0.0
 11
33.0
 21
68.0000000000001705
 31
0.0
  0
LINE
  5
855
  8
0
 10
33.0
 20
81.0000000000001705
 30
0.0
 11
33.0
 21
164.7730000000001098
 31
0.0
  0
LINE
  5
856
  8
0
 10
17.0
 20
164.7730000000001098
 30
0.0
 11
17.0
 21
81.0000000000001705
 31
0.0
  0
LINE
  5
857
  8
0
 10
17.0
 20
68.0000000000001705
 30
0.0
 11
17.0
 21
53.0000000000000568
 31
0.0
  0
LINE
  5
858
  8
0
 10
30.5
 20
50.0000000000000568
 30
0.0
 11
30.5
 21
53.0000000000000568
 31
0.0
  0
LINE
  5
859
  8
0
 10
19.5
 20
53.0000000000000568
 30
0.0
 11
19.5
 21
50.0000000000000568
 31
0.0
  0
LINE
  5
85A
  8
0
 10
0.0
 20
37.3333333333334281
 30
0.0
 11
0.0
 21
31.6000000000000796
 31
0.0
  0
LINE
  5
85B
  8
0
 10
50.0
 20
31.6000000000000796
 30
0.0
 11
50.0
 21
37.3333333333334281
 31
0.0
  0
LINE
  5
85C
  8
0
 10
0.0
 20
31.6000000000000796
 30
0.0
 11
0.5999999999999944
 21
31.0000000000000604
 31
0.0
  0
LINE
  5
85D
  8
0
 10
49.4000000000000128
 20
31.0000000000000604
 30
0.0
 11
50.0
 21
31.6000000000000796
 31
0.0
  0
LINE
  5
85E
  8
0
 10
50.0
 20
37.3333333333334281
 30
0.0
 11
36.2000000000000171
 21
43.6666666666666785
 31
0.0
  0
LINE
  5
85F
  8
0
 10
13.7999999999999794
 20
43.6666666666666785
 30
0.0
 11
0.0
 21
37.3333333333334281
 31
0.0
  0
LINE
  5
860
  8
0
 10
5.0
 20
31.0000000000000604
 30
0.0
 11
5.0
 21
25.0000000000000604
 31
0.0
  0
LINE
  5
861
  8
0
 10
45.0
 20
25.0000000000000604
 30
0.0
 11
45.0
 21
31.0000000000000604
 31
0.0
  0
LINE
  5
862
  8
0
 10
36.1999999999999886
 20
43.6666666666666785
 30
0.0
 11
35.0832624555130792
 21
50.0000000000000568
 31
0.0
  0
LINE
  5
863
  8
0
 10
14.9167375444869208
 20
50.0000000000000568
 30
0.0
 11
13.8000000000000096
 21
43.6666666666666785
 31
0.0
  0
LINE
  5
864
  8
0
 10
36.5
 20
68.0000000000001705
 30
0.0
 11
13.5
 21
68.0000000000001705
 31
0.0
  0
LINE
  5
865
  8
0
 10
25.0
 20
79.6395280956807596
 30
0.0
 11
25.0
 21
69.3604719043194535
 31
0.0
  0
LINE
  5
866
  8
0
 10
13.0
 20
80.7113248654053876
 30
0.0
 11
13.0
 21
68.2886751345950529
 31
0.0
  0
LINE
  5
867
  8
0
 10
13.5
 20
81.0000000000001705
 30
0.0
 11
36.5
 21
81.0000000000001705
 31
0.0
  0
LINE
  5
868
  8
0
 10
37.0
 20
80.7113248654051745
 30
0.0
 11
37.0
 21
68.2886751345949392
 31
0.0
  0
LINE
  5
869
  8
0
 10
25.0
 20
53.71453117981644
 30
0.0
 11
25.0
 21
57.2854688201837803
 31
0.0
  0
LINE
  5
86A
  8
0
 10
31.773000000000021
 20
166.0
 30
0.0
 11
18.2270000000000003
 21
166.0
 31
0.0
  0
LINE
  5
86B
  8
0
 10
33.0
 20
164.7730000000001098
 30
0.0
 11
17.0
 21
164.7730000000001098
 31
0.0
  0
LINE
  5
86C
  8
0
 10
33.0
 20
58.0000000000000568
 30
0.0
 11
17.0
 21
58.0000000000000568
 31
0.0
  0
LINE
  5
86D
  8
0
 10
33.0
 20
53.0000000000000568
 30
0.0
 11
17.0
 21
53.0000000000000568
 31
0.0
  0
LINE
  5
86E
  8
0
 10
25.0
 20
30.9999999999999396
 30
0.0
 11
49.4000000000000128
 21
31.0000000000000604
 31
0.0
  0
LINE
  5
86F
  8
0
 10
0.5999999999999944
 20
31.0000000000000604
 30
0.0
 11
25.0
 21
30.9999999999999396
 31
0.0
  0
LINE
  5
871
  8
0
 10
5.000000000000056
 20
25.0000000000000604
 30
0.0
 11
45.0
 21
25.0000000000000604
 31
0.0
  0
LINE
  5
872
  8
0
 10
14.9167375444869208
 20
50.0000000000000568
 30
0.0
 11
35.0832624555130792
 21
50.0000000000000568
 31
0.0
  0
LINE
  5
873
  8
2
 10
15.8000000000000096
 20
31.0000000000000604
 30
0.0
 11
15.8000000000000096
 21
25.0000000000000604
 31
0.0
  0
LINE
  5
874
  8
2
 10
34.1999999999999886
 20
25.0000000000000604
 30
0.0
 11
34.1999999999999886
 21
31.0000000000000604
 31
0.0
  0
LINE
  5
875
  8
0
 10
86.1435935394492844
 20
69.3604719043193825
 30
0.0
 11
88.5000000000003553
 21
68.0000000000000853
 31
0.0
  0
LINE
  5
876
  8
0
 10
111.5000000000002984
 20
68.0000000000000853
 30
0.0
 11
113.8564064605512982
 21
69.3604719043193825
 31
0.0
  0
LINE
  5
877
  8
0
 10
113.8564064605512982
 20
79.6395280956806744
 30
0.0
 11
111.5000000000002984
 21
81.0000000000000853
 31
0.0
  0
LINE
  5
878
  8
0
 10
88.5000000000003553
 20
81.0000000000000853
 30
0.0
 11
86.1435935394492844
 21
79.6395280956806744
 31
0.0
  0
LINE
  5
879
  8
0
 10
107.9999999999999005
 20
164.7729999999999961
 30
0.0
 11
106.7729999999998967
 21
165.9999999999998863
 31
0.0
  0
LINE
  5
87A
  8
0
 10
93.2269999999999186
 20
165.9999999999998863
 30
0.0
 11
91.9999999999999289
 21
164.7729999999999961
 31
0.0
  0
LINE
  5
87B
  8
0
 10
108.0000000000000995
 20
57.9999999999999716
 30
0.0
 11
108.0000000000000995
 21
68.0000000000000853
 31
0.0
  0
LINE
  5
87C
  8
0
 10
108.0
 20
81.0000000000000853
 30
0.0
 11
107.9999999999999005
 21
164.7729999999999961
 31
0.0
  0
LINE
  5
87D
  8
0
 10
91.9999999999998863
 20
164.7729999999999961
 30
0.0
 11
92.0000000000000568
 21
81.0000000000000853
 31
0.0
  0
LINE
  5
87E
  8
0
 10
92.0000000000001137
 20
68.0000000000000853
 30
0.0
 11
92.0000000000001705
 21
57.9999999999999716
 31
0.0
  0
LINE
  5
87F
  8
0
 10
105.5000000000000995
 20
49.9999999999999716
 30
0.0
 11
105.5000000000000995
 21
52.9999999999999716
 31
0.0
  0
LINE
  5
880
  8
0
 10
94.5000000000001705
 20
52.9999999999999716
 30
0.0
 11
94.5000000000001705
 21
49.9999999999999716
 31
0.0
  0
LINE
  5
881
  8
0
 10
109.2376043070341041
 20
57.2854688201837021
 30
0.0
 11
108.0000000000000995
 21
57.9999999999999716
 31
0.0
  0
LINE
  5
882
  8
0
 10
108.0000000000000995
 20
52.9999999999999716
 30
0.0
 11
109.2376043070342035
 21
53.7145311798163618
 31
0.0
  0
LINE
  5
883
  8
0
 10
90.7623956929661659
 20
53.7145311798162481
 30
0.0
 11
92.0000000000001705
 21
52.9999999999999716
 31
0.0
  0
LINE
  5
884
  8
0
 10
92.0000000000001705
 20
57.9999999999999716
 30
0.0
 11
90.7623956929661659
 21
57.2854688201837021
 31
0.0
  0
LINE
  5
885
  8
0
 10
75.0000000000002274
 20
37.3333333333332291
 30
0.0
 11
75.0000000000002274
 21
31.5999999999998806
 31
0.0
  0
LINE
  5
886
  8
0
 10
125.000000000000199
 20
31.6000000000001116
 30
0.0
 11
125.000000000000199
 21
37.3333333333333428
 31
0.0
  0
LINE
  5
887
  8
0
 10
75.0000000000002274
 20
31.5999999999998806
 30
0.0
 11
75.6000000000002501
 21
30.9999999999998614
 31
0.0
  0
LINE
  5
888
  8
0
 10
124.4000000000002046
 20
31.0000000000000817
 30
0.0
 11
125.000000000000199
 21
31.6000000000001116
 31
0.0
  0
LINE
  5
889
  8
0
 10
125.000000000000199
 20
37.3333333333333428
 30
0.0
 11
111.2000000000002018
 21
43.6666666666666003
 31
0.0
  0
LINE
  5
88A
  8
0
 10
88.8000000000001819
 20
43.6666666666666003
 30
0.0
 11
75.0000000000002274
 21
37.3333333333332291
 31
0.0
  0
LINE
  5
88B
  8
0
 10
80.0000000000002842
 20
30.9999999999998614
 30
0.0
 11
80.0000000000002842
 21
24.9999999999999716
 31
0.0
  0
LINE
  5
88C
  8
0
 10
120.0000000000002984
 20
25.0000000000000888
 30
0.0
 11
120.000000000000199
 21
31.0000000000000817
 31
0.0
  0
LINE
  5
88D
  8
0
 10
111.2000000000002018
 20
43.6666666666666003
 30
0.0
 11
110.0832624555132071
 21
49.9999999999999716
 31
0.0
  0
LINE
  5
88E
  8
0
 10
89.9167375444871055
 20
49.9999999999999716
 30
0.0
 11
88.8000000000001819
 21
43.6666666666666003
 31
0.0
  0
LINE
  5
88F
  8
0
 10
111.5000000000002984
 20
68.0000000000000853
 30
0.0
 11
88.5000000000003553
 21
68.0000000000000853
 31
0.0
  0
LINE
  5
890
  8
0
 10
88.5000000000003553
 20
81.0000000000000853
 30
0.0
 11
111.5000000000002984
 21
81.0000000000000853
 31
0.0
  0
LINE
  5
891
  8
0
 10
113.8564064605512982
 20
79.6395280956806744
 30
0.0
 11
113.8564064605512982
 21
69.3604719043193825
 31
0.0
  0
LINE
  5
892
  8
0
 10
106.9282032302757983
 20
79.6395280956806744
 30
0.0
 11
106.9282032302757983
 21
69.3604719043193825
 31
0.0
  0
LINE
  5
893
  8
0
 10
93.0717967697248127
 20
79.6395280956806744
 30
0.0
 11
93.0717967697248127
 21
69.3604719043193825
 31
0.0
  0
LINE
  5
894
  8
0
 10
86.1435935394492844
 20
79.6395280956806744
 30
0.0
 11
86.1435935394492844
 21
69.3604719043193825
 31
0.0
  0
LINE
  5
895
  8
0
 10
109.2376043070342035
 20
53.7145311798163618
 30
0.0
 11
109.2376043070341041
 21
57.2854688201838087
 31
0.0
  0
LINE
  5
896
  8
0
 10
104.6188021535170947
 20
53.7145311798163618
 30
0.0
 11
104.6188021535170947
 21
57.2854688201838087
 31
0.0
  0
LINE
  5
897
  8
0
 10
106.7729999999998967
 20
165.9999999999998863
 30
0.0
 11
93.2269999999999186
 21
165.9999999999998863
 31
0.0
  0
LINE
  5
898
  8
0
 10
107.9999999999999005
 20
164.7729999999999961
 30
0.0
 11
91.9999999999998863
 21
164.7729999999999961
 31
0.0
  0
LINE
  5
899
  8
0
 10
108.0000000000000995
 20
57.9999999999999716
 30
0.0
 11
92.0000000000001705
 21
57.9999999999999716
 31
0.0
  0
LINE
  5
89A
  8
0
 10
95.3811978464831469
 20
53.7145311798163618
 30
0.0
 11
95.3811978464831469
 21
57.2854688201837021
 31
0.0
  0
LINE
  5
89B
  8
0
 10
90.7623956929661659
 20
53.7145311798163618
 30
0.0
 11
90.7623956929661659
 21
57.2854688201837021
 31
0.0
  0
LINE
  5
89C
  8
0
 10
108.0000000000000995
 20
52.9999999999999716
 30
0.0
 11
92.0000000000001705
 21
52.9999999999999716
 31
0.0
  0
LINE
  5
89D
  8
0
 10
75.6000000000002501
 20
30.9999999999998614
 30
0.0
 11
124.4000000000002046
 21
31.0000000000000817
 31
0.0
  0
LINE
  5
89E
  8
0
 10
80.0000000000002842
 20
24.9999999999999716
 30
0.0
 11
120.0000000000002984
 21
25.0000000000000888
 31
0.0
  0
LINE
  5
89F
  8
0
 10
89.9167375444871055
 20
49.9999999999999716
 30
0.0
 11
110.0832624555132071
 21
49.9999999999999716
 31
0.0
  0
LINE
  5
8A0
  8
2
 10
90.8000000000002387
 20
30.9999999999999716
 30
0.0
 11
90.8000000000002387
 21
24.9999999999999716
 31
0.0
  0
LINE
  5
8A1
  8
2
 10
109.2000000000002018
 20
24.9999999999999716
 30
0.0
 11
109.2000000000002018
 21
30.9999999999999716
 31
0.0
  0
CIRCLE
  5
8A2
  8
0
 10
24.9999966244820691
 20
215.0000000000005116
 30
0.0
 40
11.5
  0
CIRCLE
  5
8A9
  8
0
 10
24.9999966244820691
 20
215.0000000000001137
 30
0.0
 40
8.0
  0
CIRCLE
  5
8AA
  8
0
 10
24.9999966244820691
 20
215.0000000000003979
 30
0.0
 40
25.0
  0
LINE
  5
8AB
  8
0
 10
125.000000000000199
 20
37.3333333333333428
 30
0.0
 11
75.0000000000002274
 21
37.3333333333333428
 31
0.0
  0
LINE
  5
8AC
  8
0
 10
50.0
 20
37.3333333333334281
 30
0.0
 11
0.0
 21
37.3333333333334281
 31
0.0
  0
LINE
  5
8AD
  8
0
 10
13.7999999999999794
 20
43.6666666666666785
 30
0.0
 11
36.1999999999999886
 21
43.6666666666666785
 31
0.0
  0
LINE
  5
8AE
  8
0
 10
88.8000000000001819
 20
43.6666666666666003
 30
0.0
 11
111.2000000000002018
 21
43.6666666666666003
 31
0.0
  0
LINE
  5
8AF
  8
1
 10
-3.9194330932225219
 20
215.0000000000001137
 30
0.0
 11
53.9194263421867106
 21
215.0000000000001137
 31
0.0
  0
LINE
  5
8B0
  8
1
 10
24.9999966244820691
 20
186.0805702822956107
 30
0.0
 11
24.9999966244820691
 21
243.9194297177047019
 31
0.0
  0
CIRCLE
  5
8B1
  8
3
 10
24.9999966244820691
 20
215.0000000000001137
 30
0.0
 40
6.9175000000000004
  0
ARC
  5
8B2
  8
0
 10
21.0000000000000284
 20
64.5534180126140313
 30
0.0
 40
11.5534180126139692
 50
249.7438419995814911
 51
290.2561580004185089
  0
ARC
  5
8B3
  8
0
 10
29.0000000000001705
 20
64.5534180126149408
 30
0.0
 40
11.5534180126148698
 50
249.7438419995831111
 51
290.2561580004150983
  0
ARC
  5
8B4
  8
0
 10
28.9999999999998899
 20
46.4465819873838086
 30
0.0
 40
11.55341801261625
 50
69.7438419995849159
 51
110.2561580004116024
  0
ARC
  5
8B5
  8
0
 10
20.9999999999997193
 20
46.4465819873844907
 30
0.0
 40
11.5534180126155608
 50
69.7438419995831822
 51
110.2561580004150983
  0
ARC
  5
8B6
  8
0
 10
19.0
 20
85.621614196777216
 30
0.0
 40
17.33276517626539
 50
249.7470602977776934
 51
290.2529397022221929
  0
ARC
  5
8B7
  8
0
 10
31.0
 20
85.6216141967771023
 30
0.0
 40
17.3327651762652692
 50
249.7470602977776934
 51
290.2529397022221929
  0
ARC
  5
8B8
  8
0
 10
31.0
 20
63.3783858032213132
 30
0.0
 40
17.3327651762669817
 50
69.747060297779484
 51
110.2529397022205018
  0
ARC
  5
8B9
  8
0
 10
19.0
 20
63.3783858032214127
 30
0.0
 40
17.3327651762668786
 50
69.7470602977794698
 51
110.2529397022205018
  0
ARC
  5
8BA
  8
0
 10
93.0717967697246564
 20
53.9106836025225391
 30
0.0
 40
4.0893163974773978
 50
55.6157525319616326
 51
115.6157525319571988
  0
ARC
  5
8BB
  8
0
 10
100.0000000000003979
 20
42.7145311798148768
 30
0.0
 40
15.2854688201850895
 50
72.412046226009025
 51
107.5879537739926946
  0
ARC
  5
8BC
  8
0
 10
106.928203230275102
 20
53.9106836025234486
 30
0.0
 40
4.0893163974765141
 50
64.3842474679778007
 51
124.3842474680382963
  0
ARC
  5
8BD
  8
0
 10
106.9282032302756988
 20
57.0893163974767219
 30
0.0
 40
4.0893163974767424
 50
235.6157525319557919
 51
295.6157525319607089
  0
ARC
  5
8BE
  8
0
 10
100.0000000000000995
 20
68.2854688201822171
 30
0.0
 40
15.2854688201822295
 50
252.4120462260056001
 51
287.5879537739943999
  0
ARC
  5
8BF
  8
0
 10
93.0717967697246991
 20
57.0893163974770701
 30
0.0
 40
4.0893163974770976
 50
244.3842474680319867
 51
304.3842474680383248
  0
ARC
  5
8C0
  8
0
 10
89.6076951545870202
 20
74.423644796229695
 30
0.0
 40
6.1347958183932496
 50
244.3789991178682897
 51
304.3789991178671812
  0
ARC
  5
8C1
  8
0
 10
100.0000000000002984
 20
91.2318160240180021
 30
0.0
 40
22.9424430608920815
 50
252.4233186188131981
 51
287.5766813811868019
  0
ARC
  5
8C2
  8
0
 10
110.3923048454136051
 20
74.4236447962293539
 30
0.0
 40
6.1347958183929361
 50
235.6210008821308861
 51
295.6210008821335009
  0
ARC
  5
8C3
  8
0
 10
110.3923048454135056
 20
74.5763552037693387
 30
0.0
 40
6.1347958183940952
 50
64.3789991178556704
 51
124.378999117861099
  0
ARC
  5
8C4
  8
0
 10
100.0000000000002984
 20
57.7674769444964511
 30
0.0
 40
22.9431170846513091
 50
72.4238518185429427
 51
107.5761481814570004
  0
ARC
  5
8C5
  8
0
 10
89.607695154587077
 20
74.5763552037697934
 30
0.0
 40
6.1347958183937346
 50
55.6210008821387589
 51
115.6210008821407058
  0
LINE
  5
8C6
  8
1
 10
25.0000000000000604
 20
170.0000000000001137
 30
0.0
 11
25.0
 21
21.0000000000000604
 31
0.0
  0
LINE
  5
8C7
  8
3
 10
18.0824999999999783
 20
81.0000000000001705
 30
0.0
 11
18.0824999999999783
 21
165.8555000000000916
 31
0.0
  0
LINE
  5
8C8
  8
3
 10
31.9175000000000502
 20
81.0000000000001705
 30
0.0
 11
31.9175000000000217
 21
165.8554999999998927
 31
0.0
  0
LINE
  5
8C9
  8
3
 10
18.0825000000000102
 20
60.0000000000000568
 30
0.0
 11
18.0825000000000102
 21
68.0000000000001705
 31
0.0
  0
LINE
  5
8CA
  8
3
 10
31.9175000000000999
 20
60.0000000000000568
 30
0.0
 11
33.0000000000000284
 21
58.6560170647420023
 31
0.0
  0
LINE
  5
8CC
  8
3
 10
31.9175000000000999
 20
60.0000000000000568
 30
0.0
 11
31.9175000000000999
 21
68.0000000000001705
 31
0.0
  0
LINE
  5
8CD
  8
3
 10
18.0825000000000102
 20
60.0000000000000568
 30
0.0
 11
17.0
 21
58.6560170647420023
 31
0.0
  0
LINE
  5
8CE
  8
1
 10
99.9999999999998863
 20
170.0000000000001137
 30
0.0
 11
100.0000000000002984
 21
20.9999999999999183
 31
0.0
  0
LINE
  5
8CF
  8
3
 10
93.0824999999998113
 20
81.0000000000000853
 30
0.0
 11
93.0824999999998113
 21
165.8555000000000916
 31
0.0
  0
LINE
  5
8D0
  8
3
 10
106.917499999999805
 20
81.0000000000000853
 30
0.0
 11
106.917499999999805
 21
165.8554999999998074
 31
0.0
  0
LINE
  5
8D1
  8
3
 10
93.0824999999998113
 20
59.9999999999999716
 30
0.0
 11
93.0824999999998113
 21
68.0000000000000853
 31
0.0
  0
LINE
  5
8D2
  8
3
 10
106.9174999999999045
 20
59.9999999999999716
 30
0.0
 11
107.999999999999801
 21
58.6560170647419099
 31
0.0
  0
LINE
  5
8D4
  8
3
 10
106.9174999999999045
 20
59.9999999999999716
 30
0.0
 11
106.9174999999999045
 21
68.0000000000000853
 31
0.0
  0
LINE
  5
8D5
  8
3
 10
93.0824999999998113
 20
59.9999999999999716
 30
0.0
 11
91.9999999999998295
 21
58.6560170647419099
 31
0.0
  0
POLYLINE
  5
8E0
  8
0
 66
     1
 10
0.0
 20
0.0
 30
0.0
  0
VERTEX
  5
960
  8
0
 10
12.9999966244820602
 20
208.071796769724898
 30
0.0
  0
VERTEX
  5
961
  8
0
 10
13.2218169876046794
 20
207.9437287233643872
 30
0.0
  0
VERTEX
  5
962
  8
0
 10
13.44372333093383
 20
207.815611036308411
 30
0.0
  0
VERTEX
  5
963
  8
0
 10
13.6658016346761109
 20
207.6873940678615895
 30
0.0
  0
VERTEX
  5
964
  8
0
 10
13.8881378790380499
 20
207.5590281773287131
 30
0.0
  0
VERTEX
  5
965
  8
0
 10
14.1108180442262494
 20
207.4304637240140892
 30
0.0
  0
VERTEX
  5
966
  8
0
 10
14.3339281104472001
 20
207.3016510672225081
 30
0.0
  0
VERTEX
  5
967
  8
0
 10
14.5575540579075309
 20
207.1725405662585899
 30
0.0
  0
VERTEX
  5
968
  8
0
 10
14.7817626594273506
 20
207.0430936698163862
 30
0.0
  0
VERTEX
  5
969
  8
0
 10
15.0065409832761496
 20
206.9133178440343102
 30
0.0
  0
VERTEX
  5
96A
  8
0
 10
15.2318554261412107
 20
206.7832324897939031
 30
0.0
  0
VERTEX
  5
96B
  8
0
 10
15.4576723846732609
 20
206.6528570079977953
 30
0.0
  0
VERTEX
  5
96C
  8
0
 10
15.6839582555230592
 20
206.5222107995487875
 30
0.0
  0
VERTEX
  5
96D
  8
0
 10
15.9106794353413292
 20
206.3913132653497939
 30
0.0
  0
VERTEX
  5
96E
  8
0
 10
16.1378023207787997
 20
206.2601838063033028
 30
0.0
  0
VERTEX
  5
96F
  8
0
 10
16.3652950347509716
 20
206.1288408266526915
 30
0.0
  0
VERTEX
  5
970
  8
0
 10
16.5931330877119194
 20
205.9972984654440893
 30
0.0
  0
VERTEX
  5
971
  8
0
 10
16.8212939659306286
 20
205.8655697209860023
 30
0.0
  0
VERTEX
  5
972
  8
0
 10
17.04975515569717
 20
205.7336675915748003
 30
0.0
  0
VERTEX
  5
973
  8
0
 10
17.2784941433016002
 20
205.6016050755073081
 30
0.0
  0
VERTEX
  5
974
  8
0
 10
17.5074884150339685
 20
205.4693951710796966
 30
0.0
  0
VERTEX
  5
975
  8
0
 10
17.7367154571843102
 20
205.3370508765887053
 30
0.0
  0
VERTEX
  5
976
  8
0
 10
17.9661512458595993
 20
205.2045860622353075
 30
0.0
  0
VERTEX
  5
977
  8
0
 10
18.19576096145056
 20
205.0720208311302883
 30
0.0
  0
VERTEX
  5
978
  8
0
 10
18.4255050850792088
 20
204.9393779995085936
 30
0.0
  0
VERTEX
  5
979
  8
0
 10
18.6553440785299891
 20
204.8066803947695007
 30
0.0
  0
VERTEX
  5
97A
  8
0
 10
18.8852384035872092
 20
204.6739508443124862
 30
0.0
  0
VERTEX
  5
97B
  8
0
 10
19.1151485220353301
 20
204.5412121755371118
 30
0.0
  0
VERTEX
  5
97C
  8
0
 10
19.3450348956586708
 20
204.4084872158427117
 30
0.0
  0
VERTEX
  5
97D
  8
0
 10
19.5748582216231988
 20
204.2757986567310127
 30
0.0
  0
VERTEX
  5
97E
  8
0
 10
19.8045821646069804
 20
204.1431674764100137
 30
0.0
  0
VERTEX
  5
97F
  8
0
 10
20.0341724196395887
 20
204.0106134808636114
 30
0.0
  0
VERTEX
  5
980
  8
0
 10
20.2635947211960001
 20
203.878156453301898
 30
0.0
  0
VERTEX
  5
981
  8
0
 10
20.4928148037511804
 20
203.7458161769349942
 30
0.0
  0
VERTEX
  5
982
  8
0
 10
20.7217984017800916
 20
203.6136124349729926
 30
0.0
  0
VERTEX
  5
983
  8
0
 10
20.9505117019930083
 20
203.4815647495277915
 30
0.0
  0
VERTEX
  5
984
  8
0
 10
21.1789295880356896
 20
203.3496876215334055
 30
0.0
  0
VERTEX
  5
985
  8
0
 10
21.4070347873225408
 20
203.2179910233215878
 30
0.0
  0
VERTEX
  5
986
  8
0
 10
21.63481030829956
 20
203.0864847649706917
 30
0.0
  0
VERTEX
  5
987
  8
0
 10
21.8622391594127485
 20
202.9551786565590135
 30
0.0
  0
VERTEX
  5
988
  8
0
 10
22.0893043491080299
 20
202.8240825081649064
 30
0.0
  0
VERTEX
  5
989
  8
0
 10
22.3159886480168304
 20
202.6932062671687902
 30
0.0
  0
VERTEX
  5
98A
  8
0
 10
22.5422671812408488
 20
202.5625642951000884
 30
0.0
  0
VERTEX
  5
98B
  8
0
 10
22.7681059794635701
 20
202.4321762041527109
 30
0.0
  0
VERTEX
  5
98C
  8
0
 10
22.9934705430378301
 20
202.3020619127073019
 30
0.0
  0
VERTEX
  5
98D
  8
0
 10
23.2183263723162803
 20
202.1722413391445912
 30
0.0
  0
VERTEX
  5
98E
  8
0
 10
23.4426389676517317
 20
202.0427344018449958
 30
0.0
  0
VERTEX
  5
98F
  8
0
 10
23.6663740549847184
 20
201.9135608889461935
 30
0.0
  0
VERTEX
  5
990
  8
0
 10
23.8895360791208908
 20
201.7847182342383121
 30
0.0
  0
VERTEX
  5
991
  8
0
 10
24.1122117782279908
 20
201.6561563594167978
 30
0.0
  0
VERTEX
  5
992
  8
0
 10
24.3344984173118597
 20
201.5278191085045023
 30
0.0
  0
VERTEX
  5
993
  8
0
 10
24.5564932613782787
 20
201.3996503255239929
 30
0.0
  0
VERTEX
  5
994
  8
0
 10
24.7782935754330893
 20
201.2715938544980929
 30
0.0
  0
VERTEX
  5
995
  8
0
 10
24.9999966244820691
 20
201.1435935394495118
 30
0.0
  0
SEQEND
  5
996
  8
0
  0
POLYLINE
  5
8E1
  8
0
 66
     1
 10
0.0
 20
0.0
 30
0.0
  0
VERTEX
  5
997
  8
0
 10
36.9999966244820584
 20
208.071796769724898
 30
0.0
  0
VERTEX
  5
998
  8
0
 10
36.7781762613594481
 20
207.9437287233643872
 30
0.0
  0
VERTEX
  5
999
  8
0
 10
36.5562699180303028
 20
207.815611036308411
 30
0.0
  0
VERTEX
  5
99A
  8
0
 10
36.3341916142880166
 20
207.6873940678615895
 30
0.0
  0
VERTEX
  5
99B
  8
0
 10
36.1118553699260829
 20
207.5590281773287131
 30
0.0
  0
VERTEX
  5
99C
  8
0
 10
35.8891752047378816
 20
207.4304637240140892
 30
0.0
  0
VERTEX
  5
99D
  8
0
 10
35.666065138516899
 20
207.3016510672225081
 30
0.0
  0
VERTEX
  5
99E
  8
0
 10
35.442439191056593
 20
207.1725405662585899
 30
0.0
  0
VERTEX
  5
99F
  8
0
 10
35.218230589536752
 20
207.0430936698163862
 30
0.0
  0
VERTEX
  5
9A0
  8
0
 10
34.9934522656879494
 20
206.9133178440343102
 30
0.0
  0
VERTEX
  5
9A1
  8
0
 10
34.7681378228228866
 20
206.7832324897939031
 30
0.0
  0
VERTEX
  5
9A2
  8
0
 10
34.5423208642908435
 20
206.6528570079977953
 30
0.0
  0
VERTEX
  5
9A3
  8
0
 10
34.3160349934410434
 20
206.5222107995487875
 30
0.0
  0
VERTEX
  5
9A4
  8
0
 10
34.0893138136227734
 20
206.3913132653497939
 30
0.0
  0
VERTEX
  5
9A5
  8
0
 10
33.8621909281852993
 20
206.2601838063033028
 30
0.0
  0
VERTEX
  5
9A6
  8
0
 10
33.6346982142131594
 20
206.1288408266526915
 30
0.0
  0
VERTEX
  5
9A7
  8
0
 10
33.4068601612522116
 20
205.9972984654440893
 30
0.0
  0
VERTEX
  5
9A8
  8
0
 10
33.1786992830335024
 20
205.8655697209860023
 30
0.0
  0
VERTEX
  5
9A9
  8
0
 10
32.950238093266961
 20
205.7336675915748003
 30
0.0
  0
VERTEX
  5
9AA
  8
0
 10
32.7214991056625308
 20
205.6016050755073081
 30
0.0
  0
VERTEX
  5
9AB
  8
0
 10
32.4925048339301767
 20
205.4693951710796966
 30
0.0
  0
VERTEX
  5
9AC
  8
0
 10
32.2632777917798208
 20
205.3370508765887053
 30
0.0
  0
VERTEX
  5
9AD
  8
0
 10
32.0338420031045175
 20
205.2045860622353075
 30
0.0
  0
VERTEX
  5
9AE
  8
0
 10
31.804232287513571
 20
205.0720208311302883
 30
0.0
  0
VERTEX
  5
9AF
  8
0
 10
31.5744881638849186
 20
204.9393779995085936
 30
0.0
  0
VERTEX
  5
9B0
  8
0
 10
31.3446491704341383
 20
204.8066803947695007
 30
0.0
  0
VERTEX
  5
9B1
  8
0
 10
31.1147548453768898
 20
204.6739508443125999
 30
0.0
  0
VERTEX
  5
9B2
  8
0
 10
30.8848447269288116
 20
204.541212175537197
 30
0.0
  0
VERTEX
  5
9B3
  8
0
 10
30.6549583533054602
 20
204.4084872158427117
 30
0.0
  0
VERTEX
  5
9B4
  8
0
 10
30.4251350273409287
 20
204.2757986567310127
 30
0.0
  0
VERTEX
  5
9B5
  8
0
 10
30.1954110843571506
 20
204.1431674764100137
 30
0.0
  0
VERTEX
  5
9B6
  8
0
 10
29.9658208293245387
 20
204.0106134808636114
 30
0.0
  0
VERTEX
  5
9B7
  8
0
 10
29.7363985277681309
 20
203.8781564533020116
 30
0.0
  0
VERTEX
  5
9B8
  8
0
 10
29.5071784452129613
 20
203.7458161769349942
 30
0.0
  0
VERTEX
  5
9B9
  8
0
 10
29.2781948471840394
 20
203.6136124349729926
 30
0.0
  0
VERTEX
  5
9BA
  8
0
 10
29.0494815469711192
 20
203.4815647495277915
 30
0.0
  0
VERTEX
  5
9BB
  8
0
 10
28.8210636609284485
 20
203.3496876215334055
 30
0.0
  0
VERTEX
  5
9BC
  8
0
 10
28.5929584616415902
 20
203.2179910233215878
 30
0.0
  0
VERTEX
  5
9BD
  8
0
 10
28.365182940664571
 20
203.0864847649706917
 30
0.0
  0
VERTEX
  5
9BE
  8
0
 10
28.1377540895513789
 20
202.9551786565590135
 30
0.0
  0
VERTEX
  5
9BF
  8
0
 10
27.9106888998561011
 20
202.8240825081649064
 30
0.0
  0
VERTEX
  5
9C0
  8
0
 10
27.6840046009473006
 20
202.6932062671687902
 30
0.0
  0
VERTEX
  5
9C1
  8
0
 10
27.4577260677232893
 20
202.5625642951000884
 30
0.0
  0
VERTEX
  5
9C2
  8
0
 10
27.231887269500529
 20
202.4321762041527109
 30
0.0
  0
VERTEX
  5
9C3
  8
0
 10
27.0065227059263009
 20
202.3020619127073019
 30
0.0
  0
VERTEX
  5
9C4
  8
0
 10
26.7816668766478188
 20
202.1722413391445059
 30
0.0
  0
VERTEX
  5
9C5
  8
0
 10
26.5573542813123993
 20
202.0427344018449958
 30
0.0
  0
VERTEX
  5
9C6
  8
0
 10
26.3336191939794197
 20
201.9135608889461935
 30
0.0
  0
VERTEX
  5
9C7
  8
0
 10
26.1104571698432508
 20
201.7847182342383121
 30
0.0
  0
VERTEX
  5
9C8
  8
0
 10
25.8877814707361509
 20
201.6561563594167978
 30
0.0
  0
VERTEX
  5
9C9
  8
0
 10
25.6654948316522713
 20
201.5278191085045023
 30
0.0
  0
VERTEX
  5
9CA
  8
0
 10
25.4434999875858594
 20
201.3996503255239929
 30
0.0
  0
VERTEX
  5
9CB
  8
0
 10
25.2216996735310488
 20
201.2715938544980929
 30
0.0
  0
VERTEX
  5
9CC
  8
0
 10
24.9999966244820691
 20
201.1435935394495118
 30
0.0
  0
SEQEND
  5
9CD
  8
0
  0
POLYLINE
  5
8E2
  8
0
 66
     1
 10
0.0
 20
0.0
 30
0.0
  0
VERTEX
  5
9CE
  8
0
 10
36.9999966244820584
 20
208.071796769724898
 30
0.0
  0
VERTEX
  5
9CF
  8
0
 10
36.9999966244820584
 20
208.3604688566425125
 30
0.0
  0
VERTEX
  5
9D0
  8
0
 10
36.9999966244820584
 20
208.6493007886143118
 30
0.0
  0
VERTEX
  5
9D1
  8
0
 10
36.9999966244820584
 20
208.9384524106943104
 30
0.0
  0
VERTEX
  5
9D2
  8
0
 10
36.9999966244820584
 20
209.228083567936693
 30
0.0
  0
VERTEX
  5
9D3
  8
0
 10
36.9999966244820584
 20
209.5183541053957867
 30
0.0
  0
VERTEX
  5
9D4
  8
0
 10
36.9999966244820584
 20
209.8094210074071952
 30
0.0
  0
VERTEX
  5
9D5
  8
0
 10
36.9999966244820584
 20
210.1013470863314012
 30
0.0
  0
VERTEX
  5
9D6
  8
0
 10
36.9999966244820584
 20
210.3940818562637105
 30
0.0
  0
VERTEX
  5
9D7
  8
0
 10
36.9999966244820584
 20
210.6875681042807003
 30
0.0
  0
VERTEX
  5
9D8
  8
0
 10
36.9999966244820584
 20
210.9817486174588055
 30
0.0
  0
VERTEX
  5
9D9
  8
0
 10
36.9999966244820584
 20
211.2765661828742907
 30
0.0
  0
VERTEX
  5
9DA
  8
0
 10
36.9999966244820584
 20
211.5719643605094973
 30
0.0
  0
VERTEX
  5
9DB
  8
0
 10
36.9999966244820584
 20
211.8679018613476046
 30
0.0
  0
VERTEX
  5
9DC
  8
0
 10
36.9999966244820584
 20
212.1643512179489903
 30
0.0
  0
VERTEX
  5
9DD
  8
0
 10
36.9999966244820584
 20
212.4612854691918074
 30
0.0
  0
VERTEX
  5
9DE
  8
0
 10
36.9999966244820584
 20
212.7586776539544076
 30
0.0
  0
VERTEX
  5
9DF
  8
0
 10
36.9999966244820584
 20
213.0565008111148018
 30
0.0
  0
VERTEX
  5
9E0
  8
0
 10
36.9999966244820584
 20
213.3547261602498963
 30
0.0
  0
VERTEX
  5
9E1
  8
0
 10
36.9999966244820584
 20
213.6533018175464065
 30
0.0
  0
VERTEX
  5
9E2
  8
0
 10
36.9999966244820584
 20
213.9521600102117134
 30
0.0
  0
VERTEX
  5
9E3
  8
0
 10
36.9999966244820584
 20
214.2512326527221944
 30
0.0
  0
VERTEX
  5
9E4
  8
0
 10
36.9999966244820584
 20
214.5504516595543123
 30
0.0
  0
VERTEX
  5
9E5
  8
0
 10
36.9999966244820584
 20
214.8497489451847002
 30
0.0
  0
VERTEX
  5
9E6
  8
0
 10
36.9999966244820584
 20
215.1490572712739038
 30
0.0
  0
VERTEX
  5
9E7
  8
0
 10
36.9999966244820584
 20
215.4483218430256102
 30
0.0
  0
VERTEX
  5
9E8
  8
0
 10
36.9999966244820584
 20
215.7474973269995928
 30
0.0
  0
VERTEX
  5
9E9
  8
0
 10
36.9999966244820584
 20
216.0465386264314986
 30
0.0
  0
VERTEX
  5
9EA
  8
0
 10
36.9999966244820584
 20
216.345400644557202
 30
0.0
  0
VERTEX
  5
9EB
  8
0
 10
36.9999966244820584
 20
216.6440382846124066
 30
0.0
  0
VERTEX
  5
9EC
  8
0
 10
36.9999966244820584
 20
216.942405749614494
 30
0.0
  0
VERTEX
  5
9ED
  8
0
 10
36.9999966244820584
 20
217.2404452504366077
 30
0.0
  0
VERTEX
  5
9EE
  8
0
 10
36.9999966244820584
 20
217.5380889245822971
 30
0.0
  0
VERTEX
  5
9EF
  8
0
 10
36.9999966244820584
 20
217.8352685967525133
 30
0.0
  0
VERTEX
  5
9F0
  8
0
 10
36.9999966244820584
 20
218.1319160916482929
 30
0.0
  0
VERTEX
  5
9F1
  8
0
 10
36.9999966244820584
 20
218.427963233970587
 30
0.0
  0
VERTEX
  5
9F2
  8
0
 10
36.9999966244820584
 20
218.723341848420489
 30
0.0
  0
VERTEX
  5
9F3
  8
0
 10
36.9999966244820584
 20
219.0179837596990069
 30
0.0
  0
VERTEX
  5
9F4
  8
0
 10
36.9999966244820584
 20
219.3118207925070919
 30
0.0
  0
VERTEX
  5
9F5
  8
0
 10
36.9999966244820584
 20
219.6048008044062101
 30
0.0
  0
VERTEX
  5
9F6
  8
0
 10
36.9999966244820584
 20
219.896979434034705
 30
0.0
  0
VERTEX
  5
9F7
  8
0
 10
36.9999966244820584
 20
220.1884567331053972
 30
0.0
  0
VERTEX
  5
9F8
  8
0
 10
36.9999966244820584
 20
220.4793328916977941
 30
0.0
  0
VERTEX
  5
9F9
  8
0
 10
36.9999966244820584
 20
220.7697080998916022
 30
0.0
  0
VERTEX
  5
9FA
  8
0
 10
36.9999966244820584
 20
221.0596825477666982
 30
0.0
  0
VERTEX
  5
9FB
  8
0
 10
36.9999966244820584
 20
221.3493564254025898
 30
0.0
  0
VERTEX
  5
9FC
  8
0
 10
36.9999966244820584
 20
221.638829922879097
 30
0.0
  0
VERTEX
  5
9FD
  8
0
 10
36.9999966244820584
 20
221.9282032302758978
 30
0.0
  0
SEQEND
  5
9FE
  8
0
  0
POLYLINE
  5
8E3
  8
0
 66
     1
 10
0.0
 20
0.0
 30
0.0
  0
VERTEX
  5
9FF
  8
0
 10
36.9999966244820584
 20
221.9282032302758978
 30
0.0
  0
VERTEX
  5
A00
  8
0
 10
36.7781762613594481
 20
222.0562712766364939
 30
0.0
  0
VERTEX
  5
A01
  8
0
 10
36.5562699180303028
 20
222.1843889636924985
 30
0.0
  0
VERTEX
  5
A02
  8
0
 10
36.3341916142880166
 20
222.3126059321392916
 30
0.0
  0
VERTEX
  5
A03
  8
0
 10
36.1118553699260829
 20
222.4409718226723101
 30
0.0
  0
VERTEX
  5
A04
  8
0
 10
35.8891752047378816
 20
222.5695362759869056
 30
0.0
  0
VERTEX
  5
A05
  8
0
 10
35.666065138516899
 20
222.6983489327784866
 30
0.0
  0
VERTEX
  5
A06
  8
0
 10
35.442439191056593
 20
222.8274594337424901
 30
0.0
  0
VERTEX
  5
A07
  8
0
 10
35.218230589536752
 20
222.9569063301846938
 30
0.0
  0
VERTEX
  5
A08
  8
0
 10
34.9934522656879494
 20
223.0866821559667983
 30
0.0
  0
VERTEX
  5
A09
  8
0
 10
34.7681378228228866
 20
223.2167675102072053
 30
0.0
  0
VERTEX
  5
A0A
  8
0
 10
34.5423208642908435
 20
223.3471429920033131
 30
0.0
  0
VERTEX
  5
A0B
  8
0
 10
34.3160349934410434
 20
223.4777892004522073
 30
0.0
  0
VERTEX
  5
A0C
  8
0
 10
34.0893138136227734
 20
223.6086867346512861
 30
0.0
  0
VERTEX
  5
A0D
  8
0
 10
33.8621909281852993
 20
223.7398161936976919
 30
0.0
  0
VERTEX
  5
A0E
  8
0
 10
33.6346982142131594
 20
223.8711591733481896
 30
0.0
  0
VERTEX
  5
A0F
  8
0
 10
33.4068601612522116
 20
224.0027015345567918
 30
0.0
  0
VERTEX
  5
A10
  8
0
 10
33.1786992830335024
 20
224.1344302790149925
 30
0.0
  0
VERTEX
  5
A11
  8
0
 10
32.950238093266961
 20
224.2663324084261092
 30
0.0
  0
VERTEX
  5
A12
  8
0
 10
32.7214991056625308
 20
224.3983949244936014
 30
0.0
  0
VERTEX
  5
A13
  8
0
 10
32.4925048339301625
 20
224.5306048289212129
 30
0.0
  0
VERTEX
  5
A14
  8
0
 10
32.2632777917798208
 20
224.6629491234122042
 30
0.0
  0
VERTEX
  5
A15
  8
0
 10
32.0338420031045601
 20
224.795413937765602
 30
0.0
  0
VERTEX
  5
A16
  8
0
 10
31.8042322875135994
 20
224.9279791688705927
 30
0.0
  0
VERTEX
  5
A17
  8
0
 10
31.5744881638849186
 20
225.0606220004922875
 30
0.0
  0
VERTEX
  5
A18
  8
0
 10
31.3446491704341703
 20
225.1933196052314941
 30
0.0
  0
VERTEX
  5
A19
  8
0
 10
31.1147548453769183
 20
225.3260491556883949
 30
0.0
  0
VERTEX
  5
A1A
  8
0
 10
30.8848447269288293
 20
225.4587878244637977
 30
0.0
  0
VERTEX
  5
A1B
  8
0
 10
30.6549583533054886
 20
225.5915127841583114
 30
0.0
  0
VERTEX
  5
A1C
  8
0
 10
30.4251350273409287
 20
225.7242013432698968
 30
0.0
  0
VERTEX
  5
A1D
  8
0
 10
30.1954110843571506
 20
225.8568325235908958
 30
0.0
  0
VERTEX
  5
A1E
  8
0
 10
29.9658208293245387
 20
225.9893865191372981
 30
0.0
  0
VERTEX
  5
A1F
  8
0
 10
29.7363985277681309
 20
226.1218435466990115
 30
0.0
  0
VERTEX
  5
A20
  8
0
 10
29.5071784452129613
 20
226.2541838230658868
 30
0.0
  0
VERTEX
  5
A21
  8
0
 10
29.2781948471840394
 20
226.3863875650278885
 30
0.0
  0
VERTEX
  5
A22
  8
0
 10
29.0494815469711192
 20
226.5184352504732033
 30
0.0
  0
VERTEX
  5
A23
  8
0
 10
28.8210636609284485
 20
226.6503123784675893
 30
0.0
  0
VERTEX
  5
A24
  8
0
 10
28.5929584616415902
 20
226.7820089766794069
 30
0.0
  0
VERTEX
  5
A25
  8
0
 10
28.365182940664571
 20
226.9135152350303883
 30
0.0
  0
VERTEX
  5
A26
  8
0
 10
28.1377540895513789
 20
227.0448213434420097
 30
0.0
  0
VERTEX
  5
A27
  8
0
 10
27.9106888998561011
 20
227.1759174918362021
 30
0.0
  0
VERTEX
  5
A28
  8
0
 10
27.6840046009473006
 20
227.3067937328322046
 30
0.0
  0
VERTEX
  5
A29
  8
0
 10
27.4577260677232893
 20
227.4374357049009063
 30
0.0
  0
VERTEX
  5
A2A
  8
0
 10
27.231887269500529
 20
227.5678237958483123
 30
0.0
  0
VERTEX
  5
A2B
  8
0
 10
27.0065227059263009
 20
227.6979380872936929
 30
0.0
  0
VERTEX
  5
A2C
  8
0
 10
26.7816668766478188
 20
227.8277586608564036
 30
0.0
  0
VERTEX
  5
A2D
  8
0
 10
26.5573542813123993
 20
227.957265598155999
 30
0.0
  0
VERTEX
  5
A2E
  8
0
 10
26.3336191939794197
 20
228.0864391110548013
 30
0.0
  0
VERTEX
  5
A2F
  8
0
 10
26.1104571698432508
 20
228.2152817657627111
 30
0.0
  0
VERTEX
  5
A30
  8
0
 10
25.8877814707361509
 20
228.3438436405841969
 30
0.0
  0
VERTEX
  5
A31
  8
0
 10
25.6654948316522713
 20
228.4721808914964924
 30
0.0
  0
VERTEX
  5
A32
  8
0
 10
25.4434999875858594
 20
228.6003496744770018
 30
0.0
  0
VERTEX
  5
A33
  8
0
 10
25.2216996735310488
 20
228.7284061455029018
 30
0.0
  0
VERTEX
  5
A34
  8
0
 10
24.9999966244820691
 20
228.8564064605515114
 30
0.0
  0
SEQEND
  5
A35
  8
0
  0
POLYLINE
  5
8E4
  8
0
 66
     1
 10
0.0
 20
0.0
 30
0.0
  0
VERTEX
  5
A36
  8
0
 10
12.9999966244820602
 20
221.9282032302758978
 30
0.0
  0
VERTEX
  5
A37
  8
0
 10
13.2218169876046794
 20
222.0562712766364939
 30
0.0
  0
VERTEX
  5
A38
  8
0
 10
13.44372333093383
 20
222.1843889636924985
 30
0.0
  0
VERTEX
  5
A39
  8
0
 10
13.6658016346761109
 20
222.3126059321392916
 30
0.0
  0
VERTEX
  5
A3A
  8
0
 10
13.8881378790380499
 20
222.4409718226723101
 30
0.0
  0
VERTEX
  5
A3B
  8
0
 10
14.1108180442262494
 20
222.5695362759869056
 30
0.0
  0
VERTEX
  5
A3C
  8
0
 10
14.3339281104472001
 20
222.6983489327784866
 30
0.0
  0
VERTEX
  5
A3D
  8
0
 10
14.5575540579075309
 20
222.8274594337424901
 30
0.0
  0
VERTEX
  5
A3E
  8
0
 10
14.7817626594273506
 20
222.9569063301846938
 30
0.0
  0
VERTEX
  5
A3F
  8
0
 10
15.0065409832761496
 20
223.0866821559667983
 30
0.0
  0
VERTEX
  5
A40
  8
0
 10
15.2318554261412107
 20
223.2167675102072053
 30
0.0
  0
VERTEX
  5
A41
  8
0
 10
15.4576723846732609
 20
223.3471429920033131
 30
0.0
  0
VERTEX
  5
A42
  8
0
 10
15.6839582555230592
 20
223.4777892004522073
 30
0.0
  0
VERTEX
  5
A43
  8
0
 10
15.9106794353413292
 20
223.6086867346512861
 30
0.0
  0
VERTEX
  5
A44
  8
0
 10
16.1378023207787997
 20
223.7398161936976919
 30
0.0
  0
VERTEX
  5
A45
  8
0
 10
16.3652950347509716
 20
223.8711591733481896
 30
0.0
  0
VERTEX
  5
A46
  8
0
 10
16.5931330877119194
 20
224.0027015345567918
 30
0.0
  0
VERTEX
  5
A47
  8
0
 10
16.8212939659306286
 20
224.1344302790149925
 30
0.0
  0
VERTEX
  5
A48
  8
0
 10
17.04975515569717
 20
224.2663324084261092
 30
0.0
  0
VERTEX
  5
A49
  8
0
 10
17.2784941433016002
 20
224.3983949244936014
 30
0.0
  0
VERTEX
  5
A4A
  8
0
 10
17.5074884150339685
 20
224.5306048289212129
 30
0.0
  0
VERTEX
  5
A4B
  8
0
 10
17.7367154571843102
 20
224.6629491234122042
 30
0.0
  0
VERTEX
  5
A4C
  8
0
 10
17.9661512458595816
 20
224.795413937765602
 30
0.0
  0
VERTEX
  5
A4D
  8
0
 10
18.1957609614505316
 20
224.9279791688705927
 30
0.0
  0
VERTEX
  5
A4E
  8
0
 10
18.4255050850791804
 20
225.0606220004922875
 30
0.0
  0
VERTEX
  5
A4F
  8
0
 10
18.6553440785299607
 20
225.1933196052314941
 30
0.0
  0
VERTEX
  5
A50
  8
0
 10
18.8852384035871808
 20
225.3260491556883949
 30
0.0
  0
VERTEX
  5
A51
  8
0
 10
19.1151485220353017
 20
225.4587878244637977
 30
0.0
  0
VERTEX
  5
A52
  8
0
 10
19.3450348956586389
 20
225.5915127841583114
 30
0.0
  0
VERTEX
  5
A53
  8
0
 10
19.5748582216231988
 20
225.7242013432698968
 30
0.0
  0
VERTEX
  5
A54
  8
0
 10
19.8045821646069804
 20
225.8568325235908958
 30
0.0
  0
VERTEX
  5
A55
  8
0
 10
20.0341724196395887
 20
225.9893865191372981
 30
0.0
  0
VERTEX
  5
A56
  8
0
 10
20.2635947211960001
 20
226.1218435466990115
 30
0.0
  0
VERTEX
  5
A57
  8
0
 10
20.4928148037511804
 20
226.2541838230658868
 30
0.0
  0
VERTEX
  5
A58
  8
0
 10
20.7217984017800916
 20
226.3863875650278885
 30
0.0
  0
VERTEX
  5
A59
  8
0
 10
20.9505117019930083
 20
226.5184352504732033
 30
0.0
  0
VERTEX
  5
A5A
  8
0
 10
21.1789295880356896
 20
226.6503123784675893
 30
0.0
  0
VERTEX
  5
A5B
  8
0
 10
21.4070347873225408
 20
226.7820089766794069
 30
0.0
  0
VERTEX
  5
A5C
  8
0
 10
21.63481030829956
 20
226.9135152350303883
 30
0.0
  0
VERTEX
  5
A5D
  8
0
 10
21.8622391594127485
 20
227.0448213434420097
 30
0.0
  0
VERTEX
  5
A5E
  8
0
 10
22.0893043491080299
 20
227.1759174918362021
 30
0.0
  0
VERTEX
  5
A5F
  8
0
 10
22.3159886480168304
 20
227.3067937328322046
 30
0.0
  0
VERTEX
  5
A60
  8
0
 10
22.5422671812408488
 20
227.4374357049009063
 30
0.0
  0
VERTEX
  5
A61
  8
0
 10
22.7681059794635701
 20
227.5678237958483123
 30
0.0
  0
VERTEX
  5
A62
  8
0
 10
22.9934705430378301
 20
227.6979380872936929
 30
0.0
  0
VERTEX
  5
A63
  8
0
 10
23.2183263723162803
 20
227.8277586608564036
 30
0.0
  0
VERTEX
  5
A64
  8
0
 10
23.4426389676517317
 20
227.957265598155999
 30
0.0
  0
VERTEX
  5
A65
  8
0
 10
23.6663740549847184
 20
228.0864391110548013
 30
0.0
  0
VERTEX
  5
A66
  8
0
 10
23.8895360791208908
 20
228.2152817657627111
 30
0.0
  0
VERTEX
  5
A67
  8
0
 10
24.1122117782279908
 20
228.3438436405841969
 30
0.0
  0
VERTEX
  5
A68
  8
0
 10
24.3344984173118597
 20
228.4721808914964924
 30
0.0
  0
VERTEX
  5
A69
  8
0
 10
24.5564932613782787
 20
228.6003496744770018
 30
0.0
  0
VERTEX
  5
A6A
  8
0
 10
24.7782935754330893
 20
228.7284061455029018
 30
0.0
  0
VERTEX
  5
A6B
  8
0
 10
24.9999966244820691
 20
228.8564064605515114
 30
0.0
  0
SEQEND
  5
A6C
  8
0
  0
POLYLINE
  5
8E5
  8
0
 66
     1
 10
0.0
 20
0.0
 30
0.0
  0
VERTEX
  5
A6D
  8
0
 10
12.9999966244820602
 20
208.071796769724898
 30
0.0
  0
VERTEX
  5
A6E
  8
0
 10
12.9999966244820602
 20
208.3604688566425125
 30
0.0
  0
VERTEX
  5
A6F
  8
0
 10
12.9999966244820602
 20
208.6493007886143118
 30
0.0
  0
VERTEX
  5
A70
  8
0
 10
12.9999966244820602
 20
208.9384524106943104
 30
0.0
  0
VERTEX
  5
A71
  8
0
 10
12.9999966244820602
 20
209.228083567936693
 30
0.0
  0
VERTEX
  5
A72
  8
0
 10
12.9999966244820602
 20
209.5183541053957867
 30
0.0
  0
VERTEX
  5
A73
  8
0
 10
12.9999966244820602
 20
209.8094210074071952
 30
0.0
  0
VERTEX
  5
A74
  8
0
 10
12.9999966244820602
 20
210.1013470863314012
 30
0.0
  0
VERTEX
  5
A75
  8
0
 10
12.9999966244820602
 20
210.3940818562637105
 30
0.0
  0
VERTEX
  5
A76
  8
0
 10
12.9999966244820602
 20
210.6875681042807003
 30
0.0
  0
VERTEX
  5
A77
  8
0
 10
12.9999966244820602
 20
210.9817486174588055
 30
0.0
  0
VERTEX
  5
A78
  8
0
 10
12.9999966244820602
 20
211.2765661828742054
 30
0.0
  0
VERTEX
  5
A79
  8
0
 10
12.9999966244820602
 20
211.5719643605094973
 30
0.0
  0
VERTEX
  5
A7A
  8
0
 10
12.9999966244820602
 20
211.8679018613476046
 30
0.0
  0
VERTEX
  5
A7B
  8
0
 10
12.9999966244820602
 20
212.1643512179489903
 30
0.0
  0
VERTEX
  5
A7C
  8
0
 10
12.9999966244820602
 20
212.4612854691918074
 30
0.0
  0
VERTEX
  5
A7D
  8
0
 10
12.9999966244820602
 20
212.7586776539544076
 30
0.0
  0
VERTEX
  5
A7E
  8
0
 10
12.9999966244820602
 20
213.0565008111148018
 30
0.0
  0
VERTEX
  5
A7F
  8
0
 10
12.9999966244820602
 20
213.3547261602498963
 30
0.0
  0
VERTEX
  5
A80
  8
0
 10
12.9999966244820602
 20
213.6533018175464065
 30
0.0
  0
VERTEX
  5
A81
  8
0
 10
12.9999966244820602
 20
213.9521600102117134
 30
0.0
  0
VERTEX
  5
A82
  8
0
 10
12.9999966244820602
 20
214.2512326527221944
 30
0.0
  0
VERTEX
  5
A83
  8
0
 10
12.9999966244820602
 20
214.5504516595543123
 30
0.0
  0
VERTEX
  5
A84
  8
0
 10
12.9999966244820602
 20
214.8497489451847002
 30
0.0
  0
VERTEX
  5
A85
  8
0
 10
12.9999966244820602
 20
215.1490572712739038
 30
0.0
  0
VERTEX
  5
A86
  8
0
 10
12.9999966244820602
 20
215.4483218430256102
 30
0.0
  0
VERTEX
  5
A87
  8
0
 10
12.9999966244820602
 20
215.7474973269995928
 30
0.0
  0
VERTEX
  5
A88
  8
0
 10
12.9999966244820602
 20
216.0465386264314986
 30
0.0
  0
VERTEX
  5
A89
  8
0
 10
12.9999966244820602
 20
216.345400644557202
 30
0.0
  0
VERTEX
  5
A8A
  8
0
 10
12.9999966244820602
 20
216.6440382846124066
 30
0.0
  0
VERTEX
  5
A8B
  8
0
 10
12.9999966244820602
 20
216.942405749614494
 30
0.0
  0
VERTEX
  5
A8C
  8
0
 10
12.9999966244820602
 20
217.2404452504366077
 30
0.0
  0
VERTEX
  5
A8D
  8
0
 10
12.9999966244820602
 20
217.5380889245822971
 30
0.0
  0
VERTEX
  5
A8E
  8
0
 10
12.9999966244820602
 20
217.8352685967525133
 30
0.0
  0
VERTEX
  5
A8F
  8
0
 10
12.9999966244820602
 20
218.1319160916482929
 30
0.0
  0
VERTEX
  5
A90
  8
0
 10
12.9999966244820602
 20
218.427963233970587
 30
0.0
  0
VERTEX
  5
A91
  8
0
 10
12.9999966244820602
 20
218.723341848420489
 30
0.0
  0
VERTEX
  5
A92
  8
0
 10
12.9999966244820602
 20
219.0179837596990069
 30
0.0
  0
VERTEX
  5
A93
  8
0
 10
12.9999966244820602
 20
219.3118207925070919
 30
0.0
  0
VERTEX
  5
A94
  8
0
 10
12.9999966244820602
 20
219.6048008044062101
 30
0.0
  0
VERTEX
  5
A95
  8
0
 10
12.9999966244820602
 20
219.896979434034705
 30
0.0
  0
VERTEX
  5
A96
  8
0
 10
12.9999966244820602
 20
220.1884567331053972
 30
0.0
  0
VERTEX
  5
A97
  8
0
 10
12.9999966244820602
 20
220.4793328916977941
 30
0.0
  0
VERTEX
  5
A98
  8
0
 10
12.9999966244820602
 20
220.7697080998916022
 30
0.0
  0
VERTEX
  5
A99
  8
0
 10
12.9999966244820602
 20
221.0596825477666982
 30
0.0
  0
VERTEX
  5
A9A
  8
0
 10
12.9999966244820602
 20
221.3493564254025898
 30
0.0
  0
VERTEX
  5
A9B
  8
0
 10
12.9999966244820602
 20
221.638829922879097
 30
0.0
  0
VERTEX
  5
A9C
  8
0
 10
12.9999966244820602
 20
221.9282032302758978
 30
0.0
  0
SEQEND
  5
A9D
  8
0
  0
LINE
  5
8ED
  8
0
 10
33.0
 20
60.0000000000000568
 30
0.0
 11
17.0
 21
60.0000000000000568
 31
0.0
  0
LINE
  5
8EE
  8
0
 10
108.0000000000000995
 20
59.9999999999999716
 30
0.0
 11
92.0000000000001705
 21
59.9999999999999716
 31
0.0
  0
ENDSEC
  0
EOF
