  0
SECTION
  2
HEADER
  9
$ACADVER
  1
AC1009
  9
$INSBASE
 10
0.0
 20
0.0
 30
0.0
  9
$EXTMIN
 10
-4.0
 20
-2.960436562073669
 30
0.0
  9
$EXTMAX
 10
133.5538881309686019
 20
178.9194297177047872
 30
0.0
  9
$LIMMIN
 10
0.0
 20
0.0
  9
$LIMMAX
 10
375.0
 20
270.0
  9
$ORTHOMODE
 70
     1
  9
$REGENMODE
 70
     1
  9
$FILLMODE
 70
     1
  9
$QTEXTMODE
 70
     0
  9
$MIRRTEXT
 70
     0
  9
$DRAGMODE
 70
     2
  9
$LTSCALE
 40
6.0
  9
$OSMODE
 70
    37
  9
$ATTMODE
 70
     1
  9
$TEXTSIZE
 40
0.2
  9
$TRACEWID
 40
0.05
  9
$TEXTSTYLE
  7
STANDARD
  9
$CLAYER
  8
0
  9
$CELTYPE
  6
BYLAYER
  9
$CECOLOR
 62
   256
  9
$DIMSCALE
 40
1.0
  9
$DIMASZ
 40
3.0
  9
$DIMEXO
 40
1.0
  9
$DIMDLI
 40
6.0
  9
$DIMRND
 40
0.0
  9
$DIMDLE
 40
0.0
  9
$DIMEXE
 40
1.0
  9
$DIMTP
 40
495.0
  9
$DIMTM
 40
0.0
  9
$DIMTXT
 40
3.0
  9
$DIMCEN
 40
0.0
  9
$DIMTSZ
 40
0.0
  9
$DIMTOL
 70
     0
  9
$DIMLIM
 70
     0
  9
$DIMTIH
 70
     0
  9
$DIMTOH
 70
     0
  9
$DIMSE1
 70
     0
  9
$DIMSE2
 70
     0
  9
$DIMTAD
 70
     1
  9
$DIMZIN
 70
     0
  9
$DIMBLK
  1

  9
$DIMASO
 70
     0
  9
$DIMSHO
 70
     0
  9
$DIMPOST
  1

  9
$DIMAPOST
  1

  9
$DIMALT
 70
     0
  9
$DIMALTD
 70
     2
  9
$DIMALTF
 40
25.3999999999999986
  9
$DIMLFAC
 40
1.0
  9
$DIMTOFL
 70
     1
  9
$DIMTVP
 40
0.0
  9
$DIMTIX
 70
     1
  9
$DIMSOXD
 70
     0
  9
$DIMSAH
 70
     0
  9
$DIMBLK1
  1

  9
$DIMBLK2
  1

  9
$DIMSTYLE
  2
STANDARD
  9
$DIMCLRD
 70
     0
  9
$DIMCLRE
 70
     0
  9
$DIMCLRT
 70
     4
  9
$DIMTFAC
 40
1.0
  9
$DIMGAP
 40
1.0
  9
$LUNITS
 70
     2
  9
$LUPREC
 70
     4
  9
$SKETCHINC
 40
0.1
  9
$FILLETRAD
 40
0.0
  9
$AUNITS
 70
     0
  9
$AUPREC
 70
     0
  9
$MENU
  1
C:\R13\WIN\SUPPORT\ACAD-I
  9
$ELEVATION
 40
0.0
  9
$PELEVATION
 40
0.0
  9
$THICKNESS
 40
0.0
  9
$LIMCHECK
 70
     0
  9
$BLIPMODE
 70
     0
  9
$CHAMFERA
 40
0.0
  9
$CHAMFERB
 40
0.0
  9
$SKPOLY
 70
     0
  9
$TDCREATE
 40
2451961.7115277778357267
  9
$TDUPDATE
 40
2460580.5718287038616836
  9
$TDINDWG
 40
0.2351419792
  9
$TDUSRTIMER
 40
2456598.1966178361326456
  9
$USRTIMER
 70
     1
  9
$ANGBASE
 50
0.0
  9
$ANGDIR
 70
     0
  9
$PDMODE
 70
     0
  9
$PDSIZE
 40
0.0
  9
$PLINEWID
 40
0.0
  9
$COORDS
 70
     1
  9
$SPLFRAME
 70
     0
  9
$SPLINETYPE
 70
     6
  9
$SPLINESEGS
 70
     8
  9
$ATTDIA
 70
     1
  9
$ATTREQ
 70
     1
  9
$HANDLING
 70
     1
  9
$HANDSEED
  5
7A7
  9
$SURFTAB1
 70
     6
  9
$SURFTAB2
 70
     6
  9
$SURFTYPE
 70
     6
  9
$SURFU
 70
     6
  9
$SURFV
 70
     6
  9
$UCSNAME
  2

  9
$UCSORG
 10
0.0
 20
0.0
 30
0.0
  9
$UCSXDIR
 10
1.0
 20
0.0
 30
0.0
  9
$UCSYDIR
 10
0.0
 20
1.0
 30
0.0
  9
$PUCSNAME
  2

  9
$PUCSORG
 10
0.0
 20
0.0
 30
0.0
  9
$PUCSXDIR
 10
1.0
 20
0.0
 30
0.0
  9
$PUCSYDIR
 10
0.0
 20
1.0
 30
0.0
  9
$USERI1
 70
     4
  9
$USERI2
 70
     1
  9
$USERI3
 70
     0
  9
$USERI4
 70
     0
  9
$USERI5
 70
     0
  9
$USERR1
 40
1.0
  9
$USERR2
 40
3.0
  9
$USERR3
 40
3.0
  9
$USERR4
 40
3.0
  9
$USERR5
 40
10.0
  9
$WORLDVIEW
 70
     1
  9
$SHADEDGE
 70
     3
  9
$SHADEDIF
 70
    70
  9
$TILEMODE
 70
     1
  9
$MAXACTVP
 70
    16
  9
$PLIMCHECK
 70
     0
  9
$PEXTMIN
 10
1.0000000000000000E+20
 20
1.0000000000000000E+20
 30
1.0000000000000000E+20
  9
$PEXTMAX
 10
-1.0000000000000000E+20
 20
-1.0000000000000000E+20
 30
-1.0000000000000000E+20
  9
$PLIMMIN
 10
0.0
 20
0.0
  9
$PLIMMAX
 10
12.0
 20
9.0
  9
$UNITMODE
 70
     0
  9
$VISRETAIN
 70
     0
  9
$PLINEGEN
 70
     0
  9
$PSLTSCALE
 70
     0
  0
ENDSEC
  0
SECTION
  2
TABLES
  0
TABLE
  2
VPORT
 70
     1
  0
VPORT
  2
*ACTIVE
 70
     0
 10
0.0
 20
0.0
 11
1.0
 21
1.0
 12
223.109605911329993
 22
95.0
 13
0.0
 23
0.0
 14
10.0
 24
10.0
 15
10.0
 25
10.0
 16
0.0
 26
0.0
 36
1.0
 17
0.0
 27
0.0
 37
0.0
 40
190.0
 41
2.3485221674876842
 42
50.0
 43
0.0
 44
0.0
 50
0.0
 51
0.0
 71
    16
 72
   100
 73
     1
 74
     0
 75
     0
 76
     0
 77
     0
 78
     0
  0
ENDTAB
  0
TABLE
  2
LTYPE
 70
     3
  0
LTYPE
  2
CONTINUOUS
 70
     0
  3
Solid Line
 72
    65
 73
     0
 40
0.0
  0
LTYPE
  2
CENTER
 70
     0
  3
____ _ ____ _ ____ _ ____ _ ____ _ ____ _ ____
 72
    65
 73
     4
 40
2.0
 49
1.25
 49
-0.25
 49
0.25
 49
-0.25
  0
LTYPE
  2
HIDDEN
 70
     0
  3
Hidden __ __ __ __ __ __ __ __ __ __ __ __ __ __
 72
    65
 73
     2
 40
1.905
 49
1.27
 49
-0.635
  0
ENDTAB
  0
TABLE
  2
LAYER
 70
     4
  0
LAYER
  2
0
 70
     0
 62
     7
  6
CONTINUOUS
  0
LAYER
  2
1
 70
     0
 62
     1
  6
CENTER
  0
LAYER
  2
3
 70
     0
 62
     3
  6
CONTINUOUS
  0
LAYER
  2
2
 70
     0
 62
     2
  6
HIDDEN
  0
ENDTAB
  0
TABLE
  2
STYLE
 70
     2
  0
STYLE
  2
STANDARD
 70
     0
 40
0.0
 41
1.0
 50
0.0
 71
     0
 42
0.2
  3
SIMPLEX
  4
BIGFONT
  0
STYLE
  2
STANDARD1
 70
     0
 40
0.0
 41
1.0
 50
0.0
 71
     0
 42
3.0
  3
txt
  4

  0
ENDTAB
  0
TABLE
  2
VIEW
 70
     0
  0
ENDTAB
  0
TABLE
  2
UCS
 70
     0
  0
ENDTAB
  0
TABLE
  2
APPID
 70
     8
  0
APPID
  2
ACAD
 70
     0
  0
APPID
  2
ACAD_NAV_VCDISPLAY
 70
     0
  0
APPID
  2
ACAECLAYERSTANDARD
 70
     0
  0
APPID
  2
ACCMTRANSPARENCY
 70
     0
  0
APPID
  2
ACAD_EXEMPT_FROM_CAD_STANDARDS
 70
     0
  0
APPID
  2
ACAD_TC
 70
     0
  0
APPID
  2
ACAD_DSTYLE_DIMRADIAL_EXTENSION
 70
     0
  0
APPID
  2
ACAD_MLEADERVER
 70
     0
  0
ENDTAB
  0
TABLE
  2
DIMSTYLE
 70
     1
  0
DIMSTYLE
  2
STANDARD
 70
     0
  3

  4

  5

  6

  7

 40
1.0
 41
0.18
 42
0.0625
 43
0.38
 44
0.18
 45
0.0
 46
0.0
 47
0.0
 48
0.0
140
0.18
141
0.09
142
0.0
143
25.3999999999999986
144
1.0
145
0.0
146
1.0
147
0.09
 71
     0
 72
     0
 73
     1
 74
     1
 75
     0
 76
     0
 77
     0
 78
     0
170
     0
171
     2
172
     0
173
     0
174
     0
175
     0
176
     0
177
     0
178
     0
  0
ENDTAB
  0
ENDSEC
  0
SECTION
  2
BLOCKS
  0
BLOCK
  8
0
  2
$MODEL_SPACE
 70
     0
 10
0.0
 20
0.0
 30
0.0
  3
$MODEL_SPACE
  1

  0
ENDBLK
  5
F
  8
0
  0
BLOCK
 67
     1
  8
0
  2
$PAPER_SPACE
 70
     0
 10
0.0
 20
0.0
 30
0.0
  3
$PAPER_SPACE
  1

  0
ENDBLK
  5
14
 67
     1
  8
0
  0
ENDSEC
  0
SECTION
  2
ENTITIES
  0
TEXT
  5
59
  8
0
 62
     3
 10
0.0
 20
0.0
 30
0.0
 40
10.0
  1
LSVA50-M8X43-SUS
  7
STANDARD1
  0
LINE
  5
39C
  8
0
 10
31.4999966244820904
 20
74.355662432702573
 30
0.0
 11
31.2499966244820904
 21
74.5
 31
0.0
  0
LINE
  5
39D
  8
0
 10
18.7499966244820904
 20
74.5
 30
0.0
 11
18.4999966244820904
 21
74.355662432702573
 31
0.0
  0
LINE
  5
39E
  8
0
 10
18.4999966244820904
 20
68.1443375672974128
 30
0.0
 11
18.7499966244820904
 21
68.0
 31
0.0
  0
LINE
  5
39F
  8
0
 10
31.2499966244820904
 20
68.0
 30
0.0
 11
31.4999966244820904
 21
68.1443375672974128
 31
0.0
  0
LINE
  5
3A0
  8
0
 10
30.5
 20
49.9999999999999716
 30
0.0
 11
30.5
 21
53.0
 31
0.0
  0
LINE
  5
3A1
  8
0
 10
19.5
 20
53.0
 30
0.0
 11
19.5
 21
49.9999999999999716
 31
0.0
  0
LINE
  5
3A2
  8
0
 10
29.0
 20
100.2330000000000041
 30
0.0
 11
28.2330000000000112
 21
101.0
 31
0.0
  0
LINE
  5
3A3
  8
0
 10
21.7669999999999995
 20
101.0
 30
0.0
 11
21.0
 21
100.2330000000000041
 31
0.0
  0
LINE
  5
3A4
  8
0
 10
29.0
 20
58.0
 30
0.0
 11
29.0
 21
68.0
 31
0.0
  0
LINE
  5
3A5
  8
0
 10
29.0
 20
74.5
 30
0.0
 11
29.0
 21
100.2330000000000041
 31
0.0
  0
LINE
  5
3A6
  8
0
 10
21.0
 20
100.2330000000000041
 30
0.0
 11
21.0
 21
74.5
 31
0.0
  0
LINE
  5
3A7
  8
0
 10
21.0
 20
68.0
 30
0.0
 11
21.0
 21
58.0
 31
0.0
  0
LINE
  5
3A8
  8
0
 10
-0.0000033755179061
 20
37.3333333333333286
 30
0.0
 11
-0.0000033755179061
 21
31.6000000000000192
 31
0.0
  0
LINE
  5
3A9
  8
0
 10
49.9999966244820868
 20
31.6000000000000192
 30
0.0
 11
49.9999966244820868
 21
37.3333333333333286
 31
0.0
  0
LINE
  5
3AA
  8
0
 10
-0.0000033755179061
 20
31.6000000000000192
 30
0.0
 11
0.5999966244821167
 21
31.0
 31
0.0
  0
LINE
  5
3AB
  8
0
 10
49.3999966244820996
 20
31.0
 30
0.0
 11
49.9999966244820868
 21
31.6000000000000192
 31
0.0
  0
LINE
  5
3AC
  8
0
 10
49.9999966244820868
 20
37.3333333333333286
 30
0.0
 11
36.1999966244821394
 21
43.6666666666666714
 31
0.0
  0
LINE
  5
3AD
  8
0
 10
13.7999966244820804
 20
43.6666666666666714
 30
0.0
 11
-0.0000033755179061
 21
37.3333333333333286
 31
0.0
  0
LINE
  5
3AE
  8
0
 10
4.999996624482093
 20
31.0
 30
0.0
 11
4.999996624482093
 21
25.0
 31
0.0
  0
LINE
  5
3AF
  8
0
 10
44.9999966244820868
 20
25.0
 30
0.0
 11
44.9999966244820868
 21
31.0
 31
0.0
  0
LINE
  5
3B0
  8
0
 10
36.1999966244821394
 20
43.6666666666666714
 30
0.0
 11
35.0832590799951731
 21
49.9999999999999432
 31
0.0
  0
LINE
  5
3B1
  8
0
 10
14.9167341689690396
 20
50.0
 30
0.0
 11
13.7999966244820804
 21
43.6666666666666714
 31
0.0
  0
LINE
  5
3B2
  8
0
 10
24.9999966244820904
 20
73.7751058491018199
 30
0.0
 11
24.9999966244820904
 21
68.7248941508981801
 31
0.0
  0
LINE
  5
3B3
  8
0
 10
31.4999966244820904
 20
74.355662432702573
 30
0.0
 11
31.4999966244820904
 21
68.1443375672974128
 31
0.0
  0
LINE
  5
3B4
  8
0
 10
18.7499966244820904
 20
74.5
 30
0.0
 11
31.2499966244820904
 21
74.5
 31
0.0
  0
LINE
  5
3B5
  8
0
 10
18.4999966244820904
 20
74.355662432702573
 30
0.0
 11
18.4999966244820904
 21
68.1443375672974128
 31
0.0
  0
LINE
  5
3B6
  8
0
 10
31.2499966244820904
 20
68.0
 30
0.0
 11
18.7499966244820904
 21
68.0
 31
0.0
  0
LINE
  5
3B7
  8
0
 10
25.0
 20
53.6252147823392775
 30
0.0
 11
25.0
 21
57.3747852176606727
 31
0.0
  0
LINE
  5
3B8
  8
0
 10
18.0
 20
53.0
 30
0.0
 11
18.0
 21
58.0
 31
0.0
  0
LINE
  5
3B9
  8
0
 10
32.0
 20
52.9999999999998934
 30
0.0
 11
32.0
 21
57.9999999999999432
 31
0.0
  0
LINE
  5
3BA
  8
0
 10
32.0
 20
57.9999999999999432
 30
0.0
 11
18.0
 21
58.0
 31
0.0
  0
LINE
  5
3BB
  8
0
 10
32.0
 20
52.9999999999998934
 30
0.0
 11
18.0
 21
53.0
 31
0.0
  0
LINE
  5
3BC
  8
0
 10
28.2330000000000112
 20
101.0
 30
0.0
 11
21.7669999999999995
 21
101.0
 31
0.0
  0
LINE
  5
3BD
  8
0
 10
29.0
 20
100.2330000000000041
 30
0.0
 11
21.0
 21
100.2330000000000041
 31
0.0
  0
LINE
  5
3BE
  8
0
 10
24.9999966244820904
 20
30.9999999999999183
 30
0.0
 11
49.3999966244820712
 21
31.0
 31
0.0
  0
LINE
  5
3BF
  8
0
 10
0.5999966244821735
 20
31.0
 30
0.0
 11
24.9999966244820904
 21
30.9999999999999183
 31
0.0
  0
LINE
  5
3C0
  8
0
 10
4.999996624482093
 20
25.0
 30
0.0
 11
44.9999966244820868
 21
25.0
 31
0.0
  0
LINE
  5
3C1
  8
0
 10
14.9167341689690396
 20
50.0
 30
0.0
 11
35.0832590799951731
 21
49.9999999999999432
 31
0.0
  0
LINE
  5
3C2
  8
2
 10
15.7999966244821
 20
31.0
 30
0.0
 11
15.7999966244821
 21
25.0
 31
0.0
  0
LINE
  5
3C3
  8
2
 10
34.1999966244820826
 20
25.0
 30
0.0
 11
34.1999966244820826
 21
31.0
 31
0.0
  0
LINE
  5
3C4
  8
0
 10
107.5056292690655937
 20
73.7751058491018199
 30
0.0
 11
106.2500757696004996
 21
74.5
 31
0.0
  0
LINE
  5
3C5
  8
0
 10
93.7500757696004712
 20
74.5
 30
0.0
 11
92.4945222701353345
 21
73.7751058491018199
 31
0.0
  0
LINE
  5
3C6
  8
0
 10
92.4945222701353345
 20
68.7248941508981801
 30
0.0
 11
93.7500757696004712
 21
68.0
 31
0.0
  0
LINE
  5
3C7
  8
0
 10
106.2500757696004996
 20
68.0
 30
0.0
 11
107.5056292690655937
 21
68.7248941508981659
 31
0.0
  0
LINE
  5
3C8
  8
0
 10
105.5000000000000995
 20
50.0000000000000071
 30
0.0
 11
105.5000000000000995
 21
53.0000000000000071
 31
0.0
  0
LINE
  5
3C9
  8
0
 10
94.5000000000001137
 20
52.9999999999999787
 30
0.0
 11
94.5000000000001137
 21
49.9999999999999929
 31
0.0
  0
LINE
  5
3CA
  8
0
 10
104.0000000000000995
 20
58.0000000000000284
 30
0.0
 11
104.0
 21
68.0
 31
0.0
  0
LINE
  5
3CB
  8
0
 10
104.0
 20
74.5
 30
0.0
 11
104.0
 21
100.2330000000000041
 31
0.0
  0
LINE
  5
3CC
  8
0
 10
95.9999999999999432
 20
100.2330000000000041
 30
0.0
 11
96.0000000000000568
 21
74.5
 31
0.0
  0
LINE
  5
3CD
  8
0
 10
96.0000000000000568
 20
68.0
 30
0.0
 11
96.0000000000001137
 21
58.0
 31
0.0
  0
LINE
  5
3CE
  8
0
 10
104.0
 20
100.2330000000000041
 30
0.0
 11
103.2329999999999046
 21
101.0
 31
0.0
  0
LINE
  5
3CF
  8
0
 10
96.7669999999999391
 20
101.0
 30
0.0
 11
96.0
 21
100.2330000000000041
 31
0.0
  0
LINE
  5
3D0
  8
0
 10
107.0
 20
52.9999999999999716
 30
0.0
 11
108.0829037686549015
 21
53.625214782339313
 31
0.0
  0
LINE
  5
3D1
  8
0
 10
108.0829037686549015
 20
57.3747852176607509
 30
0.0
 11
106.9999999999999005
 21
58.0000000000001776
 31
0.0
  0
LINE
  5
3D2
  8
0
 10
91.9170962313453259
 20
53.6252147823392633
 30
0.0
 11
93.0000000000001137
 21
52.9999999999999716
 31
0.0
  0
LINE
  5
3D3
  8
0
 10
93.0000000000001137
 20
57.9999999999999787
 30
0.0
 11
91.9170962313453259
 21
57.3747852176606798
 31
0.0
  0
LINE
  5
3D4
  8
0
 10
75.0000757696003291
 20
31.599999999999941
 30
0.0
 11
75.6000757696003234
 21
30.9999999999999183
 31
0.0
  0
LINE
  5
3D5
  8
0
 10
124.4000757696003063
 20
31.0000000000000888
 30
0.0
 11
125.0000757696003006
 21
31.6000000000001009
 31
0.0
  0
LINE
  5
3D6
  8
0
 10
75.0000757696003006
 20
37.3333333333332433
 30
0.0
 11
75.0000757696003291
 21
31.599999999999941
 31
0.0
  0
LINE
  5
3D7
  8
0
 10
125.0000757696003006
 20
31.6000000000001009
 30
0.0
 11
125.0000757696003006
 21
37.3333333333334281
 31
0.0
  0
LINE
  5
3D8
  8
0
 10
125.0000757696003006
 20
37.3333333333334281
 30
0.0
 11
111.2000757696003035
 21
43.6666666666667425
 31
0.0
  0
LINE
  5
3D9
  8
0
 10
88.8000757696002552
 20
43.666666666666643
 30
0.0
 11
75.0000757696003006
 21
37.3333333333332433
 31
0.0
  0
LINE
  5
3DA
  8
0
 10
80.0000757696003433
 20
30.9999999999999289
 30
0.0
 11
80.0000757696003433
 21
24.9999999999999289
 31
0.0
  0
LINE
  5
3DB
  8
0
 10
120.0000757696003006
 20
25.0000000000000711
 30
0.0
 11
120.0000757696003006
 21
31.0000000000000817
 31
0.0
  0
LINE
  5
3DC
  8
0
 10
111.2000757696003035
 20
43.6666666666667425
 30
0.0
 11
110.0833382251133941
 21
50.0000000000000426
 31
0.0
  0
LINE
  5
3DD
  8
0
 10
89.9168133140872214
 20
49.9999999999999716
 30
0.0
 11
88.8000757696002552
 21
43.666666666666643
 31
0.0
  0
LINE
  5
3DE
  8
0
 10
93.7500757696004712
 20
74.5
 30
0.0
 11
106.2500757696004996
 21
74.5
 31
0.0
  0
LINE
  5
3DF
  8
0
 10
107.5056292690655937
 20
73.7751058491018199
 30
0.0
 11
107.5056292690655937
 21
68.7248941508981659
 31
0.0
  0
LINE
  5
3E0
  8
0
 10
103.752852519333004
 20
73.7751058491018199
 30
0.0
 11
103.752852519333004
 21
68.7248941508981801
 31
0.0
  0
LINE
  5
3E1
  8
0
 10
106.2500757696004996
 20
68.0
 30
0.0
 11
93.7500757696004712
 21
68.0
 31
0.0
  0
LINE
  5
3E2
  8
0
 10
96.2472990198679099
 20
73.7751058491018341
 30
0.0
 11
96.2472990198679099
 21
68.7248941508981801
 31
0.0
  0
LINE
  5
3E3
  8
0
 10
92.4945222701353345
 20
73.7751058491018199
 30
0.0
 11
92.4945222701353345
 21
68.7248941508981801
 31
0.0
  0
LINE
  5
3E4
  8
0
 10
108.0829037686549015
 20
53.6252147823393415
 30
0.0
 11
108.0829037686549015
 21
57.3747852176607296
 31
0.0
  0
LINE
  5
3E5
  8
0
 10
104.0414518843275005
 20
53.625214782339313
 30
0.0
 11
104.041451884327401
 21
57.3747852176607012
 31
0.0
  0
LINE
  5
3E6
  8
0
 10
95.9585481156727269
 20
53.6252147823392775
 30
0.0
 11
95.9585481156727269
 21
57.3747852176606727
 31
0.0
  0
LINE
  5
3E7
  8
0
 10
91.9170962313453259
 20
53.6252147823392775
 30
0.0
 11
91.9170962313453259
 21
57.3747852176606727
 31
0.0
  0
LINE
  5
3E8
  8
0
 10
104.0
 20
100.2330000000000041
 30
0.0
 11
95.9999999999999432
 21
100.2330000000000041
 31
0.0
  0
LINE
  5
3E9
  8
0
 10
103.2329999999999046
 20
101.0
 30
0.0
 11
96.7669999999999391
 21
101.0
 31
0.0
  0
LINE
  5
3EA
  8
0
 10
107.0
 20
52.9999999999999716
 30
0.0
 11
93.0000000000001137
 21
52.9999999999999716
 31
0.0
  0
LINE
  5
3EB
  8
0
 10
106.9999999999999005
 20
58.0000000000001776
 30
0.0
 11
93.0000000000001137
 21
57.9999999999999716
 31
0.0
  0
LINE
  5
3EC
  8
0
 10
75.6000757696003234
 20
30.9999999999999183
 30
0.0
 11
124.4000757696003063
 21
31.0000000000000888
 31
0.0
  0
LINE
  5
3ED
  8
0
 10
80.0000757696003433
 20
24.9999999999999289
 30
0.0
 11
120.0000757696003006
 21
25.0000000000000711
 31
0.0
  0
LINE
  5
3EE
  8
0
 10
89.9168133140872214
 20
49.9999999999999716
 30
0.0
 11
110.0833382251133941
 21
50.0000000000000426
 31
0.0
  0
LINE
  5
3EF
  8
2
 10
90.800075769600312
 20
30.9999999999999787
 30
0.0
 11
90.800075769600312
 21
24.9999999999999716
 31
0.0
  0
LINE
  5
3F0
  8
2
 10
109.2000757696003035
 20
25.0000000000000391
 30
0.0
 11
109.2000757696003035
 21
31.0000000000000284
 31
0.0
  0
LINE
  5
414
  8
0
 10
49.9999966244820868
 20
37.3333333333333286
 30
0.0
 11
-0.0000033755179061
 21
37.3333333333333286
 31
0.0
  0
LINE
  5
415
  8
0
 10
13.7999966244820804
 20
43.6666666666666714
 30
0.0
 11
36.1999966244821394
 21
43.6666666666666714
 31
0.0
  0
LINE
  5
416
  8
0
 10
88.8000757696002552
 20
43.666666666666643
 30
0.0
 11
111.2000757696003035
 21
43.666666666666643
 31
0.0
  0
LINE
  5
417
  8
0
 10
125.0000757696003006
 20
37.3333333333334281
 30
0.0
 11
75.0000757696006985
 21
37.3333333333334281
 31
0.0
  0
LINE
  5
41B
  8
3
 10
28.3235000000000809
 20
100.9094999999998947
 30
0.0
 11
28.3234999999996013
 21
74.4999999999999858
 31
0.0
  0
LINE
  5
41C
  8
1
 10
25.0
 20
105.0
 30
0.0
 11
25.0
 21
21.0000000000000995
 31
0.0
  0
LINE
  5
41D
  8
3
 10
21.6765000000011412
 20
100.9095000000011026
 30
0.0
 11
21.6764999999998587
 21
74.4999999999999858
 31
0.0
  0
LINE
  5
41E
  8
3
 10
28.3235000000000809
 20
60.0000000000000284
 30
0.0
 11
29.0
 21
58.8282676286799102
 31
0.0
  0
LINE
  5
41F
  8
3
 10
21.6764999999999191
 20
60.0000000000000284
 30
0.0
 11
21.0
 21
58.8282676286799102
 31
0.0
  0
LINE
  5
420
  8
0
 10
21.0
 20
60.0000000000000284
 30
0.0
 11
29.0000000000000604
 21
59.9999999999999574
 31
0.0
  0
LINE
  5
421
  8
3
 10
28.3235000000000809
 20
68.0
 30
0.0
 11
28.3235000000000809
 21
60.0000000000000071
 31
0.0
  0
LINE
  5
422
  8
3
 10
21.6765000000002885
 20
68.0
 30
0.0
 11
21.676499999999951
 21
60.0000000000000995
 31
0.0
  0
ARC
  5
423
  8
0
 10
21.5
 20
63.1092407610374408
 30
0.0
 40
10.1092407610374693
 50
249.7438419995814911
 51
290.2561580004168036
  0
ARC
  5
424
  8
0
 10
28.5000000000000604
 20
63.1092407610363324
 30
0.0
 40
10.1092407610364301
 50
249.7438419995797005
 51
290.2561580004185089
  0
ARC
  5
425
  8
0
 10
28.5
 20
47.890759238962147
 30
0.0
 40
10.1092407610378103
 50
69.7438419995831538
 51
110.2561580004168036
  0
ARC
  5
426
  8
0
 10
21.5
 20
47.8907592389624597
 30
0.0
 40
10.1092407610375208
 50
69.7438419995831538
 51
110.2561580004168036
  0
ARC
  5
427
  8
0
 10
21.7499966244820904
 20
77.5361341142650247
 30
0.0
 40
9.3915094469437097
 50
249.7536519644384896
 51
290.2463480355597767
  0
ARC
  5
428
  8
0
 10
28.2499966244820584
 20
77.5361341142653941
 30
0.0
 40
9.3915094469440579
 50
249.7536519644401949
 51
290.2463480355597198
  0
ARC
  5
429
  8
0
 10
28.249996624482101
 20
64.9638658857345632
 30
0.0
 40
9.3915094469441041
 50
69.7536519644402091
 51
110.2463480355598051
  0
ARC
  5
42A
  8
0
 10
21.7499966244820406
 20
64.963865885734279
 30
0.0
 40
9.3915094469443741
 50
69.7536519644419428
 51
110.2463480355580003
  0
ARC
  5
42B
  8
0
 10
93.9378221735090619
 20
56.5781518477921992
 30
0.0
 40
3.5781518477922392
 50
244.3842474680392058
 51
304.3842474680423038
  0
ARC
  5
42C
  8
0
 10
100.0000000000000995
 20
66.3747852176597206
 30
0.0
 40
13.3747852176597402
 50
252.4120462260056001
 51
287.5879537739943999
  0
ARC
  5
42D
  8
0
 10
106.0621778264909949
 20
56.5781518477919221
 30
0.0
 40
3.5781518477919172
 50
235.6157525319538024
 51
295.6157525319788988
  0
ARC
  5
42E
  8
0
 10
106.0621778264910944
 20
54.4218481522085185
 30
0.0
 40
3.5781518477916681
 50
64.3842474680482155
 51
124.3842474680501056
  0
ARC
  5
42F
  8
0
 10
100.0000000000000995
 20
44.6252147823418426
 30
0.0
 40
13.3747852176582391
 50
72.4120462260039091
 51
107.5879537739961052
  0
ARC
  5
430
  8
0
 10
93.9378221735091756
 20
54.42184815220795
 30
0.0
 40
3.57815184779201
 50
55.6157525319557422
 51
115.6157525319824941
  0
ARC
  5
431
  8
0
 10
94.3709106450016861
 20
71.0314484721374839
 30
0.0
 40
3.3239267644616288
 50
55.6317600514284933
 51
115.6317600514259993
  0
ARC
  5
432
  8
0
 10
100.0000757696004996
 20
61.9278229820656776
 30
0.0
 40
12.4274472304211301
 50
72.4237429840086833
 51
107.5762570159913025
  0
ARC
  5
433
  8
0
 10
105.6292408941992989
 20
71.0314484721373844
 30
0.0
 40
3.323926764461663
 50
64.3682399485649768
 51
124.3682399485694958
  0
ARC
  5
434
  8
0
 10
105.6292408941992989
 20
71.4685515278625587
 30
0.0
 40
3.323926764461627
 50
235.6317600514285004
 51
295.6317600514295805
  0
ARC
  5
435
  8
0
 10
100.0000757696004996
 20
80.5719888358442375
 30
0.0
 40
12.4272678335750992
 50
252.4234809871622929
 51
287.5765190128375934
  0
ARC
  5
436
  8
0
 10
94.3709106450015582
 20
71.4685515278625729
 30
0.0
 40
3.3239267644616479
 50
244.3682399485740007
 51
304.3682399485714996
  0
LINE
  5
437
  8
3
 10
103.3235000000000952
 20
100.9094999999997953
 30
0.0
 11
103.3234999999994983
 21
74.4999999999999432
 31
0.0
  0
LINE
  5
438
  8
1
 10
100.0
 20
105.0
 30
0.0
 11
100.0
 21
21.0000000000000817
 31
0.0
  0
LINE
  5
439
  8
3
 10
96.6765000000011128
 20
100.9095000000011026
 30
0.0
 11
96.6764999999998054
 21
74.4999999999999432
 31
0.0
  0
LINE
  5
43A
  8
3
 10
103.3235000000000952
 20
60.0
 30
0.0
 11
104.0
 21
58.8282676286798818
 31
0.0
  0
LINE
  5
43B
  8
3
 10
96.6764999999999191
 20
60.0
 30
0.0
 11
96.0
 21
58.8282676286798818
 31
0.0
  0
LINE
  5
43C
  8
0
 10
96.0
 20
60.0
 30
0.0
 11
104.0
 21
59.9999999999999218
 31
0.0
  0
LINE
  5
43D
  8
3
 10
103.3235000000000952
 20
67.9999999999999716
 30
0.0
 11
103.3235000000000952
 21
59.9999999999999929
 31
0.0
  0
LINE
  5
43E
  8
3
 10
96.6765000000002601
 20
67.9999999999999716
 30
0.0
 11
96.6764999999999191
 21
60.0000000000000711
 31
0.0
  0
CIRCLE
  5
48C
  8
0
 10
25.0
 20
150.0000000000001137
 30
0.0
 40
6.25
  0
CIRCLE
  5
48D
  8
0
 10
25.0000033755179096
 20
149.9999242303996141
 30
0.0
 40
4.0
  0
ARC
  5
48E
  8
0
 10
25.0000033755179096
 20
149.999924230399813
 30
0.0
 40
7.0000000000000311
 50
278.5761417201317727
 51
300.0
  0
ARC
  5
48F
  8
0
 10
25.0000033755179096
 20
149.999924230399813
 30
0.0
 40
7.000000000000024
 50
239.9999999999998863
 51
261.0909295363516094
  0
ARC
  5
490
  8
0
 10
25.0000033755179096
 20
149.999924230399813
 30
0.0
 40
7.0000000000000222
 50
218.5762347872644966
 51
239.9999999999998863
  0
ARC
  5
491
  8
0
 10
25.0000033755179096
 20
149.999924230399813
 30
0.0
 40
7.0000000000000249
 50
180.0
 51
201.0892871709316125
  0
ARC
  5
492
  8
0
 10
25.0000033755179096
 20
149.999924230399813
 30
0.0
 40
7.0000000000000142
 50
158.5780904998397887
 51
180.0
  0
ARC
  5
493
  8
0
 10
25.0000033755179096
 20
149.999924230399813
 30
0.0
 40
7.0000000000000009
 50
119.9999999999996021
 51
141.0877271729196991
  0
ARC
  5
494
  8
0
 10
25.0000033755179096
 20
149.999924230399813
 30
0.0
 40
6.9999999999999911
 50
98.5798531452865632
 51
119.9999999999996021
  0
ARC
  5
495
  8
0
 10
25.0000033755179096
 20
149.999924230399813
 30
0.0
 40
6.999999999999976
 50
60.0000000000004192
 51
81.0878095403289336
  0
ARC
  5
496
  8
0
 10
25.0000033755179096
 20
149.999924230399813
 30
0.0
 40
6.999999999999976
 50
38.5797600781531713
 51
60.0000000000004192
  0
ARC
  5
497
  8
0
 10
25.0000033755179096
 20
149.999924230399813
 30
0.0
 40
6.9999999999999849
 50
0.0
 51
21.0894519057493994
  0
ARC
  5
498
  8
0
 10
25.0000033755179096
 20
149.999924230399813
 30
0.0
 40
6.9999999999999947
 50
338.5779043655768987
 51
0.0
  0
ARC
  5
499
  8
0
 10
25.0000033755179096
 20
149.999924230399813
 30
0.0
 40
7.0
 50
300.0
 51
321.0910119037623076
  0
CIRCLE
  5
49A
  8
0
 10
25.0
 20
149.9999999999998863
 30
0.0
 40
10.0832624555130792
  0
CIRCLE
  5
49B
  8
0
 10
25.0
 20
149.9999999999998863
 30
0.0
 40
11.2000000000000295
  0
CIRCLE
  5
49C
  8
0
 10
25.0
 20
150.0
 30
0.0
 40
24.9999999999999716
  0
LINE
  5
49D
  8
1
 10
-4.0
 20
150.0000000000001137
 30
0.0
 11
54.0
 21
150.0000000000001137
 31
0.0
  0
LINE
  5
49E
  8
1
 10
25.0
 20
121.080570282295497
 30
0.0
 11
25.0
 21
178.9194297177047872
 31
0.0
  0
CIRCLE
  5
49F
  8
3
 10
25.0
 20
150.0000000000001137
 30
0.0
 40
3.3235000000000641
  0
POLYLINE
  5
4A0
  8
0
 66
     1
 10
0.0
 20
0.0
 30
0.0
  0
VERTEX
  5
525
  8
0
 10
28.500003375517899
 20
143.9377464039087045
 30
0.0
  0
VERTEX
  5
526
  8
0
 10
28.3775078481591017
 20
143.8670235782136047
 30
0.0
  0
VERTEX
  5
527
  8
0
 10
28.2550291515221907
 20
143.7963104697402059
 30
0.0
  0
VERTEX
  5
528
  8
0
 10
28.1325834230587795
 20
143.7256163954507997
 30
0.0
  0
VERTEX
  5
529
  8
0
 10
28.0101837502041917
 20
143.6549489113793925
 30
0.0
  0
VERTEX
  5
52A
  8
0
 10
27.8878423818791497
 20
143.5843150894440043
 30
0.0
  0
VERTEX
  5
52B
  8
0
 10
27.7655715669799896
 20
143.5137220015479045
 30
0.0
  0
VERTEX
  5
52C
  8
0
 10
27.6433835544030693
 20
143.4431767195949021
 30
0.0
  0
VERTEX
  5
52D
  8
0
 10
27.5212905930447391
 20
143.3726863154884086
 30
0.0
  0
VERTEX
  5
52E
  8
0
 10
27.3993049841934386
 20
143.30225789138089
 30
0.0
  0
VERTEX
  5
52F
  8
0
 10
27.2774435711623617
 20
143.2319011717636101
 30
0.0
  0
VERTEX
  5
530
  8
0
 10
27.1557311869396507
 20
143.161630493968886
 30
0.0
  0
VERTEX
  5
531
  8
0
 10
27.0341934761619598
 20
143.0914606639346971
 30
0.0
  0
VERTEX
  5
532
  8
0
 10
26.9128560834659893
 20
143.0214064875989095
 30
0.0
  0
VERTEX
  5
533
  8
0
 10
26.7917446534884007
 20
142.9514827708993892
 30
0.0
  0
VERTEX
  5
534
  8
0
 10
26.6708848308658695
 20
142.8817043197740873
 30
0.0
  0
VERTEX
  5
535
  8
0
 10
26.55030054875985
 20
142.8120849520402089
 30
0.0
  0
VERTEX
  5
536
  8
0
 10
26.4299904595665716
 20
142.7426238896582049
 30
0.0
  0
VERTEX
  5
537
  8
0
 10
26.3099339208890513
 20
142.6733092147347861
 30
0.0
  0
VERTEX
  5
538
  8
0
 10
26.1901098035176609
 20
142.6041287283150041
 30
0.0
  0
VERTEX
  5
539
  8
0
 10
26.0704969782427192
 20
142.5350702314439104
 30
0.0
  0
VERTEX
  5
53A
  8
0
 10
25.9510743158546404
 20
142.4661215251668978
 30
0.0
  0
VERTEX
  5
53B
  8
0
 10
25.8318206871437006
 20
142.3972704105287903
 30
0.0
  0
VERTEX
  5
53C
  8
0
 10
25.7127149629003213
 20
142.3285046885748102
 30
0.0
  0
VERTEX
  5
53D
  8
0
 10
25.5937360139148211
 20
142.2598121603502079
 30
0.0
  0
VERTEX
  5
53E
  8
0
 10
25.4748627109775292
 20
142.191180626899893
 30
0.0
  0
VERTEX
  5
53F
  8
0
 10
25.3560739248788707
 20
142.1225978892690875
 30
0.0
  0
VERTEX
  5
540
  8
0
 10
25.2373485264091109
 20
142.0540517485029
 30
0.0
  0
VERTEX
  5
541
  8
0
 10
25.1186653863586891
 20
141.9855300056464955
 30
0.0
  0
VERTEX
  5
542
  8
0
 10
25.0000033755178812
 20
141.9170204617450111
 30
0.0
  0
SEQEND
  5
543
  8
0
  0
POLYLINE
  5
4A1
  8
0
 66
     1
 10
0.0
 20
0.0
 30
0.0
  0
VERTEX
  5
544
  8
0
 10
25.0000033755179096
 20
141.9170204617450111
 30
0.0
  0
VERTEX
  5
545
  8
0
 10
24.8817991257836901
 20
141.9852657171483941
 30
0.0
  0
VERTEX
  5
546
  8
0
 10
24.7635539363122099
 20
142.0535346091201063
 30
0.0
  0
VERTEX
  5
547
  8
0
 10
24.6452268673662402
 20
142.1218507742285055
 30
0.0
  0
VERTEX
  5
548
  8
0
 10
24.5267769792085097
 20
142.1902378490418926
 30
0.0
  0
VERTEX
  5
549
  8
0
 10
24.4081633321017399
 20
142.2587194701285966
 30
0.0
  0
VERTEX
  5
54A
  8
0
 10
24.2893449863086914
 20
142.3273192740568049
 30
0.0
  0
VERTEX
  5
54B
  8
0
 10
24.1702810020921106
 20
142.3960608973951025
 30
0.0
  0
VERTEX
  5
54C
  8
0
 10
24.0509355163667884
 20
142.4649650457052132
 30
0.0
  0
VERTEX
  5
54D
  8
0
 10
23.9313082739090284
 20
142.5340318663405128
 30
0.0
  0
VERTEX
  5
54E
  8
0
 10
23.8114142604985091
 20
142.6032527072572975
 30
0.0
  0
VERTEX
  5
54F
  8
0
 10
23.6912685196842006
 20
142.6726188830585045
 30
0.0
  0
VERTEX
  5
550
  8
0
 10
23.5708860950151404
 20
142.7421217083469003
 30
0.0
  0
VERTEX
  5
551
  8
0
 10
23.4502820300403094
 20
142.8117524977253936
 30
0.0
  0
VERTEX
  5
552
  8
0
 10
23.3294713683087309
 20
142.8815025657970921
 30
0.0
  0
VERTEX
  5
553
  8
0
 10
23.2084688881566308
 20
142.9513633802854997
 30
0.0
  0
VERTEX
  5
554
  8
0
 10
23.0872858937528918
 20
143.0213284147257014
 30
0.0
  0
VERTEX
  5
555
  8
0
 10
22.9659312470155612
 20
143.0913925526868979
 30
0.0
  0
VERTEX
  5
556
  8
0
 10
22.8444137591028493
 20
143.1615507070445972
 30
0.0
  0
VERTEX
  5
557
  8
0
 10
22.7227422411730196
 20
143.2317977906739941
 30
0.0
  0
VERTEX
  5
558
  8
0
 10
22.6009255043843815
 20
143.3021287164507953
 30
0.0
  0
VERTEX
  5
559
  8
0
 10
22.4789723598951205
 20
143.3725383972501959
 30
0.0
  0
VERTEX
  5
55A
  8
0
 10
22.3568916601253385
 20
143.4430217221251951
 30
0.0
  0
VERTEX
  5
55B
  8
0
 10
22.234695060988571
 20
143.5135719615308858
 30
0.0
  0
VERTEX
  5
55C
  8
0
 10
22.112398763567171
 20
143.5841797617680129
 30
0.0
  0
VERTEX
  5
55D
  8
0
 10
21.9900193842419505
 20
143.6548355293647035
 30
0.0
  0
VERTEX
  5
55E
  8
0
 10
21.8675735393936392
 20
143.7255296708489993
 30
0.0
  0
VERTEX
  5
55F
  8
0
 10
21.7450778454030207
 20
143.7962525927491129
 30
0.0
  0
VERTEX
  5
560
  8
0
 10
21.622548918650871
 20
143.8669947015928869
 30
0.0
  0
VERTEX
  5
561
  8
0
 10
21.5000033755179096
 20
143.9377464039087045
 30
0.0
  0
SEQEND
  5
562
  8
0
  0
POLYLINE
  5
4A2
  8
0
 66
     1
 10
0.0
 20
0.0
 30
0.0
  0
VERTEX
  5
563
  8
0
 10
32.0000033755179132
 20
149.999924230399813
 30
0.0
  0
VERTEX
  5
564
  8
0
 10
32.0000033755179132
 20
149.8584215677387022
 30
0.0
  0
VERTEX
  5
565
  8
0
 10
32.0000033755179132
 20
149.7169381565678066
 30
0.0
  0
VERTEX
  5
566
  8
0
 10
32.0000033755179132
 20
149.5754932483773985
 30
0.0
  0
VERTEX
  5
567
  8
0
 10
32.0000033755179132
 20
149.4341060946576931
 30
0.0
  0
VERTEX
  5
568
  8
0
 10
32.0000033755179132
 20
149.2927959468989911
 30
0.0
  0
VERTEX
  5
569
  8
0
 10
32.0000033755179132
 20
149.1515820565915078
 30
0.0
  0
VERTEX
  5
56A
  8
0
 10
32.0000033755179132
 20
149.0104836752256006
 30
0.0
  0
VERTEX
  5
56B
  8
0
 10
32.0000033755179132
 20
148.8695191938633116
 30
0.0
  0
VERTEX
  5
56C
  8
0
 10
32.0000033755179132
 20
148.7287012054343904
 30
0.0
  0
VERTEX
  5
56D
  8
0
 10
32.0000033755179132
 20
148.5880399084774979
 30
0.0
  0
VERTEX
  5
56E
  8
0
 10
32.0000033755179132
 20
148.4475454939851033
 30
0.0
  0
VERTEX
  5
56F
  8
0
 10
32.0000033755179132
 20
148.3072281529493068
 30
0.0
  0
VERTEX
  5
570
  8
0
 10
32.0000033755179132
 20
148.1670980763624073
 30
0.0
  0
VERTEX
  5
571
  8
0
 10
32.0000033755179132
 20
148.0271654552165046
 30
0.0
  0
VERTEX
  5
572
  8
0
 10
32.0000033755179132
 20
147.8874408285250865
 30
0.0
  0
VERTEX
  5
573
  8
0
 10
32.0000033755179132
 20
147.7479389282750901
 30
0.0
  0
VERTEX
  5
574
  8
0
 10
32.0000033755179132
 20
147.6086772631886959
 30
0.0
  0
VERTEX
  5
575
  8
0
 10
32.0000033755179132
 20
147.4696733915926927
 30
0.0
  0
VERTEX
  5
576
  8
0
 10
32.0000033755179132
 20
147.3309448718136991
 30
0.0
  0
VERTEX
  5
577
  8
0
 10
32.0000033755179132
 20
147.1925092621783051
 30
0.0
  0
VERTEX
  5
578
  8
0
 10
32.0000033755179132
 20
147.0543841210131859
 30
0.0
  0
VERTEX
  5
579
  8
0
 10
32.0000033755179132
 20
146.9165866261091082
 30
0.0
  0
VERTEX
  5
57A
  8
0
 10
32.0000033755179132
 20
146.7791104515042093
 30
0.0
  0
VERTEX
  5
57B
  8
0
 10
32.0000033755179132
 20
146.6419124489123078
 30
0.0
  0
VERTEX
  5
57C
  8
0
 10
32.0000033755179132
 20
146.5049462563312943
 30
0.0
  0
VERTEX
  5
57D
  8
0
 10
32.0000033755179132
 20
146.3681655117590026
 30
0.0
  0
VERTEX
  5
57E
  8
0
 10
32.0000033755179132
 20
146.2315238531932096
 30
0.0
  0
VERTEX
  5
57F
  8
0
 10
32.0000033755179132
 20
146.0949749186316922
 30
0.0
  0
VERTEX
  5
580
  8
0
 10
32.0000033755179132
 20
145.9584723460725115
 30
0.0
  0
SEQEND
  5
581
  8
0
  0
POLYLINE
  5
4A3
  8
0
 66
     1
 10
0.0
 20
0.0
 30
0.0
  0
VERTEX
  5
582
  8
0
 10
32.0000033755179132
 20
145.9584723460723978
 30
0.0
  0
VERTEX
  5
583
  8
0
 10
31.8817991257836901
 20
145.8902270906689864
 30
0.0
  0
VERTEX
  5
584
  8
0
 10
31.7635539363122099
 20
145.8219581986973026
 30
0.0
  0
VERTEX
  5
585
  8
0
 10
31.6452268673662296
 20
145.7536420335889034
 30
0.0
  0
VERTEX
  5
586
  8
0
 10
31.5267769792085097
 20
145.6852549587754879
 30
0.0
  0
VERTEX
  5
587
  8
0
 10
31.4081633321017399
 20
145.6167733376888975
 30
0.0
  0
VERTEX
  5
588
  8
0
 10
31.2893449863086914
 20
145.548173533760604
 30
0.0
  0
VERTEX
  5
589
  8
0
 10
31.1702810020921106
 20
145.4794319104223916
 30
0.0
  0
VERTEX
  5
58A
  8
0
 10
31.0509355163667884
 20
145.4105277621123093
 30
0.0
  0
VERTEX
  5
58B
  8
0
 10
30.9313082739090284
 20
145.3414609414768961
 30
0.0
  0
VERTEX
  5
58C
  8
0
 10
30.8114142604985091
 20
145.2722401005601114
 30
0.0
  0
VERTEX
  5
58D
  8
0
 10
30.6912685196842006
 20
145.2028739247589897
 30
0.0
  0
VERTEX
  5
58E
  8
0
 10
30.5708860950151404
 20
145.1333710994705939
 30
0.0
  0
VERTEX
  5
58F
  8
0
 10
30.4502820300403201
 20
145.0637403100919869
 30
0.0
  0
VERTEX
  5
590
  8
0
 10
30.3294713683087309
 20
144.9939902420202884
 30
0.0
  0
VERTEX
  5
591
  8
0
 10
30.2084688881566308
 20
144.9241294275319092
 30
0.0
  0
VERTEX
  5
592
  8
0
 10
30.0872858937528918
 20
144.8541643930917076
 30
0.0
  0
VERTEX
  5
593
  8
0
 10
29.9659312470155612
 20
144.784100255130511
 30
0.0
  0
VERTEX
  5
594
  8
0
 10
29.8444137591028493
 20
144.7139421007728117
 30
0.0
  0
VERTEX
  5
595
  8
0
 10
29.7227422411730302
 20
144.6436950171433864
 30
0.0
  0
VERTEX
  5
596
  8
0
 10
29.6009255043843815
 20
144.5733640913666136
 30
0.0
  0
VERTEX
  5
597
  8
0
 10
29.4789723598951312
 20
144.502954410567213
 30
0.0
  0
VERTEX
  5
598
  8
0
 10
29.3568916601253385
 20
144.4324710856922991
 30
0.0
  0
VERTEX
  5
599
  8
0
 10
29.234695060988571
 20
144.3619208462866084
 30
0.0
  0
VERTEX
  5
59A
  8
0
 10
29.112398763567171
 20
144.291313046049396
 30
0.0
  0
VERTEX
  5
59B
  8
0
 10
28.9900193842419505
 20
144.2206572784527907
 30
0.0
  0
VERTEX
  5
59C
  8
0
 10
28.8675735393936499
 20
144.1499631369684096
 30
0.0
  0
VERTEX
  5
59D
  8
0
 10
28.7450778454030207
 20
144.0792402150684097
 30
0.0
  0
VERTEX
  5
59E
  8
0
 10
28.622548918650871
 20
144.0084981062244935
 30
0.0
  0
VERTEX
  5
59F
  8
0
 10
28.500003375517899
 20
143.9377464039087045
 30
0.0
  0
SEQEND
  5
5A0
  8
0
  0
POLYLINE
  5
4A4
  8
0
 66
     1
 10
0.0
 20
0.0
 30
0.0
  0
VERTEX
  5
5A1
  8
0
 10
18.000003375517899
 20
145.9584723460723978
 30
0.0
  0
VERTEX
  5
5A2
  8
0
 10
18.000003375517899
 20
146.0955326444064895
 30
0.0
  0
VERTEX
  5
5A3
  8
0
 10
18.000003375517899
 20
146.232616244358411
 30
0.0
  0
VERTEX
  5
5A4
  8
0
 10
18.000003375517899
 20
146.3697464475459924
 30
0.0
  0
VERTEX
  5
5A5
  8
0
 10
18.000003375517899
 20
146.5069465555870067
 30
0.0
  0
VERTEX
  5
5A6
  8
0
 10
18.000003375517899
 20
146.6442398700991987
 30
0.0
  0
VERTEX
  5
5A7
  8
0
 10
18.000003375517899
 20
146.7816496927003982
 30
0.0
  0
VERTEX
  5
5A8
  8
0
 10
18.000003375517899
 20
146.9191993250086057
 30
0.0
  0
VERTEX
  5
5A9
  8
0
 10
18.000003375517899
 20
147.0569120686413953
 30
0.0
  0
VERTEX
  5
5AA
  8
0
 10
18.000003375517899
 20
147.1948112252167107
 30
0.0
  0
VERTEX
  5
5AB
  8
0
 10
18.000003375517899
 20
147.3329200963524102
 30
0.0
  0
VERTEX
  5
5AC
  8
0
 10
18.000003375517899
 20
147.47126198366621
 30
0.0
  0
VERTEX
  5
5AD
  8
0
 10
18.000003375517899
 20
147.6098601887759116
 30
0.0
  0
VERTEX
  5
5AE
  8
0
 10
18.000003375517899
 20
147.7487380132992882
 30
0.0
  0
VERTEX
  5
5AF
  8
0
 10
18.000003375517899
 20
147.8879187588543118
 30
0.0
  0
VERTEX
  5
5B0
  8
0
 10
18.000003375517899
 20
148.0274190024422012
 30
0.0
  0
VERTEX
  5
5B1
  8
0
 10
18.000003375517899
 20
148.1672207891338076
 30
0.0
  0
VERTEX
  5
5B2
  8
0
 10
18.000003375517899
 20
148.3072951101619879
 30
0.0
  0
VERTEX
  5
5B3
  8
0
 10
18.000003375517899
 20
148.4476129517840093
 30
0.0
  0
VERTEX
  5
5B4
  8
0
 10
18.000003375517899
 20
148.5881453002573096
 30
0.0
  0
VERTEX
  5
5B5
  8
0
 10
18.000003375517899
 20
148.7288631418394118
 30
0.0
  0
VERTEX
  5
5B6
  8
0
 10
18.000003375517899
 20
148.8697374627876115
 30
0.0
  0
VERTEX
  5
5B7
  8
0
 10
18.000003375517899
 20
149.0107401808199938
 30
0.0
  0
VERTEX
  5
5B8
  8
0
 10
18.000003375517899
 20
149.1518514139957006
 30
0.0
  0
VERTEX
  5
5B9
  8
0
 10
18.000003375517899
 20
149.293055542505499
 30
0.0
  0
VERTEX
  5
5BA
  8
0
 10
18.000003375517899
 20
149.43433698296991
 30
0.0
  0
VERTEX
  5
5BB
  8
0
 10
18.000003375517899
 20
149.5756801520099089
 30
0.0
  0
VERTEX
  5
5BC
  8
0
 10
18.000003375517899
 20
149.7170694662461017
 30
0.0
  0
VERTEX
  5
5BD
  8
0
 10
18.000003375517899
 20
149.8584893422994071
 30
0.0
  0
VERTEX
  5
5BE
  8
0
 10
18.000003375517899
 20
149.999924230399813
 30
0.0
  0
SEQEND
  5
5BF
  8
0
  0
POLYLINE
  5
4A5
  8
0
 66
     1
 10
0.0
 20
0.0
 30
0.0
  0
VERTEX
  5
5C0
  8
0
 10
21.5000033755179096
 20
143.9377464039087045
 30
0.0
  0
VERTEX
  5
5C1
  8
0
 10
21.3775078481590697
 20
144.0084692296038895
 30
0.0
  0
VERTEX
  5
5C2
  8
0
 10
21.2550291515221907
 20
144.079182338077203
 30
0.0
  0
VERTEX
  5
5C3
  8
0
 10
21.1325834230587191
 20
144.1498764123666945
 30
0.0
  0
VERTEX
  5
5C4
  8
0
 10
21.0101837502041384
 20
144.220543896437988
 30
0.0
  0
VERTEX
  5
5C5
  8
0
 10
20.8878423818790715
 20
144.2911777183734898
 30
0.0
  0
VERTEX
  5
5C6
  8
0
 10
20.7655715669799292
 20
144.3617708062695897
 30
0.0
  0
VERTEX
  5
5C7
  8
0
 10
20.6433835544030195
 20
144.432316088222592
 30
0.0
  0
VERTEX
  5
5C8
  8
0
 10
20.5212905930446787
 20
144.5028064923290003
 30
0.0
  0
VERTEX
  5
5C9
  8
0
 10
20.3993049841934102
 20
144.5732349164364905
 30
0.0
  0
VERTEX
  5
5CA
  8
0
 10
20.2774435711623404
 20
144.6435916360537988
 30
0.0
  0
VERTEX
  5
5CB
  8
0
 10
20.1557311869396187
 20
144.7138623138484945
 30
0.0
  0
VERTEX
  5
5CC
  8
0
 10
20.0341934761619314
 20
144.7840321438827118
 30
0.0
  0
VERTEX
  5
5CD
  8
0
 10
19.9128560834659787
 20
144.8540863202184994
 30
0.0
  0
VERTEX
  5
5CE
  8
0
 10
19.7917446534883901
 20
144.9240100369179913
 30
0.0
  0
VERTEX
  5
5CF
  8
0
 10
19.6708848308658695
 20
144.9937884880432932
 30
0.0
  0
VERTEX
  5
5D0
  8
0
 10
19.5503005487598784
 20
145.0634078557772
 30
0.0
  0
VERTEX
  5
5D1
  8
0
 10
19.4299904595665893
 20
145.132868918159204
 30
0.0
  0
VERTEX
  5
5D2
  8
0
 10
19.3099339208890797
 20
145.2021835930827081
 30
0.0
  0
VERTEX
  5
5D3
  8
0
 10
19.1901098035176787
 20
145.2713640795024901
 30
0.0
  0
VERTEX
  5
5D4
  8
0
 10
19.0704969782427405
 20
145.3404225763734985
 30
0.0
  0
VERTEX
  5
5D5
  8
0
 10
18.9510743158546688
 20
145.4093712826505111
 30
0.0
  0
VERTEX
  5
5D6
  8
0
 10
18.831820687143729
 20
145.4782223972885902
 30
0.0
  0
VERTEX
  5
5D7
  8
0
 10
18.7127149629003497
 20
145.5469881192425987
 30
0.0
  0
VERTEX
  5
5D8
  8
0
 10
18.5937360139148495
 20
145.6156806474672862
 30
0.0
  0
VERTEX
  5
5D9
  8
0
 10
18.4748627109775612
 20
145.6843121809176012
 30
0.0
  0
VERTEX
  5
5DA
  8
0
 10
18.3560739248788707
 20
145.7528949185482929
 30
0.0
  0
VERTEX
  5
5DB
  8
0
 10
18.2373485264091286
 20
145.8214410593145089
 30
0.0
  0
VERTEX
  5
5DC
  8
0
 10
18.1186653863586784
 20
145.8899628021709134
 30
0.0
  0
VERTEX
  5
5DD
  8
0
 10
18.000003375517899
 20
145.9584723460723978
 30
0.0
  0
SEQEND
  5
5DE
  8
0
  0
POLYLINE
  5
4A6
  8
0
 66
     1
 10
0.0
 20
0.0
 30
0.0
  0
VERTEX
  5
5DF
  8
0
 10
28.500003375517899
 20
156.0621020568908079
 30
0.0
  0
VERTEX
  5
5E0
  8
0
 10
28.6224989028767389
 20
155.9913792311957081
 30
0.0
  0
VERTEX
  5
5E1
  8
0
 10
28.7449775995136498
 20
155.9206661227225084
 30
0.0
  0
VERTEX
  5
5E2
  8
0
 10
28.8674233279770895
 20
155.8499720484329032
 30
0.0
  0
VERTEX
  5
5E3
  8
0
 10
28.9898230008316808
 20
155.7793045643616097
 30
0.0
  0
VERTEX
  5
5E4
  8
0
 10
29.1121643691567513
 20
155.7086707424261078
 30
0.0
  0
VERTEX
  5
5E5
  8
0
 10
29.23443518405589
 20
155.638077654530008
 30
0.0
  0
VERTEX
  5
5E6
  8
0
 10
29.3566231966327891
 20
155.5675323725770056
 30
0.0
  0
VERTEX
  5
5E7
  8
0
 10
29.4787161579911299
 20
155.4970419684705973
 30
0.0
  0
VERTEX
  5
5E8
  8
0
 10
29.6007017668423984
 20
155.4266135443631072
 30
0.0
  0
VERTEX
  5
5E9
  8
0
 10
29.7225631798734788
 20
155.3562568247457989
 30
0.0
  0
VERTEX
  5
5EA
  8
0
 10
29.8442755640961899
 20
155.2859861469511031
 30
0.0
  0
VERTEX
  5
5EB
  8
0
 10
29.9658132748738808
 20
155.2158163169168859
 30
0.0
  0
VERTEX
  5
5EC
  8
0
 10
30.0871506675698299
 20
155.1457621405810983
 30
0.0
  0
VERTEX
  5
5ED
  8
0
 10
30.2082620975474185
 20
155.0758384238814926
 30
0.0
  0
VERTEX
  5
5EE
  8
0
 10
30.3291219201699391
 20
155.0060599727563044
 30
0.0
  0
VERTEX
  5
5EF
  8
0
 10
30.4497062022759302
 20
154.9364406050223124
 30
0.0
  0
VERTEX
  5
5F0
  8
0
 10
30.5700162914692193
 20
154.8669795426403084
 30
0.0
  0
VERTEX
  5
5F1
  8
0
 10
30.6900728301467289
 20
154.7976648677168896
 30
0.0
  0
VERTEX
  5
5F2
  8
0
 10
30.8098969475181299
 20
154.7284843812971076
 30
0.0
  0
VERTEX
  5
5F3
  8
0
 10
30.9295097727930717
 20
154.6594258844260992
 30
0.0
  0
VERTEX
  5
5F4
  8
0
 10
31.0489324351811717
 20
154.5904771781490012
 30
0.0
  0
VERTEX
  5
5F5
  8
0
 10
31.1681860638920796
 20
154.5216260635108938
 30
0.0
  0
VERTEX
  5
5F6
  8
0
 10
31.2872917881354589
 20
154.4528603415569137
 30
0.0
  0
VERTEX
  5
5F7
  8
0
 10
31.4062707371209591
 20
154.3841678133323114
 30
0.0
  0
VERTEX
  5
5F8
  8
0
 10
31.525144040058251
 20
154.3155362798819965
 30
0.0
  0
VERTEX
  5
5F9
  8
0
 10
31.6439328261569095
 20
154.246953542251191
 30
0.0
  0
VERTEX
  5
5FA
  8
0
 10
31.7626582246266516
 20
154.1784074014850034
 30
0.0
  0
VERTEX
  5
5FB
  8
0
 10
31.8813413646770982
 20
154.1098856586287127
 30
0.0
  0
VERTEX
  5
5FC
  8
0
 10
32.0000033755178777
 20
154.0413761147270861
 30
0.0
  0
SEQEND
  5
5FD
  8
0
  0
POLYLINE
  5
4A7
  8
0
 66
     1
 10
0.0
 20
0.0
 30
0.0
  0
VERTEX
  5
5FE
  8
0
 10
32.0000033755179132
 20
154.0413761147271998
 30
0.0
  0
VERTEX
  5
5FF
  8
0
 10
32.0000033755179132
 20
153.9043158163931082
 30
0.0
  0
VERTEX
  5
600
  8
0
 10
32.0000033755179132
 20
153.7672322164411867
 30
0.0
  0
VERTEX
  5
601
  8
0
 10
32.0000033755179132
 20
153.6301020132536053
 30
0.0
  0
VERTEX
  5
602
  8
0
 10
32.0000033755179132
 20
153.4929019052125909
 30
0.0
  0
VERTEX
  5
603
  8
0
 10
32.0000033755179132
 20
153.355608590700399
 30
0.0
  0
VERTEX
  5
604
  8
0
 10
32.0000033755179132
 20
153.2181987680991142
 30
0.0
  0
VERTEX
  5
605
  8
0
 10
32.0000033755179132
 20
153.080649135790992
 30
0.0
  0
VERTEX
  5
606
  8
0
 10
32.0000033755179132
 20
152.9429363921580887
 30
0.0
  0
VERTEX
  5
607
  8
0
 10
32.0000033755179132
 20
152.8050372355828017
 30
0.0
  0
VERTEX
  5
608
  8
0
 10
32.0000033755179132
 20
152.6669283644471875
 30
0.0
  0
VERTEX
  5
609
  8
0
 10
32.0000033755179132
 20
152.5285864771333877
 30
0.0
  0
VERTEX
  5
60A
  8
0
 10
32.0000033755179132
 20
152.389988272023686
 30
0.0
  0
VERTEX
  5
60B
  8
0
 10
32.0000033755179132
 20
152.2511104475001957
 30
0.0
  0
VERTEX
  5
60C
  8
0
 10
32.0000033755179132
 20
152.1119297019452006
 30
0.0
  0
VERTEX
  5
60D
  8
0
 10
32.0000033755179132
 20
151.9724294583573965
 30
0.0
  0
VERTEX
  5
60E
  8
0
 10
32.0000033755179132
 20
151.8326276716657048
 30
0.0
  0
VERTEX
  5
60F
  8
0
 10
32.0000033755179132
 20
151.6925533506376098
 30
0.0
  0
VERTEX
  5
610
  8
0
 10
32.0000033755179132
 20
151.5522355090155884
 30
0.0
  0
VERTEX
  5
611
  8
0
 10
32.0000033755179132
 20
151.4117031605422881
 30
0.0
  0
VERTEX
  5
612
  8
0
 10
32.0000033755179132
 20
151.2709853189601859
 30
0.0
  0
VERTEX
  5
613
  8
0
 10
32.0000033755179132
 20
151.1301109980119861
 30
0.0
  0
VERTEX
  5
614
  8
0
 10
32.0000033755179132
 20
150.9891082799796038
 30
0.0
  0
VERTEX
  5
615
  8
0
 10
32.0000033755179132
 20
150.8479970468038118
 30
0.0
  0
VERTEX
  5
616
  8
0
 10
32.0000033755179132
 20
150.7067929182940986
 30
0.0
  0
VERTEX
  5
617
  8
0
 10
32.0000033755179132
 20
150.5655114778296024
 30
0.0
  0
VERTEX
  5
618
  8
0
 10
32.0000033755179132
 20
150.4241683087896888
 30
0.0
  0
VERTEX
  5
619
  8
0
 10
32.0000033755179132
 20
150.282778994553496
 30
0.0
  0
VERTEX
  5
61A
  8
0
 10
32.0000033755179132
 20
150.1413591185001053
 30
0.0
  0
VERTEX
  5
61B
  8
0
 10
32.0000033755179132
 20
149.999924230399813
 30
0.0
  0
SEQEND
  5
61C
  8
0
  0
POLYLINE
  5
4A8
  8
0
 66
     1
 10
0.0
 20
0.0
 30
0.0
  0
VERTEX
  5
61D
  8
0
 10
18.000003375517899
 20
154.0413761147271998
 30
0.0
  0
VERTEX
  5
61E
  8
0
 10
18.1182076252521185
 20
154.1096213701306112
 30
0.0
  0
VERTEX
  5
61F
  8
0
 10
18.2364528147235987
 20
154.1778902621022951
 30
0.0
  0
VERTEX
  5
620
  8
0
 10
18.354779883669579
 20
154.2462064272106943
 30
0.0
  0
VERTEX
  5
621
  8
0
 10
18.4732297718272989
 20
154.3145935020239961
 30
0.0
  0
VERTEX
  5
622
  8
0
 10
18.5918434189340687
 20
154.3830751231107001
 30
0.0
  0
VERTEX
  5
623
  8
0
 10
18.7106617647271207
 20
154.4516749270389937
 30
0.0
  0
VERTEX
  5
624
  8
0
 10
18.8297257489437015
 20
154.520416550377206
 30
0.0
  0
VERTEX
  5
625
  8
0
 10
18.9490712346690202
 20
154.5893206986872883
 30
0.0
  0
VERTEX
  5
626
  8
0
 10
19.0686984771267909
 20
154.6583875193227016
 30
0.0
  0
VERTEX
  5
627
  8
0
 10
19.1885924905372995
 20
154.7276083602394863
 30
0.0
  0
VERTEX
  5
628
  8
0
 10
19.3087382313516116
 20
154.796974536040608
 30
0.0
  0
VERTEX
  5
629
  8
0
 10
19.4291206560206717
 20
154.8664773613288901
 30
0.0
  0
VERTEX
  5
62A
  8
0
 10
19.5497247209954992
 20
154.9361081507076108
 30
0.0
  0
VERTEX
  5
62B
  8
0
 10
19.6705353827270812
 20
155.0058582187793093
 30
0.0
  0
VERTEX
  5
62C
  8
0
 10
19.7915378628791814
 20
155.0757190332676032
 30
0.0
  0
VERTEX
  5
62D
  8
0
 10
19.9127208572829204
 20
155.1456840677078048
 30
0.0
  0
VERTEX
  5
62E
  8
0
 10
20.0340755040202509
 20
155.2157482056690867
 30
0.0
  0
VERTEX
  5
62F
  8
0
 10
20.1555929919329593
 20
155.2859063600267007
 30
0.0
  0
VERTEX
  5
630
  8
0
 10
20.2772645098627891
 20
155.3561534436562113
 30
0.0
  0
VERTEX
  5
631
  8
0
 10
20.3990812466514591
 20
155.4264843694328988
 30
0.0
  0
VERTEX
  5
632
  8
0
 10
20.52103439114072
 20
155.4968940502322994
 30
0.0
  0
VERTEX
  5
633
  8
0
 10
20.6431150909104986
 20
155.5673773751072986
 30
0.0
  0
VERTEX
  5
634
  8
0
 10
20.7653116900472696
 20
155.6379276145129893
 30
0.0
  0
VERTEX
  5
635
  8
0
 10
20.8876079874686411
 20
155.708535414750088
 30
0.0
  0
VERTEX
  5
636
  8
0
 10
21.0099873667939008
 20
155.779191182346807
 30
0.0
  0
VERTEX
  5
637
  8
0
 10
21.1324332116421907
 20
155.8498853238311028
 30
0.0
  0
VERTEX
  5
638
  8
0
 10
21.2549289056328305
 20
155.9206082457311879
 30
0.0
  0
VERTEX
  5
639
  8
0
 10
21.3774578323849802
 20
155.9913503545751041
 30
0.0
  0
VERTEX
  5
63A
  8
0
 10
21.5000033755179096
 20
156.0621020568908079
 30
0.0
  0
SEQEND
  5
63B
  8
0
  0
POLYLINE
  5
4A9
  8
0
 66
     1
 10
0.0
 20
0.0
 30
0.0
  0
VERTEX
  5
63C
  8
0
 10
18.000003375517899
 20
149.999924230399813
 30
0.0
  0
VERTEX
  5
63D
  8
0
 10
18.000003375517899
 20
150.1414268930608955
 30
0.0
  0
VERTEX
  5
63E
  8
0
 10
18.000003375517899
 20
150.2829103042317911
 30
0.0
  0
VERTEX
  5
63F
  8
0
 10
18.000003375517899
 20
150.4243552124221992
 30
0.0
  0
VERTEX
  5
640
  8
0
 10
18.000003375517899
 20
150.5657423661419045
 30
0.0
  0
VERTEX
  5
641
  8
0
 10
18.000003375517899
 20
150.7070525139004928
 30
0.0
  0
VERTEX
  5
642
  8
0
 10
18.000003375517899
 20
150.8482664042080046
 30
0.0
  0
VERTEX
  5
643
  8
0
 10
18.000003375517899
 20
150.9893647855739118
 30
0.0
  0
VERTEX
  5
644
  8
0
 10
18.000003375517899
 20
151.1303292669362861
 30
0.0
  0
VERTEX
  5
645
  8
0
 10
18.000003375517899
 20
151.2711472553652072
 30
0.0
  0
VERTEX
  5
646
  8
0
 10
18.000003375517899
 20
151.4118085523219861
 30
0.0
  0
VERTEX
  5
647
  8
0
 10
18.000003375517899
 20
151.5523029668144943
 30
0.0
  0
VERTEX
  5
648
  8
0
 10
18.000003375517899
 20
151.6926203078502908
 30
0.0
  0
VERTEX
  5
649
  8
0
 10
18.000003375517899
 20
151.8327503844371904
 30
0.0
  0
VERTEX
  5
64A
  8
0
 10
18.000003375517899
 20
151.9726830055830078
 30
0.0
  0
VERTEX
  5
64B
  8
0
 10
18.000003375517899
 20
152.1124076322745111
 30
0.0
  0
VERTEX
  5
64C
  8
0
 10
18.000003375517899
 20
152.2519095325245075
 30
0.0
  0
VERTEX
  5
64D
  8
0
 10
18.000003375517899
 20
152.3911711976109018
 30
0.0
  0
VERTEX
  5
64E
  8
0
 10
18.000003375517899
 20
152.5301750692069049
 30
0.0
  0
VERTEX
  5
64F
  8
0
 10
18.000003375517899
 20
152.6689035889858985
 30
0.0
  0
VERTEX
  5
650
  8
0
 10
18.000003375517899
 20
152.8073391986212926
 30
0.0
  0
VERTEX
  5
651
  8
0
 10
18.000003375517899
 20
152.9454643397864118
 30
0.0
  0
VERTEX
  5
652
  8
0
 10
18.000003375517899
 20
153.0832618346904042
 30
0.0
  0
VERTEX
  5
653
  8
0
 10
18.000003375517899
 20
153.2207380092953883
 30
0.0
  0
VERTEX
  5
654
  8
0
 10
18.000003375517899
 20
153.3579360118872046
 30
0.0
  0
VERTEX
  5
655
  8
0
 10
18.000003375517899
 20
153.4949022044683034
 30
0.0
  0
VERTEX
  5
656
  8
0
 10
18.000003375517899
 20
153.6316829490405951
 30
0.0
  0
VERTEX
  5
657
  8
0
 10
18.000003375517899
 20
153.7683246076063881
 30
0.0
  0
VERTEX
  5
658
  8
0
 10
18.000003375517899
 20
153.9048735421679055
 30
0.0
  0
VERTEX
  5
659
  8
0
 10
18.000003375517899
 20
154.0413761147271998
 30
0.0
  0
SEQEND
  5
65A
  8
0
  0
POLYLINE
  5
4AA
  8
0
 66
     1
 10
0.0
 20
0.0
 30
0.0
  0
VERTEX
  5
65B
  8
0
 10
21.5000033755179096
 20
156.0621020568908079
 30
0.0
  0
VERTEX
  5
65C
  8
0
 10
21.6224989028767389
 20
156.132824882585993
 30
0.0
  0
VERTEX
  5
65D
  8
0
 10
21.7449775995136214
 20
156.2035379910593065
 30
0.0
  0
VERTEX
  5
65E
  8
0
 10
21.8674233279771002
 20
156.274232065348798
 30
0.0
  0
VERTEX
  5
65F
  8
0
 10
21.9898230008316808
 20
156.3448995494202052
 30
0.0
  0
VERTEX
  5
660
  8
0
 10
22.1121643691567513
 20
156.4155333713555933
 30
0.0
  0
VERTEX
  5
661
  8
0
 10
22.2344351840558794
 20
156.4861264592516932
 30
0.0
  0
VERTEX
  5
662
  8
0
 10
22.3566231966327997
 20
156.5566717412046955
 30
0.0
  0
VERTEX
  5
663
  8
0
 10
22.4787161579911299
 20
156.6271621453111038
 30
0.0
  0
VERTEX
  5
664
  8
0
 10
22.6007017668424091
 20
156.697590569418594
 30
0.0
  0
VERTEX
  5
665
  8
0
 10
22.7225631798734788
 20
156.7679472890359023
 30
0.0
  0
VERTEX
  5
666
  8
0
 10
22.8442755640961899
 20
156.838217966830598
 30
0.0
  0
VERTEX
  5
667
  8
0
 10
22.9658132748738808
 20
156.9083877968647869
 30
0.0
  0
VERTEX
  5
668
  8
0
 10
23.0871506675698583
 20
156.9784419732006029
 30
0.0
  0
VERTEX
  5
669
  8
0
 10
23.2082620975474185
 20
157.0483656899000948
 30
0.0
  0
VERTEX
  5
66A
  8
0
 10
23.3291219201699391
 20
157.1181441410255104
 30
0.0
  0
VERTEX
  5
66B
  8
0
 10
23.4497062022759302
 20
157.1877635087593887
 30
0.0
  0
VERTEX
  5
66C
  8
0
 10
23.5700162914692193
 20
157.2572245711413927
 30
0.0
  0
VERTEX
  5
66D
  8
0
 10
23.6900728301467289
 20
157.3265392460648116
 30
0.0
  0
VERTEX
  5
66E
  8
0
 10
23.8098969475181192
 20
157.3957197324845936
 30
0.0
  0
VERTEX
  5
66F
  8
0
 10
23.9295097727930397
 20
157.464778229355602
 30
0.0
  0
VERTEX
  5
670
  8
0
 10
24.0489324351811398
 20
157.5337269356326999
 30
0.0
  0
VERTEX
  5
671
  8
0
 10
24.1681860638920796
 20
157.6025780502708074
 30
0.0
  0
VERTEX
  5
672
  8
0
 10
24.2872917881354589
 20
157.6713437722247022
 30
0.0
  0
VERTEX
  5
673
  8
0
 10
24.4062707371209591
 20
157.7400363004493897
 30
0.0
  0
VERTEX
  5
674
  8
0
 10
24.525144040058219
 20
157.8086678338997046
 30
0.0
  0
VERTEX
  5
675
  8
0
 10
24.6439328261569202
 20
157.8772505715305101
 30
0.0
  0
VERTEX
  5
676
  8
0
 10
24.7626582246266516
 20
157.9457967122966124
 30
0.0
  0
VERTEX
  5
677
  8
0
 10
24.8813413646770982
 20
158.0143184551531021
 30
0.0
  0
VERTEX
  5
678
  8
0
 10
25.0000033755179096
 20
158.0828279990545866
 30
0.0
  0
SEQEND
  5
679
  8
0
  0
POLYLINE
  5
4AB
  8
0
 66
     1
 10
0.0
 20
0.0
 30
0.0
  0
VERTEX
  5
67A
  8
0
 10
25.0000033755179096
 20
158.0828279990545866
 30
0.0
  0
VERTEX
  5
67B
  8
0
 10
25.1182076252521291
 20
158.0145827436510899
 30
0.0
  0
VERTEX
  5
67C
  8
0
 10
25.2364528147236094
 20
157.9463138516794061
 30
0.0
  0
VERTEX
  5
67D
  8
0
 10
25.354779883669579
 20
157.8779976865710069
 30
0.0
  0
VERTEX
  5
67E
  8
0
 10
25.4732297718273095
 20
157.8096106117577051
 30
0.0
  0
VERTEX
  5
67F
  8
0
 10
25.5918434189340793
 20
157.741128990671001
 30
0.0
  0
VERTEX
  5
680
  8
0
 10
25.7106617647271207
 20
157.6725291867427075
 30
0.0
  0
VERTEX
  5
681
  8
0
 10
25.8297257489437015
 20
157.6037875634044951
 30
0.0
  0
VERTEX
  5
682
  8
0
 10
25.9490712346690202
 20
157.5348834150944128
 30
0.0
  0
VERTEX
  5
683
  8
0
 10
26.0686984771267909
 20
157.4658165944589996
 30
0.0
  0
VERTEX
  5
684
  8
0
 10
26.1885924905373102
 20
157.3965957535421865
 30
0.0
  0
VERTEX
  5
685
  8
0
 10
26.3087382313516116
 20
157.3272295777410932
 30
0.0
  0
VERTEX
  5
686
  8
0
 10
26.4291206560206717
 20
157.2577267524526974
 30
0.0
  0
VERTEX
  5
687
  8
0
 10
26.5497247209954992
 20
157.1880959630742041
 30
0.0
  0
VERTEX
  5
688
  8
0
 10
26.6705353827270812
 20
157.1183458950025056
 30
0.0
  0
VERTEX
  5
689
  8
0
 10
26.7915378628791814
 20
157.0484850805140127
 30
0.0
  0
VERTEX
  5
68A
  8
0
 10
26.9127208572829204
 20
156.978520046073811
 30
0.0
  0
VERTEX
  5
68B
  8
0
 10
27.0340755040202509
 20
156.908455908112586
 30
0.0
  0
VERTEX
  5
68C
  8
0
 10
27.1555929919329699
 20
156.8382977537550005
 30
0.0
  0
VERTEX
  5
68D
  8
0
 10
27.2772645098627891
 20
156.7680506701254899
 30
0.0
  0
VERTEX
  5
68E
  8
0
 10
27.3990812466514591
 20
156.6977197443488024
 30
0.0
  0
VERTEX
  5
68F
  8
0
 10
27.52103439114072
 20
156.6273100635492881
 30
0.0
  0
VERTEX
  5
690
  8
0
 10
27.6431150909104986
 20
156.5568267386744026
 30
0.0
  0
VERTEX
  5
691
  8
0
 10
27.7653116900472696
 20
156.4862764992687119
 30
0.0
  0
VERTEX
  5
692
  8
0
 10
27.8876079874686411
 20
156.4156686990316132
 30
0.0
  0
VERTEX
  5
693
  8
0
 10
28.0099873667938901
 20
156.3450129314348942
 30
0.0
  0
VERTEX
  5
694
  8
0
 10
28.1324332116422013
 20
156.2743187899505983
 30
0.0
  0
VERTEX
  5
695
  8
0
 10
28.2549289056328199
 20
156.2035958680505132
 30
0.0
  0
VERTEX
  5
696
  8
0
 10
28.3774578323849802
 20
156.1328537592067107
 30
0.0
  0
VERTEX
  5
697
  8
0
 10
28.500003375517899
 20
156.0621020568908079
 30
0.0
  0
SEQEND
  5
698
  8
0
  0
POLYLINE
  5
4AC
  8
0
 66
     1
 10
0.0
 20
0.0
 30
0.0
  0
VERTEX
  5
699
  8
0
 10
18.5
 20
146.2472232502676093
 30
0.0
  0
VERTEX
  5
69A
  8
0
 10
18.6552891308620801
 20
146.1575670287620881
 30
0.0
  0
VERTEX
  5
69B
  8
0
 10
18.8106785996405712
 20
146.0678528771335891
 30
0.0
  0
VERTEX
  5
69C
  8
0
 10
18.9662687442517495
 20
145.9780228652591063
 30
0.0
  0
VERTEX
  5
69D
  8
0
 10
19.1221599026120508
 20
145.8880190630154914
 30
0.0
  0
VERTEX
  5
69E
  8
0
 10
19.2784524126377903
 20
145.797783540279795
 30
0.0
  0
VERTEX
  5
69F
  8
0
 10
19.4352422365922415
 20
145.707260893213487
 30
0.0
  0
VERTEX
  5
6A0
  8
0
 10
19.5925526809048698
 20
145.6164376658433071
 30
0.0
  0
VERTEX
  5
6A1
  8
0
 10
19.7503472037382686
 20
145.5253349556087983
 30
0.0
  0
VERTEX
  5
6A2
  8
0
 10
19.9085874793494995
 20
145.4339748898879918
 30
0.0
  0
VERTEX
  5
6A3
  8
0
 10
20.0672351819955814
 20
145.3423795960590041
 30
0.0
  0
VERTEX
  5
6A4
  8
0
 10
20.2262519906846592
 20
145.2505711987566883
 30
0.0
  0
VERTEX
  5
6A5
  8
0
 10
20.3856017074408307
 20
145.15857059689219
 30
0.0
  0
VERTEX
  5
6A6
  8
0
 10
20.5452535925436202
 20
145.0663955380514949
 30
0.0
  0
VERTEX
  5
6A7
  8
0
 10
20.7051777713684295
 20
144.9740632703571066
 30
0.0
  0
VERTEX
  5
6A8
  8
0
 10
20.8653443692906286
 20
144.8815910419315003
 30
0.0
  0
VERTEX
  5
6A9
  8
0
 10
21.0257235116855909
 20
144.7889961008974069
 30
0.0
  0
VERTEX
  5
6AA
  8
0
 10
21.1862852094475116
 20
144.6962957614728964
 30
0.0
  0
VERTEX
  5
6AB
  8
0
 10
21.3469977898866112
 20
144.6035083098942948
 30
0.0
  0
VERTEX
  5
6AC
  8
0
 10
21.5078282991563299
 20
144.5106527720733993
 30
0.0
  0
VERTEX
  5
6AD
  8
0
 10
21.6687437513019994
 20
144.4177481924604081
 30
0.0
  0
VERTEX
  5
6AE
  8
0
 10
21.8297111603688485
 20
144.324813615504894
 30
0.0
  0
VERTEX
  5
6AF
  8
0
 10
21.99069753961302
 20
144.2318680861123994
 30
0.0
  0
VERTEX
  5
6B0
  8
0
 10
22.1516655120290089
 20
144.1389331839071133
 30
0.0
  0
VERTEX
  5
6B1
  8
0
 10
22.3125630137879511
 20
144.0460389679547006
 30
0.0
  0
VERTEX
  5
6B2
  8
0
 10
22.4733349134704916
 20
143.953217268394809
 30
0.0
  0
VERTEX
  5
6B3
  8
0
 10
22.6339260796573285
 20
143.8604999153673987
 30
0.0
  0
VERTEX
  5
6B4
  8
0
 10
22.7942813809291884
 20
143.7679187390120887
 30
0.0
  0
VERTEX
  5
6B5
  8
0
 10
22.9543456858667092
 20
143.6755055694686973
 30
0.0
  0
VERTEX
  5
6B6
  8
0
 10
23.1140638630505997
 20
143.5832922368772131
 30
0.0
  0
VERTEX
  5
6B7
  8
0
 10
23.2733807810615509
 20
143.4913105713771131
 30
0.0
  0
VERTEX
  5
6B8
  8
0
 10
23.4322413084802292
 20
143.3995924031083007
 30
0.0
  0
VERTEX
  5
6B9
  8
0
 10
23.5905946450359885
 20
143.308167061620793
 30
0.0
  0
VERTEX
  5
6BA
  8
0
 10
23.748450573373141
 20
143.2170288989021003
 30
0.0
  0
VERTEX
  5
6BB
  8
0
 10
23.9058634428840016
 20
143.1261465363160994
 30
0.0
  0
VERTEX
  5
6BC
  8
0
 10
24.0628886359218406
 20
143.0354879988462073
 30
0.0
  0
VERTEX
  5
6BD
  8
0
 10
24.219581534839989
 20
142.9450213114756991
 30
0.0
  0
VERTEX
  5
6BE
  8
0
 10
24.3759975219917102
 20
142.8547144991881055
 30
0.0
  0
VERTEX
  5
6BF
  8
0
 10
24.5321919797302712
 20
142.7645355869667867
 30
0.0
  0
VERTEX
  5
6C0
  8
0
 10
24.6882202904089887
 20
142.6744525997951882
 30
0.0
  0
VERTEX
  5
6C1
  8
0
 10
24.8441378363811296
 20
142.5844335626568125
 30
0.0
  0
VERTEX
  5
6C2
  8
0
 10
25.0
 20
142.4944465005349912
 30
0.0
  0
SEQEND
  5
6C3
  8
0
  0
POLYLINE
  5
4AD
  8
0
 66
     1
 10
0.0
 20
0.0
 30
0.0
  0
VERTEX
  5
6C4
  8
0
 10
31.5
 20
146.2472232502676093
 30
0.0
  0
VERTEX
  5
6C5
  8
0
 10
31.3447108691378915
 20
146.1575670287620881
 30
0.0
  0
VERTEX
  5
6C6
  8
0
 10
31.1893214003594288
 20
146.0678528771335891
 30
0.0
  0
VERTEX
  5
6C7
  8
0
 10
31.0337312557482186
 20
145.9780228652591063
 30
0.0
  0
VERTEX
  5
6C8
  8
0
 10
30.8778400973879492
 20
145.8880190630154914
 30
0.0
  0
VERTEX
  5
6C9
  8
0
 10
30.7215475873622097
 20
145.797783540279795
 30
0.0
  0
VERTEX
  5
6CA
  8
0
 10
30.5647577634077514
 20
145.707260893213487
 30
0.0
  0
VERTEX
  5
6CB
  8
0
 10
30.4074473190951302
 20
145.6164376658433071
 30
0.0
  0
VERTEX
  5
6CC
  8
0
 10
30.2496527962617314
 20
145.5253349556087983
 30
0.0
  0
VERTEX
  5
6CD
  8
0
 10
30.0914125206505183
 20
145.4339748898879918
 30
0.0
  0
VERTEX
  5
6CE
  8
0
 10
29.9327648180044186
 20
145.3423795960590041
 30
0.0
  0
VERTEX
  5
6CF
  8
0
 10
29.7737480093153408
 20
145.2505711987566883
 30
0.0
  0
VERTEX
  5
6D0
  8
0
 10
29.6143982925591693
 20
145.15857059689219
 30
0.0
  0
VERTEX
  5
6D1
  8
0
 10
29.4547464074563905
 20
145.0663955380514949
 30
0.0
  0
VERTEX
  5
6D2
  8
0
 10
29.2948222286315492
 20
144.9740632703571066
 30
0.0
  0
VERTEX
  5
6D3
  8
0
 10
29.1346556307093785
 20
144.8815910419315003
 30
0.0
  0
VERTEX
  5
6D4
  8
0
 10
28.9742764883144197
 20
144.7889961008974069
 30
0.0
  0
VERTEX
  5
6D5
  8
0
 10
28.8137147905524706
 20
144.6962957614728964
 30
0.0
  0
VERTEX
  5
6D6
  8
0
 10
28.6530022101133603
 20
144.6035083098942948
 30
0.0
  0
VERTEX
  5
6D7
  8
0
 10
28.4921717008436417
 20
144.5106527720733993
 30
0.0
  0
VERTEX
  5
6D8
  8
0
 10
28.3312562486979687
 20
144.4177481924604081
 30
0.0
  0
VERTEX
  5
6D9
  8
0
 10
28.1702888396311302
 20
144.324813615504894
 30
0.0
  0
VERTEX
  5
6DA
  8
0
 10
28.0093024603869516
 20
144.2318680861123994
 30
0.0
  0
VERTEX
  5
6DB
  8
0
 10
27.8483344879709591
 20
144.1389331839071133
 30
0.0
  0
VERTEX
  5
6DC
  8
0
 10
27.6874369862120204
 20
144.0460389679547006
 30
0.0
  0
VERTEX
  5
6DD
  8
0
 10
27.52666508652948
 20
143.953217268394809
 30
0.0
  0
VERTEX
  5
6DE
  8
0
 10
27.3660739203426395
 20
143.8604999153673987
 30
0.0
  0
VERTEX
  5
6DF
  8
0
 10
27.2057186190707796
 20
143.7679187390120887
 30
0.0
  0
VERTEX
  5
6E0
  8
0
 10
27.0456543141332588
 20
143.6755055694686973
 30
0.0
  0
VERTEX
  5
6E1
  8
0
 10
26.8859361369493683
 20
143.5832922368772131
 30
0.0
  0
VERTEX
  5
6E2
  8
0
 10
26.7266192189384313
 20
143.4913105713771131
 30
0.0
  0
VERTEX
  5
6E3
  8
0
 10
26.5677586915197388
 20
143.3995924031083007
 30
0.0
  0
VERTEX
  5
6E4
  8
0
 10
26.4094053549639796
 20
143.308167061620793
 30
0.0
  0
VERTEX
  5
6E5
  8
0
 10
26.2515494266268412
 20
143.2170288989021003
 30
0.0
  0
VERTEX
  5
6E6
  8
0
 10
26.09413655711597
 20
143.1261465363160994
 30
0.0
  0
VERTEX
  5
6E7
  8
0
 10
25.9371113640781097
 20
143.0354879988462073
 30
0.0
  0
VERTEX
  5
6E8
  8
0
 10
25.780418465159979
 20
142.9450213114756991
 30
0.0
  0
VERTEX
  5
6E9
  8
0
 10
25.6240024780082685
 20
142.8547144991881055
 30
0.0
  0
VERTEX
  5
6EA
  8
0
 10
25.4678080202697004
 20
142.7645355869667867
 30
0.0
  0
VERTEX
  5
6EB
  8
0
 10
25.3117797095909793
 20
142.6744525997951882
 30
0.0
  0
VERTEX
  5
6EC
  8
0
 10
25.1558621636188491
 20
142.5844335626568125
 30
0.0
  0
VERTEX
  5
6ED
  8
0
 10
25.0
 20
142.4944465005349912
 30
0.0
  0
SEQEND
  5
6EE
  8
0
  0
POLYLINE
  5
4AE
  8
0
 66
     1
 10
0.0
 20
0.0
 30
0.0
  0
VERTEX
  5
6EF
  8
0
 10
31.5
 20
146.2472232502676093
 30
0.0
  0
VERTEX
  5
6F0
  8
0
 10
31.5
 20
146.4035932743078945
 30
0.0
  0
VERTEX
  5
6F1
  8
0
 10
31.5
 20
146.5600490984043063
 30
0.0
  0
VERTEX
  5
6F2
  8
0
 10
31.5
 20
146.7166765226133123
 30
0.0
  0
VERTEX
  5
6F3
  8
0
 10
31.5
 20
146.8735613469908117
 30
0.0
  0
VERTEX
  5
6F4
  8
0
 10
31.5
 20
147.0307893715931868
 30
0.0
  0
VERTEX
  5
6F5
  8
0
 10
31.5
 20
147.1884453635524892
 30
0.0
  0
VERTEX
  5
6F6
  8
0
 10
31.5
 20
147.3465674680635971
 30
0.0
  0
VERTEX
  5
6F7
  8
0
 10
31.5
 20
147.5051292348788934
 30
0.0
  0
VERTEX
  5
6F8
  8
0
 10
31.5
 20
147.6640994658851014
 30
0.0
  0
VERTEX
  5
6F9
  8
0
 10
31.5
 20
147.8234469629692001
 30
0.0
  0
VERTEX
  5
6FA
  8
0
 10
31.5
 20
147.9831405280181116
 30
0.0
  0
VERTEX
  5
6FB
  8
0
 10
31.5
 20
148.143149275508506
 30
0.0
  0
VERTEX
  5
6FC
  8
0
 10
31.5
 20
148.3034500669479883
 30
0.0
  0
VERTEX
  5
6FD
  8
0
 10
31.5
 20
148.4640278338484904
 30
0.0
  0
VERTEX
  5
6FE
  8
0
 10
31.5
 20
148.624867884940187
 30
0.0
  0
VERTEX
  5
6FF
  8
0
 10
31.5
 20
148.7859555289533944
 30
0.0
  0
VERTEX
  5
700
  8
0
 10
31.5
 20
148.9472760746180882
 30
0.0
  0
VERTEX
  5
701
  8
0
 10
31.5
 20
149.1088140515107057
 30
0.0
  0
VERTEX
  5
702
  8
0
 10
31.5
 20
149.2705420792092923
 30
0.0
  0
VERTEX
  5
703
  8
0
 10
31.5
 20
149.4324234785730141
 30
0.0
  0
VERTEX
  5
704
  8
0
 10
31.5
 20
149.5944213236114138
 30
0.0
  0
VERTEX
  5
705
  8
0
 10
31.5
 20
149.7564986883344034
 30
0.0
  0
VERTEX
  5
706
  8
0
 10
31.5
 20
149.9186186467516109
 30
0.0
  0
VERTEX
  5
707
  8
0
 10
31.5
 20
150.0807446384314972
 30
0.0
  0
VERTEX
  5
708
  8
0
 10
31.5
 20
150.2428465581068906
 30
0.0
  0
VERTEX
  5
709
  8
0
 10
31.5
 20
150.4048998274068083
 30
0.0
  0
VERTEX
  5
70A
  8
0
 10
31.5
 20
150.5668800464611081
 30
0.0
  0
VERTEX
  5
70B
  8
0
 10
31.5
 20
150.7287628153999037
 30
0.0
  0
VERTEX
  5
70C
  8
0
 10
31.5
 20
150.8905237343529961
 30
0.0
  0
VERTEX
  5
70D
  8
0
 10
31.5
 20
151.0521381038496997
 30
0.0
  0
VERTEX
  5
70E
  8
0
 10
31.5
 20
151.2135750601954101
 30
0.0
  0
VERTEX
  5
70F
  8
0
 10
31.5
 20
151.3747979539959942
 30
0.0
  0
VERTEX
  5
710
  8
0
 10
31.5
 20
151.5357699120569919
 30
0.0
  0
VERTEX
  5
711
  8
0
 10
31.5
 20
151.6964540611839141
 30
0.0
  0
VERTEX
  5
712
  8
0
 10
31.5
 20
151.8568135281821014
 30
0.0
  0
VERTEX
  5
713
  8
0
 10
31.5
 20
152.0168114398572072
 30
0.0
  0
VERTEX
  5
714
  8
0
 10
31.5
 20
152.1764109230147142
 30
0.0
  0
VERTEX
  5
715
  8
0
 10
31.5
 20
152.3355751044601902
 30
0.0
  0
VERTEX
  5
716
  8
0
 10
31.5
 20
152.4942751414803013
 30
0.0
  0
VERTEX
  5
717
  8
0
 10
31.5
 20
152.6525400095430882
 30
0.0
  0
VERTEX
  5
718
  8
0
 10
31.5
 20
152.8104240107934118
 30
0.0
  0
VERTEX
  5
719
  8
0
 10
31.5
 20
152.9679815547758892
 30
0.0
  0
VERTEX
  5
71A
  8
0
 10
31.5
 20
153.1252670510351095
 30
0.0
  0
VERTEX
  5
71B
  8
0
 10
31.5
 20
153.2823349091158036
 30
0.0
  0
VERTEX
  5
71C
  8
0
 10
31.5
 20
153.4392395385625036
 30
0.0
  0
VERTEX
  5
71D
  8
0
 10
31.5
 20
153.5960353489199122
 30
0.0
  0
VERTEX
  5
71E
  8
0
 10
31.5
 20
153.7527767497327034
 30
0.0
  0
SEQEND
  5
71F
  8
0
  0
POLYLINE
  5
4AF
  8
0
 66
     1
 10
0.0
 20
0.0
 30
0.0
  0
VERTEX
  5
720
  8
0
 10
31.5
 20
153.7527767497327034
 30
0.0
  0
VERTEX
  5
721
  8
0
 10
31.3447108691378915
 20
153.8424329712381962
 30
0.0
  0
VERTEX
  5
722
  8
0
 10
31.1893214003594288
 20
153.9321471228666951
 30
0.0
  0
VERTEX
  5
723
  8
0
 10
31.0337312557482186
 20
154.0219771347412063
 30
0.0
  0
VERTEX
  5
724
  8
0
 10
30.8778400973879492
 20
154.1119809369847928
 30
0.0
  0
VERTEX
  5
725
  8
0
 10
30.7215475873622097
 20
154.2022164597204892
 30
0.0
  0
VERTEX
  5
726
  8
0
 10
30.5647577634077514
 20
154.2927391067867973
 30
0.0
  0
VERTEX
  5
727
  8
0
 10
30.4074473190951302
 20
154.3835623341568919
 30
0.0
  0
VERTEX
  5
728
  8
0
 10
30.2496527962617314
 20
154.4746650443914859
 30
0.0
  0
VERTEX
  5
729
  8
0
 10
30.0914125206505183
 20
154.5660251101122071
 30
0.0
  0
VERTEX
  5
72A
  8
0
 10
29.9327648180044186
 20
154.6576204039413085
 30
0.0
  0
VERTEX
  5
72B
  8
0
 10
29.7737480093153408
 20
154.7494288012435959
 30
0.0
  0
VERTEX
  5
72C
  8
0
 10
29.6143982925591693
 20
154.8414294031080942
 30
0.0
  0
VERTEX
  5
72D
  8
0
 10
29.4547464074563905
 20
154.9336044619487893
 30
0.0
  0
VERTEX
  5
72E
  8
0
 10
29.2948222286315492
 20
155.025936729643206
 30
0.0
  0
VERTEX
  5
72F
  8
0
 10
29.1346556307093785
 20
155.1184089580688124
 30
0.0
  0
VERTEX
  5
730
  8
0
 10
28.9742764883144197
 20
155.2110038991029057
 30
0.0
  0
VERTEX
  5
731
  8
0
 10
28.8137147905524706
 20
155.3037042385273878
 30
0.0
  0
VERTEX
  5
732
  8
0
 10
28.6530022101133603
 20
155.3964916901059894
 30
0.0
  0
VERTEX
  5
733
  8
0
 10
28.4921717008436417
 20
155.4893472279269133
 30
0.0
  0
VERTEX
  5
734
  8
0
 10
28.3312562486979687
 20
155.5822518075399046
 30
0.0
  0
VERTEX
  5
735
  8
0
 10
28.1702888396311302
 20
155.6751863844953903
 30
0.0
  0
VERTEX
  5
736
  8
0
 10
28.0093024603869516
 20
155.7681319138879132
 30
0.0
  0
VERTEX
  5
737
  8
0
 10
27.8483344879709591
 20
155.8610668160931141
 30
0.0
  0
VERTEX
  5
738
  8
0
 10
27.6874369862120204
 20
155.953961032045612
 30
0.0
  0
VERTEX
  5
739
  8
0
 10
27.52666508652948
 20
156.0467827316055036
 30
0.0
  0
VERTEX
  5
73A
  8
0
 10
27.3660739203426395
 20
156.139500084632914
 30
0.0
  0
VERTEX
  5
73B
  8
0
 10
27.2057186190707796
 20
156.2320812609881955
 30
0.0
  0
VERTEX
  5
73C
  8
0
 10
27.0456543141332588
 20
156.3244944305315016
 30
0.0
  0
VERTEX
  5
73D
  8
0
 10
26.8859361369493683
 20
156.4167077631230995
 30
0.0
  0
VERTEX
  5
73E
  8
0
 10
26.7266192189384313
 20
156.5086894286231995
 30
0.0
  0
VERTEX
  5
73F
  8
0
 10
26.5677586915197388
 20
156.600407596892012
 30
0.0
  0
VERTEX
  5
740
  8
0
 10
26.4094053549639796
 20
156.6918329383794912
 30
0.0
  0
VERTEX
  5
741
  8
0
 10
26.2515494266268412
 20
156.7829711010982123
 30
0.0
  0
VERTEX
  5
742
  8
0
 10
26.09413655711597
 20
156.8738534636842132
 30
0.0
  0
VERTEX
  5
743
  8
0
 10
25.9371113640781097
 20
156.9645120011541053
 30
0.0
  0
VERTEX
  5
744
  8
0
 10
25.780418465159979
 20
157.0549786885246135
 30
0.0
  0
VERTEX
  5
745
  8
0
 10
25.6240024780082685
 20
157.1452855008122071
 30
0.0
  0
VERTEX
  5
746
  8
0
 10
25.4678080202696684
 20
157.2354644130334975
 30
0.0
  0
VERTEX
  5
747
  8
0
 10
25.3117797095909793
 20
157.325547400205096
 30
0.0
  0
VERTEX
  5
748
  8
0
 10
25.1558621636188207
 20
157.4155664373435002
 30
0.0
  0
VERTEX
  5
749
  8
0
 10
24.9999999999999716
 20
157.505553499465293
 30
0.0
  0
SEQEND
  5
74A
  8
0
  0
POLYLINE
  5
4B0
  8
0
 66
     1
 10
0.0
 20
0.0
 30
0.0
  0
VERTEX
  5
74B
  8
0
 10
18.5
 20
153.7527767497327034
 30
0.0
  0
VERTEX
  5
74C
  8
0
 10
18.6552891308620801
 20
153.8424329712381962
 30
0.0
  0
VERTEX
  5
74D
  8
0
 10
18.8106785996405712
 20
153.9321471228666951
 30
0.0
  0
VERTEX
  5
74E
  8
0
 10
18.9662687442517495
 20
154.0219771347412063
 30
0.0
  0
VERTEX
  5
74F
  8
0
 10
19.1221599026120508
 20
154.1119809369847928
 30
0.0
  0
VERTEX
  5
750
  8
0
 10
19.2784524126377903
 20
154.2022164597204892
 30
0.0
  0
VERTEX
  5
751
  8
0
 10
19.4352422365922415
 20
154.2927391067867973
 30
0.0
  0
VERTEX
  5
752
  8
0
 10
19.5925526809048698
 20
154.3835623341568919
 30
0.0
  0
VERTEX
  5
753
  8
0
 10
19.7503472037382686
 20
154.4746650443914859
 30
0.0
  0
VERTEX
  5
754
  8
0
 10
19.9085874793494817
 20
154.5660251101122071
 30
0.0
  0
VERTEX
  5
755
  8
0
 10
20.0672351819955814
 20
154.6576204039413085
 30
0.0
  0
VERTEX
  5
756
  8
0
 10
20.2262519906846308
 20
154.7494288012435959
 30
0.0
  0
VERTEX
  5
757
  8
0
 10
20.3856017074407987
 20
154.8414294031080942
 30
0.0
  0
VERTEX
  5
758
  8
0
 10
20.5452535925435917
 20
154.9336044619487893
 30
0.0
  0
VERTEX
  5
759
  8
0
 10
20.7051777713684011
 20
155.025936729643206
 30
0.0
  0
VERTEX
  5
75A
  8
0
 10
20.8653443692906002
 20
155.1184089580688124
 30
0.0
  0
VERTEX
  5
75B
  8
0
 10
21.0257235116855306
 20
155.2110038991029057
 30
0.0
  0
VERTEX
  5
75C
  8
0
 10
21.186285209447469
 20
155.3037042385273026
 30
0.0
  0
VERTEX
  5
75D
  8
0
 10
21.3469977898865899
 20
155.3964916901059894
 30
0.0
  0
VERTEX
  5
75E
  8
0
 10
21.5078282991563299
 20
155.4893472279267996
 30
0.0
  0
VERTEX
  5
75F
  8
0
 10
21.6687437513019709
 20
155.5822518075399046
 30
0.0
  0
VERTEX
  5
760
  8
0
 10
21.8297111603688485
 20
155.6751863844953903
 30
0.0
  0
VERTEX
  5
761
  8
0
 10
21.9906975396129987
 20
155.7681319138879132
 30
0.0
  0
VERTEX
  5
762
  8
0
 10
22.1516655120289805
 20
155.8610668160931141
 30
0.0
  0
VERTEX
  5
763
  8
0
 10
22.3125630137879192
 20
155.953961032045612
 30
0.0
  0
VERTEX
  5
764
  8
0
 10
22.4733349134704703
 20
156.0467827316053899
 30
0.0
  0
VERTEX
  5
765
  8
0
 10
22.6339260796573285
 20
156.139500084632914
 30
0.0
  0
VERTEX
  5
766
  8
0
 10
22.79428138092916
 20
156.2320812609881955
 30
0.0
  0
VERTEX
  5
767
  8
0
 10
22.9543456858666914
 20
156.3244944305315016
 30
0.0
  0
VERTEX
  5
768
  8
0
 10
23.1140638630505784
 20
156.4167077631230995
 30
0.0
  0
VERTEX
  5
769
  8
0
 10
23.273380781061519
 20
156.5086894286231995
 30
0.0
  0
VERTEX
  5
76A
  8
0
 10
23.4322413084802008
 20
156.600407596892012
 30
0.0
  0
VERTEX
  5
76B
  8
0
 10
23.5905946450359885
 20
156.6918329383794912
 30
0.0
  0
VERTEX
  5
76C
  8
0
 10
23.748450573373141
 20
156.7829711010982123
 30
0.0
  0
VERTEX
  5
76D
  8
0
 10
23.9058634428840016
 20
156.8738534636842132
 30
0.0
  0
VERTEX
  5
76E
  8
0
 10
24.0628886359218406
 20
156.9645120011541053
 30
0.0
  0
VERTEX
  5
76F
  8
0
 10
24.219581534839989
 20
157.0549786885246135
 30
0.0
  0
VERTEX
  5
770
  8
0
 10
24.3759975219917102
 20
157.1452855008122071
 30
0.0
  0
VERTEX
  5
771
  8
0
 10
24.5321919797302712
 20
157.2354644130334975
 30
0.0
  0
VERTEX
  5
772
  8
0
 10
24.6882202904089709
 20
157.325547400205096
 30
0.0
  0
VERTEX
  5
773
  8
0
 10
24.8441378363811296
 20
157.4155664373435002
 30
0.0
  0
VERTEX
  5
774
  8
0
 10
24.9999999999999716
 20
157.505553499465293
 30
0.0
  0
SEQEND
  5
775
  8
0
  0
POLYLINE
  5
4B1
  8
0
 66
     1
 10
0.0
 20
0.0
 30
0.0
  0
VERTEX
  5
776
  8
0
 10
18.5
 20
146.2472232502676093
 30
0.0
  0
VERTEX
  5
777
  8
0
 10
18.5
 20
146.4035932743078945
 30
0.0
  0
VERTEX
  5
778
  8
0
 10
18.5
 20
146.5600490984043063
 30
0.0
  0
VERTEX
  5
779
  8
0
 10
18.5
 20
146.7166765226133123
 30
0.0
  0
VERTEX
  5
77A
  8
0
 10
18.5
 20
146.8735613469908117
 30
0.0
  0
VERTEX
  5
77B
  8
0
 10
18.5
 20
147.0307893715931868
 30
0.0
  0
VERTEX
  5
77C
  8
0
 10
18.5
 20
147.1884453635524892
 30
0.0
  0
VERTEX
  5
77D
  8
0
 10
18.5
 20
147.3465674680635971
 30
0.0
  0
VERTEX
  5
77E
  8
0
 10
18.5
 20
147.5051292348788934
 30
0.0
  0
VERTEX
  5
77F
  8
0
 10
18.5
 20
147.6640994658851014
 30
0.0
  0
VERTEX
  5
780
  8
0
 10
18.5
 20
147.8234469629692001
 30
0.0
  0
VERTEX
  5
781
  8
0
 10
18.5
 20
147.9831405280181116
 30
0.0
  0
VERTEX
  5
782
  8
0
 10
18.5
 20
148.143149275508506
 30
0.0
  0
VERTEX
  5
783
  8
0
 10
18.5
 20
148.3034500669479883
 30
0.0
  0
VERTEX
  5
784
  8
0
 10
18.5
 20
148.4640278338484904
 30
0.0
  0
VERTEX
  5
785
  8
0
 10
18.5
 20
148.624867884940187
 30
0.0
  0
VERTEX
  5
786
  8
0
 10
18.5
 20
148.7859555289533944
 30
0.0
  0
VERTEX
  5
787
  8
0
 10
18.5
 20
148.9472760746180882
 30
0.0
  0
VERTEX
  5
788
  8
0
 10
18.5
 20
149.1088140515107057
 30
0.0
  0
VERTEX
  5
789
  8
0
 10
18.5
 20
149.2705420792092923
 30
0.0
  0
VERTEX
  5
78A
  8
0
 10
18.5
 20
149.4324234785730994
 30
0.0
  0
VERTEX
  5
78B
  8
0
 10
18.5
 20
149.5944213236114138
 30
0.0
  0
VERTEX
  5
78C
  8
0
 10
18.5
 20
149.7564986883344034
 30
0.0
  0
VERTEX
  5
78D
  8
0
 10
18.5
 20
149.9186186467516109
 30
0.0
  0
VERTEX
  5
78E
  8
0
 10
18.5
 20
150.0807446384314972
 30
0.0
  0
VERTEX
  5
78F
  8
0
 10
18.5
 20
150.2428465581068906
 30
0.0
  0
VERTEX
  5
790
  8
0
 10
18.5
 20
150.4048998274068083
 30
0.0
  0
VERTEX
  5
791
  8
0
 10
18.5
 20
150.5668800464611081
 30
0.0
  0
VERTEX
  5
792
  8
0
 10
18.5
 20
150.7287628153999037
 30
0.0
  0
VERTEX
  5
793
  8
0
 10
18.5
 20
150.8905237343529961
 30
0.0
  0
VERTEX
  5
794
  8
0
 10
18.5
 20
151.0521381038496997
 30
0.0
  0
VERTEX
  5
795
  8
0
 10
18.5
 20
151.2135750601954101
 30
0.0
  0
VERTEX
  5
796
  8
0
 10
18.5
 20
151.3747979539959942
 30
0.0
  0
VERTEX
  5
797
  8
0
 10
18.5
 20
151.5357699120569919
 30
0.0
  0
VERTEX
  5
798
  8
0
 10
18.5
 20
151.6964540611839141
 30
0.0
  0
VERTEX
  5
799
  8
0
 10
18.5
 20
151.8568135281821014
 30
0.0
  0
VERTEX
  5
79A
  8
0
 10
18.5
 20
152.0168114398572072
 30
0.0
  0
VERTEX
  5
79B
  8
0
 10
18.5
 20
152.1764109230147142
 30
0.0
  0
VERTEX
  5
79C
  8
0
 10
18.5
 20
152.3355751044601902
 30
0.0
  0
VERTEX
  5
79D
  8
0
 10
18.5
 20
152.4942751414803013
 30
0.0
  0
VERTEX
  5
79E
  8
0
 10
18.5
 20
152.6525400095432019
 30
0.0
  0
VERTEX
  5
79F
  8
0
 10
18.5
 20
152.810424010793497
 30
0.0
  0
VERTEX
  5
7A0
  8
0
 10
18.5
 20
152.9679815547758892
 30
0.0
  0
VERTEX
  5
7A1
  8
0
 10
18.5
 20
153.1252670510351095
 30
0.0
  0
VERTEX
  5
7A2
  8
0
 10
18.5
 20
153.2823349091158036
 30
0.0
  0
VERTEX
  5
7A3
  8
0
 10
18.5
 20
153.4392395385625036
 30
0.0
  0
VERTEX
  5
7A4
  8
0
 10
18.5
 20
153.5960353489199974
 30
0.0
  0
VERTEX
  5
7A5
  8
0
 10
18.5
 20
153.7527767497327886
 30
0.0
  0
SEQEND
  5
7A6
  8
0
  0
ENDSEC
  0
EOF
