  0
SECTION
  2
HEADER
  9
$ACADVER
  1
AC1009
  9
$INSBASE
 10
0.0
 20
0.0
 30
0.0
  9
$EXTMIN
 10
0.0
 20
-2.960436562073669
 30
0.0
  9
$EXTMAX
 10
320.44018126507922
 20
443.87966854946598
 30
0.0
  9
$LIMMIN
 10
0.0
 20
0.0
  9
$LIMMAX
 10
750.0
 20
540.0
  9
$ORTHOMODE
 70
     0
  9
$REGENMODE
 70
     1
  9
$FILLMODE
 70
     1
  9
$QTEXTMODE
 70
     0
  9
$MIRRTEXT
 70
     0
  9
$DRAGMODE
 70
     2
  9
$LTSCALE
 40
10.0
  9
$OSMODE
 70
    37
  9
$ATTMODE
 70
     1
  9
$TEXTSIZE
 40
0.2
  9
$TRACEWID
 40
0.05
  9
$TEXTSTYLE
  7
25000
  9
$CLAYER
  8
0
  9
$CELTYPE
  6
BYLAYER
  9
$CECOLOR
 62
   256
  9
$DIMSCALE
 40
2.0
  9
$DIMASZ
 40
3.0
  9
$DIMEXO
 40
2.0
  9
$DIMDLI
 40
0.38
  9
$DIMRND
 40
0.0
  9
$DIMDLE
 40
0.0
  9
$DIMEXE
 40
2.0
  9
$DIMTP
 40
0.0
  9
$DIMTM
 40
0.0
  9
$DIMTXT
 40
3.0
  9
$DIMCEN
 40
0.0
  9
$DIMTSZ
 40
0.0
  9
$DIMTOL
 70
     0
  9
$DIMLIM
 70
     0
  9
$DIMTIH
 70
     0
  9
$DIMTOH
 70
     0
  9
$DIMSE1
 70
     0
  9
$DIMSE2
 70
     0
  9
$DIMTAD
 70
     1
  9
$DIMZIN
 70
     8
  9
$DIMBLK
  1

  9
$DIMASO
 70
     1
  9
$DIMSHO
 70
     0
  9
$DIMPOST
  1

  9
$DIMAPOST
  1

  9
$DIMALT
 70
     0
  9
$DIMALTD
 70
     2
  9
$DIMALTF
 40
25.399999999999999
  9
$DIMLFAC
 40
1.0
  9
$DIMTOFL
 70
     1
  9
$DIMTVP
 40
1.6000000000000001
  9
$DIMTIX
 70
     1
  9
$DIMSOXD
 70
     0
  9
$DIMSAH
 70
     0
  9
$DIMBLK1
  1

  9
$DIMBLK2
  1

  9
$DIMSTYLE
  2
STANDARD
  9
$DIMCLRD
 70
     0
  9
$DIMCLRE
 70
     0
  9
$DIMCLRT
 70
     0
  9
$DIMTFAC
 40
1.0
  9
$DIMGAP
 40
0.09
  9
$LUNITS
 70
     2
  9
$LUPREC
 70
     1
  9
$SKETCHINC
 40
0.1
  9
$FILLETRAD
 40
1.5
  9
$AUNITS
 70
     0
  9
$AUPREC
 70
     0
  9
$MENU
  1
E:\r13\win\SUPPORT\ACAD
  9
$ELEVATION
 40
0.0
  9
$PELEVATION
 40
0.0
  9
$THICKNESS
 40
0.0
  9
$LIMCHECK
 70
     0
  9
$BLIPMODE
 70
     0
  9
$CHAMFERA
 40
0.0
  9
$CHAMFERB
 40
0.0
  9
$SKPOLY
 70
     0
  9
$TDCREATE
 40
2449839.7939351848
  9
$TDUPDATE
 40
2459548.449512952
  9
$TDINDWG
 40
0.1236944213
  9
$TDUSRTIMER
 40
0.1236944213
  9
$USRTIMER
 70
     1
  9
$ANGBASE
 50
0.0
  9
$ANGDIR
 70
     0
  9
$PDMODE
 70
     0
  9
$PDSIZE
 40
0.0
  9
$PLINEWID
 40
0.0
  9
$COORDS
 70
     1
  9
$SPLFRAME
 70
     0
  9
$SPLINETYPE
 70
     6
  9
$SPLINESEGS
 70
     8
  9
$ATTDIA
 70
     0
  9
$ATTREQ
 70
     1
  9
$HANDLING
 70
     1
  9
$HANDSEED
  5
499
  9
$SURFTAB1
 70
     6
  9
$SURFTAB2
 70
     6
  9
$SURFTYPE
 70
     6
  9
$SURFU
 70
     6
  9
$SURFV
 70
     6
  9
$UCSNAME
  2

  9
$UCSORG
 10
0.0
 20
0.0
 30
0.0
  9
$UCSXDIR
 10
1.0
 20
0.0
 30
0.0
  9
$UCSYDIR
 10
0.0
 20
1.0
 30
0.0
  9
$PUCSNAME
  2

  9
$PUCSORG
 10
0.0
 20
0.0
 30
0.0
  9
$PUCSXDIR
 10
1.0
 20
0.0
 30
0.0
  9
$PUCSYDIR
 10
0.0
 20
1.0
 30
0.0
  9
$USERI1
 70
     0
  9
$USERI2
 70
     1
  9
$USERI3
 70
     1
  9
$USERI4
 70
     0
  9
$USERI5
 70
     0
  9
$USERR1
 40
0.0
  9
$USERR2
 40
0.0
  9
$USERR3
 40
0.0
  9
$USERR4
 40
0.0
  9
$USERR5
 40
0.0
  9
$WORLDVIEW
 70
     1
  9
$SHADEDGE
 70
     3
  9
$SHADEDIF
 70
    70
  9
$TILEMODE
 70
     1
  9
$MAXACTVP
 70
    16
  9
$PLIMCHECK
 70
     0
  9
$PEXTMIN
 10
1.0000000000000000E+020
 20
1.0000000000000000E+020
 30
1.0000000000000000E+020
  9
$PEXTMAX
 10
-1.0000000000000000E+020
 20
-1.0000000000000000E+020
 30
-1.0000000000000000E+020
  9
$PLIMMIN
 10
0.0
 20
0.0
  9
$PLIMMAX
 10
12.0
 20
9.0
  9
$UNITMODE
 70
     0
  9
$VISRETAIN
 70
     0
  9
$PLINEGEN
 70
     0
  9
$PSLTSCALE
 70
     0
  0
ENDSEC
  0
SECTION
  2
TABLES
  0
TABLE
  2
VPORT
 70
     1
  0
VPORT
  2
*ACTIVE
 70
     0
 10
0.0
 20
0.0
 11
1.0
 21
1.0
 12
650.4893964110928
 22
250.0
 13
0.0
 23
0.0
 14
20.0
 24
20.0
 15
20.0
 25
20.0
 16
0.0
 26
0.0
 36
1.0
 17
0.0
 27
0.0
 37
0.0
 40
500.0
 41
2.6019575856443709
 42
50.0
 43
0.0
 44
0.0
 50
0.0
 51
0.0
 71
     0
 72
   500
 73
     1
 74
     0
 75
     0
 76
     0
 77
     0
 78
     2
  0
ENDTAB
  0
TABLE
  2
LTYPE
 70
     4
  0
LTYPE
  2
CONTINUOUS
 70
     0
  3
Solid Line
 72
    65
 73
     0
 40
0.0
  0
LTYPE
  2
CENTER
 70
     0
  3
____ _ ____ _ ____ _ ____ _ ____ _ ____ _ ____
 72
    65
 73
     4
 40
2.0
 49
1.25
 49
-0.25
 49
0.25
 49
-0.25
  0
LTYPE
  2
HIDDEN
 70
     0
  3
_ _ _ _ _ _ _ _ _ _ _ _ _ _ _ _ _ _ _ _ _ _ _
 72
    65
 73
     2
 40
0.375
 49
0.25
 49
-0.125
  0
LTYPE
  2
PHANTOM2
 70
     0
  3
___ _ _ ___ _ _ ___ _ _ ___ _ _
 72
    65
 73
     6
 40
1.25
 49
0.625
 49
-0.125
 49
0.125
 49
-0.125
 49
0.125
 49
-0.125
  0
ENDTAB
  0
TABLE
  2
LAYER
 70
     4
  0
LAYER
  2
0
 70
     0
 62
     7
  6
CONTINUOUS
  0
LAYER
  2
1
 70
     0
 62
     1
  6
CENTER
  0
LAYER
  2
2
 70
     0
 62
     2
  6
HIDDEN
  0
LAYER
  2
3
 70
     0
 62
     3
  6
CONTINUOUS
  0
ENDTAB
  0
TABLE
  2
STYLE
 70
     4
  0
STYLE
  2
STANDARD
 70
     0
 40
0.0
 41
1.0
 50
0.0
 71
     0
 42
8.0000000000000497
  3
romans.shx
  4

  0
STYLE
  2
25000
 70
     0
 40
0.0
 41
1.0
 50
0.0
 71
     0
 42
0.2
  3
romans.shx
  4

  0
STYLE
  2
07500
 70
     0
 40
0.0
 41
1.0
 50
0.0
 71
     0
 42
6.000000000000048
  3
romans.shx
  4

  0
STYLE
  2
STANDARD1
 70
     0
 40
0.0
 41
1.0
 50
0.0
 71
     0
 42
3.0
  3
txt
  4

  0
ENDTAB
  0
TABLE
  2
VIEW
 70
     1
  0
VIEW
  2
ALL
 70
     0
 40
540.0
 10
441.98319327731087
 20
270.0
 41
0.0
 11
0.0
 21
0.0
 31
1.0
 12
0.0
 22
0.0
 32
0.0
 42
0.0
 43
0.0
 44
0.0
 50
0.0
 71
     0
  0
ENDTAB
  0
TABLE
  2
UCS
 70
     0
  0
ENDTAB
  0
TABLE
  2
APPID
 70
     6
  0
APPID
  2
ACAD
 70
     0
  0
APPID
  2
ACAD_MLEADERVER
 70
     0
  0
APPID
  2
ACAD_EXEMPT_FROM_CAD_STANDARDS
 70
     0
  0
APPID
  2
ACAD_DSTYLE_DIMJAG
 70
     0
  0
APPID
  2
ACAD_DSTYLE_DIMTALN
 70
     0
  0
APPID
  2
ACAD_NAV_VCDISPLAY
 70
     0
  0
ENDTAB
  0
TABLE
  2
DIMSTYLE
 70
     1
  0
DIMSTYLE
  2
STANDARD
 70
     0
  3

  4

  5

  6

  7

 40
1.0
 41
0.18
 42
0.0625
 43
0.38
 44
0.18
 45
0.0
 46
0.0
 47
0.0
 48
0.0
140
0.18
141
0.09
142
0.0
143
25.399999999999999
144
1.0
145
0.0
146
1.0
147
0.09
 71
     0
 72
     0
 73
     1
 74
     1
 75
     0
 76
     0
 77
     0
 78
     0
170
     0
171
     2
172
     0
173
     0
174
     0
175
     0
176
     0
177
     0
178
     0
  0
ENDTAB
  0
ENDSEC
  0
SECTION
  2
BLOCKS
  0
BLOCK
  8
0
  2
$MODEL_SPACE
 70
     0
 10
0.0
 20
0.0
 30
0.0
  3
$MODEL_SPACE
  1

  0
ENDBLK
  5
15A
  8
0
  0
BLOCK
 67
     1
  8
0
  2
$PAPER_SPACE
 70
     0
 10
0.0
 20
0.0
 30
0.0
  3
$PAPER_SPACE
  1

  0
ENDBLK
  5
158
 67
     1
  8
0
  0
ENDSEC
  0
SECTION
  2
ENTITIES
  0
LINE
  5
37
  8
0
 10
130.94018126507919
 20
144.87966854946609
 30
0.0
 11
130.94018126507919
 21
432.8796685494658
 31
0.0
  0
LINE
  5
38
  8
0
 10
132.44018126507919
 20
434.37966854946598
 30
0.0
 11
164.44018126507919
 21
434.37966854946598
 31
0.0
  0
LINE
  5
39
  8
0
 10
165.94018126507919
 20
432.87966854946637
 30
0.0
 11
165.94018126507919
 21
144.87966854946561
 31
0.0
  0
LINE
  5
3A
  8
0
 10
164.44018126507919
 20
143.379668549466
 30
0.0
 11
132.44018126507919
 21
143.379668549466
 31
0.0
  0
LINE
  5
3B
  8
1
 10
148.44018126507919
 20
133.879668549466
 30
0.0
 11
148.44018126507919
 21
443.87966854946598
 31
0.0
  0
LINE
  5
3C
  8
1
 10
120.9401812650792
 20
288.87966854946598
 30
0.0
 11
175.94018126507919
 21
288.87966854946598
 31
0.0
  0
LINE
  5
3D
  8
0
 10
132.44018126507919
 20
434.37966854946598
 30
0.0
 11
130.94018126507919
 21
432.87966854946598
 31
0.0
  0
LINE
  5
3E
  8
0
 10
164.44018126507919
 20
434.37966854946598
 30
0.0
 11
165.94018126507919
 21
432.87966854946598
 31
0.0
  0
LINE
  5
3F
  8
0
 10
165.94018126507919
 20
144.879668549466
 30
0.0
 11
164.44018126507919
 21
143.379668549466
 31
0.0
  0
LINE
  5
40
  8
0
 10
132.44018126507919
 20
143.379668549466
 30
0.0
 11
130.94018126507919
 21
144.879668549466
 31
0.0
  0
LINE
  5
41
  8
0
 10
136.44018126507919
 20
180.379668549466
 30
0.0
 11
136.44018126507919
 21
397.37966854946592
 31
0.0
  0
LINE
  5
42
  8
0
 10
160.44018126507919
 20
180.379668549466
 30
0.0
 11
160.44018126507919
 21
397.37966854946598
 31
0.0
  0
LINE
  5
43
  8
0
 10
137.94018126507919
 20
398.87966854946592
 30
0.0
 11
158.94018126507919
 21
398.87966854946598
 31
0.0
  0
LINE
  5
44
  8
0
 10
137.94018126507919
 20
178.879668549466
 30
0.0
 11
158.94018126507919
 21
178.879668549466
 31
0.0
  0
LINE
  5
45
  8
1
 10
128.4401812650799
 20
415.87966854946598
 30
0.0
 11
168.44018126507851
 21
415.87966854946598
 31
0.0
  0
LINE
  5
46
  8
1
 10
128.44018126507919
 20
161.879668549466
 30
0.0
 11
168.44018126507919
 21
161.879668549466
 31
0.0
  0
CIRCLE
  5
47
  8
0
 10
148.44018126507919
 20
415.87966854946592
 30
0.0
 40
9.5
  0
LINE
  5
48
  8
0
 10
138.99295945123339
 20
416.87966854946598
 30
0.0
 11
157.88740307892661
 21
416.87966854946598
 31
0.0
  0
LINE
  5
49
  8
0
 10
138.99295945123259
 20
414.87966854946598
 30
0.0
 11
157.8874030789234
 21
414.87966854946598
 31
0.0
  0
LINE
  5
4A
  8
0
 10
138.99295945123271
 20
160.879668549466
 30
0.0
 11
157.88740307892351
 21
160.879668549466
 31
0.0
  0
LINE
  5
4B
  8
0
 10
138.99295945123339
 20
162.879668549466
 30
0.0
 11
157.88740307892661
 21
162.879668549466
 31
0.0
  0
CIRCLE
  5
4C
  8
0
 10
148.44018126507919
 20
161.879668549466
 30
0.0
 40
9.5
  0
LINE
  5
4D
  8
0
 10
288.44018126507922
 20
434.37966854946598
 30
0.0
 11
286.44018126507922
 21
434.37966854946598
 31
0.0
  0
LINE
  5
4E
  8
0
 10
270.44018126507922
 20
428.59248147056809
 30
0.0
 11
270.44018126507922
 21
425.87966854946529
 31
0.0
  0
LINE
  5
4F
  8
1
 10
298.44018126507922
 20
288.87966854946598
 30
0.0
 11
260.44018126507922
 21
288.87966854946598
 31
0.0
  0
LINE
  5
50
  8
0
 10
286.44018126507922
 20
143.379668549466
 30
0.0
 11
286.44018126507922
 21
434.37966854946598
 31
0.0
  0
LINE
  5
51
  8
0
 10
286.44018126507922
 20
434.37966854946598
 30
0.0
 11
271.8890700045128
 21
430.4807100382219
 31
0.0
  0
LINE
  5
52
  8
0
 10
271.8890700045128
 20
430.4807100382219
 30
0.0
 11
270.44018126507922
 21
428.59248147056809
 31
0.0
  0
LINE
  5
53
  8
0
 10
286.44018126507922
 20
432.87966854946598
 30
0.0
 11
270.44018126507922
 21
428.59248147056809
 31
0.0
  0
ARC
  5
54
  8
0
 10
148.4401812650791
 20
465.25946912097351
 30
0.0
 40
34.778759082751598
 50
242.60960688299721
 51
297.39039311700321
  0
ARC
  5
55
  8
0
 10
148.44018126507871
 20
466.45296750432851
 30
0.0
 40
37.860486033760317
 50
242.46933164359271
 51
297.53066835640851
  0
ARC
  5
56
  8
0
 10
148.4401812650791
 20
112.4998679779584
 30
0.0
 40
34.778759082751598
 50
62.609606882996793
 51
117.3903931170028
  0
ARC
  5
57
  8
0
 10
148.44018126507871
 20
111.3063695946035
 30
0.0
 40
37.860486033760317
 50
62.469331643591516
 51
117.5306683564073
  0
ARC
  5
58
  8
0
 10
137.94018126507919
 20
397.37966854946592
 30
0.0
 40
1.5
 50
90.0
 51
179.99999999999989
  0
ARC
  5
59
  8
0
 10
158.94018126507919
 20
397.37966854946598
 30
0.0
 40
1.5
 50
0.0
 51
90.000000000000099
  0
ARC
  5
5A
  8
0
 10
158.94018126507919
 20
180.379668549466
 30
0.0
 40
1.5
 50
270.0
 51
0.0
  0
ARC
  5
5B
  8
0
 10
137.94018126507919
 20
180.379668549466
 30
0.0
 40
1.5
 50
180.0
 51
269.99999999999989
  0
LINE
  5
5C
  8
0
 10
136.44018126507919
 20
391.62966854946598
 30
0.0
 11
160.44018126507919
 21
391.62966854946592
 31
0.0
  0
LINE
  5
5D
  8
0
 10
136.44018126507919
 20
390.12966854946598
 30
0.0
 11
160.44018126507919
 21
390.12966854946592
 31
0.0
  0
SOLID
  5
5E
  8
0
 10
136.44018126507919
 20
391.62966854946598
 30
0.0
 11
136.44018126507919
 21
390.12966854946598
 31
0.0
 12
160.44018126507919
 22
391.62966854946592
 32
0.0
 13
160.44018126507919
 23
390.12966854946592
 33
0.0
  0
TEXT
  5
5F
  8
0
 10
137.54018126507921
 20
392.67966854946587
 30
0.0
 40
1.9173913043478259
  1
ELESA
 41
2.5
  7
25000
 72
     3
 11
158.54018126507921
 21
392.67966854946587
 31
0.0
  0
LINE
  5
63
  8
0
 10
130.94018126507919
 20
68.27966854946601
 30
0.0
 11
165.94018126507919
 21
68.279668549466095
 31
0.0
  0
LINE
  5
64
  8
0
 10
130.94018126507919
 20
70.27966854946601
 30
0.0
 11
165.94018126507919
 21
70.279668549466066
 31
0.0
  0
LINE
  5
67
  8
1
 10
148.44018126507839
 20
36.279668549466038
 30
0.0
 11
148.44018126507839
 21
97.532219835549284
 31
0.0
  0
LINE
  5
6A
  8
0
 10
286.44018126507922
 20
432.87966854946598
 30
0.0
 11
288.44018126507922
 21
432.87966854946598
 31
0.0
  0
CIRCLE
  5
6E
  8
0
 10
148.44018126507919
 20
161.879668549466
 30
0.0
 40
10.0
  0
CIRCLE
  5
6F
  8
0
 10
148.44018126507919
 20
415.87966854946592
 30
0.0
 40
10.0
  0
ARC
  5
70
  8
0
 10
256.13974420882568
 20
415.87966854946598
 30
0.0
 40
17.44999999999613
 50
325.03570161684831
 51
34.96429838315116
  0
LINE
  5
71
  8
0
 10
270.44018126507922
 20
405.87966854946683
 30
0.0
 11
270.44018126507922
 21
171.87966854946569
 31
0.0
  0
LINE
  5
72
  8
0
 10
138.19018126507839
 20
63.27966854946601
 30
0.0
 11
158.69018126507839
 21
63.279668549466059
 31
0.0
  0
LINE
  5
73
  8
0
 10
138.19018126507839
 20
63.27966854946601
 30
0.0
 11
138.19018126507839
 21
64.27966854946601
 31
0.0
  0
LINE
  5
74
  8
0
 10
158.69018126507839
 20
63.279668549466059
 30
0.0
 11
158.69018126507839
 21
64.279668549466066
 31
0.0
  0
LINE
  5
75
  8
0
 10
159.40983637968091
 20
54.416849460091839
 30
0.0
 11
157.44018126507919
 21
53.27966854946601
 31
0.0
  0
ARC
  5
76
  8
0
 10
156.66742260103021
 20
58.424406906069287
 30
0.0
 40
4.8560632220084576
 50
235.6157525319928
 51
295.61575253191643
  0
ARC
  5
77
  8
0
 10
148.4401812650778
 20
71.719837908046316
 30
0.0
 40
18.15149422398537
 50
252.41204622602379
 51
287.58795377397621
  0
ARC
  5
78
  8
0
 10
140.21293992912541
 20
58.424406906069287
 30
0.0
 40
4.8560632220084576
 50
244.3842474680836
 51
304.38424746800712
  0
LINE
  5
79
  8
0
 10
137.4705261504748
 20
54.416849460091839
 30
0.0
 11
139.44018126507649
 21
53.27966854946601
 31
0.0
  0
LINE
  5
7A
  8
0
 10
157.44018126507919
 20
53.27966854946601
 30
0.0
 11
139.44018126507649
 21
53.27966854946601
 31
0.0
  0
LINE
  5
7B
  8
0
 10
137.4705261504748
 20
62.14248763884018
 30
0.0
 11
139.44018126507649
 21
63.27966854946601
 31
0.0
  0
ARC
  5
7C
  8
0
 10
140.21293992912541
 20
58.134930192862733
 30
0.0
 40
4.8560632220084576
 50
55.615752531992847
 51
115.6157525319164
  0
ARC
  5
7D
  8
0
 10
148.4401812650778
 20
44.839499190885697
 30
0.0
 40
18.15149422398537
 50
72.412046226023804
 51
107.5879537739762
  0
ARC
  5
7E
  8
0
 10
156.66742260103021
 20
58.134930192862733
 30
0.0
 40
4.8560632220084576
 50
64.384247468083586
 51
124.3842474680072
  0
LINE
  5
7F
  8
0
 10
159.40983637968091
 20
62.14248763884018
 30
0.0
 11
157.44018126507919
 21
63.27966854946601
 31
0.0
  0
LINE
  5
80
  8
0
 10
159.40983637968091
 20
54.416849460091839
 30
0.0
 11
159.40983637968091
 21
62.142487638840286
 31
0.0
  0
LINE
  5
81
  8
0
 10
153.92500882237499
 20
54.416849460091839
 30
0.0
 11
153.92500882237911
 21
62.142487638840521
 31
0.0
  0
LINE
  5
82
  8
0
 10
137.4705261504748
 20
54.416849460091839
 30
0.0
 11
137.4705261504748
 21
62.142487638840286
 31
0.0
  0
LINE
  5
83
  8
0
 10
142.9553537077806
 20
54.416849460091839
 30
0.0
 11
142.95535370777651
 21
62.142487638840521
 31
0.0
  0
LINE
  5
84
  8
0
 10
152.44018126507839
 20
47.279668549466003
 30
0.0
 11
144.44018126507839
 21
47.279668549466066
 31
0.0
  0
LINE
  5
85
  8
0
 10
142.44018126507851
 20
67.279668549466038
 30
0.0
 11
142.44018126507851
 21
64.279668549466024
 31
0.0
  0
LINE
  5
86
  8
3
 10
143.38718126507831
 20
67.279668549466038
 30
0.0
 11
143.38718126507831
 21
64.279668549466024
 31
0.0
  0
LINE
  5
87
  8
3
 10
153.4931812650785
 20
67.279668549466038
 30
0.0
 11
153.4931812650785
 21
64.279668549466024
 31
0.0
  0
LINE
  5
88
  8
0
 10
154.44018126507851
 20
67.279668549466038
 30
0.0
 11
154.44018126507851
 21
64.279668549466024
 31
0.0
  0
LINE
  5
89
  8
0
 10
152.44018126507839
 20
47.279668549466003
 30
0.0
 11
154.44018126507839
 21
49.279668549465953
 31
0.0
  0
LINE
  5
8A
  8
0
 10
144.44018126507839
 20
47.279668549466066
 30
0.0
 11
142.44018126507839
 21
49.279668549466123
 31
0.0
  0
LINE
  5
8B
  8
0
 10
154.44018126507839
 20
49.27966854946601
 30
0.0
 11
142.44018126507839
 21
49.279668549466123
 31
0.0
  0
ARC
  5
8C
  8
0
 10
284.68762997899518
 20
415.87966854946592
 30
0.0
 40
15.5
 50
148.0268756260057
 51
176.30092893683499
  0
LINE
  5
8D
  8
0
 10
272.44018126507927
 20
414.87966854946598
 30
0.0
 11
269.219921680737
 21
414.87966854946598
 31
0.0
  0
LINE
  5
8E
  8
0
 10
272.44018126507927
 20
416.87966854946592
 30
0.0
 11
269.219921680737
 21
416.87966854946592
 31
0.0
  0
ARC
  5
8F
  8
0
 10
284.68762997899518
 20
415.87966854946592
 30
0.0
 40
15.5
 50
183.69907106316509
 51
211.97312437399381
  0
LINE
  5
90
  8
0
 10
272.44018126507927
 20
422.10849281853672
 30
0.0
 11
272.44018126507927
 21
409.65084428039319
 31
0.0
  0
LINE
  5
91
  8
0
 10
309.44018126507922
 20
411.87966854946592
 30
0.0
 11
309.4401812650791
 21
419.87966854946592
 31
0.0
  0
LINE
  5
92
  8
0
 10
289.44018126507922
 20
421.8796685494658
 30
0.0
 11
292.44018126507922
 21
421.8796685494658
 31
0.0
  0
LINE
  5
93
  8
3
 10
289.44018126507922
 20
420.93266854946609
 30
0.0
 11
292.44018126507922
 21
420.93266854946609
 31
0.0
  0
LINE
  5
94
  8
3
 10
289.44018126507922
 20
410.82666854946592
 30
0.0
 11
292.44018126507922
 21
410.82666854946592
 31
0.0
  0
LINE
  5
95
  8
0
 10
289.44018126507922
 20
409.8796685494658
 30
0.0
 11
292.44018126507922
 21
409.87966854946598
 31
0.0
  0
LINE
  5
96
  8
0
 10
309.44018126507922
 20
411.87966854946592
 30
0.0
 11
307.44018126507927
 21
409.87966854946598
 31
0.0
  0
LINE
  5
97
  8
0
 10
309.4401812650791
 20
419.87966854946592
 30
0.0
 11
307.4401812650791
 21
421.87966854946592
 31
0.0
  0
LINE
  5
98
  8
0
 10
307.44018126507922
 20
409.87966854946592
 30
0.0
 11
307.4401812650791
 21
421.87966854946592
 31
0.0
  0
LINE
  5
99
  8
0
 10
302.30300035445339
 20
415.87966854946279
 30
0.0
 11
294.5773621757051
 21
415.87966854946598
 31
0.0
  0
LINE
  5
9A
  8
0
 10
303.44018126507927
 20
406.87966854946598
 30
0.0
 11
303.44018126507927
 21
424.87966854946598
 31
0.0
  0
LINE
  5
9B
  8
0
 10
303.15150613048439
 20
406.37966854946598
 30
0.0
 11
303.44018126507927
 21
406.87966854946598
 31
0.0
  0
ARC
  5
9C
  8
0
 10
289.43182224049127
 20
411.12966854946598
 30
0.0
 40
13.719683889993171
 50
339.74384199960411
 51
20.25615800039618
  0
LINE
  5
9D
  8
0
 10
293.44018126507927
 20
406.87966854946598
 30
0.0
 11
293.80065316939942
 21
406.37966854946598
 31
0.0
  0
LINE
  5
9E
  8
0
 10
293.80065316939942
 20
406.37966854946598
 30
0.0
 11
303.15150613048439
 21
406.37966854946598
 31
0.0
  0
ARC
  5
9F
  8
0
 10
307.44854028966728
 20
411.12966854946598
 30
0.0
 40
13.719683889993171
 50
159.74384199960389
 51
200.256158000396
  0
ARC
  5
A0
  8
0
 10
307.44854028966728
 20
420.62966854946598
 30
0.0
 40
13.719683889993171
 50
159.743841999604
 51
200.2561580003962
  0
LINE
  5
A1
  8
0
 10
293.80065316939942
 20
425.37966854946598
 30
0.0
 11
303.15150613048439
 21
425.37966854946598
 31
0.0
  0
LINE
  5
A2
  8
0
 10
293.44018126507927
 20
424.87966854946598
 30
0.0
 11
293.80065316939942
 21
425.37966854946598
 31
0.0
  0
ARC
  5
A3
  8
0
 10
289.43182224049127
 20
420.62966854946598
 30
0.0
 40
13.719683889993171
 50
339.74384199960389
 51
20.256158000395981
  0
LINE
  5
A4
  8
0
 10
303.15150613048439
 20
425.37966854946598
 30
0.0
 11
303.44018126507927
 21
424.87966854946598
 31
0.0
  0
LINE
  5
A5
  8
0
 10
293.44018126507922
 20
405.62966854946592
 30
0.0
 11
293.44018126507922
 21
426.12966854946592
 31
0.0
  0
LINE
  5
A6
  8
0
 10
293.44018126507922
 20
405.62966854946592
 30
0.0
 11
292.44018126507922
 21
405.62966854946592
 31
0.0
  0
LINE
  5
A7
  8
0
 10
293.44018126507922
 20
426.12966854946592
 30
0.0
 11
292.44018126507922
 21
426.12966854946592
 31
0.0
  0
LINE
  5
A8
  8
1
 10
320.44018126507922
 20
415.87966854946592
 30
0.0
 11
259.18762997899472
 21
415.87966854946592
 31
0.0
  0
ARC
  5
A9
  8
0
 10
148.44018126507839
 20
72.032219835550222
 30
0.0
 40
15.4999999999996
 50
52.2002775645715
 51
127.79972243542819
  0
LINE
  5
AA
  8
0
 10
138.94018126507839
 20
84.279668549465654
 30
0.0
 11
138.94018126507839
 21
83.467035115894561
 31
0.0
  0
LINE
  5
AB
  8
0
 10
157.94018126507839
 20
84.27966854946564
 30
0.0
 11
157.94018126507839
 21
83.467035115894419
 31
0.0
  0
LINE
  5
AC
  8
0
 10
138.94018126507839
 20
84.279668549465654
 30
0.0
 11
140.32846134880839
 21
84.279668549465654
 31
0.0
  0
LINE
  5
AD
  8
0
 10
156.5519011813482
 20
84.279668549465654
 30
0.0
 11
157.94018126507839
 21
84.279668549465654
 31
0.0
  0
LINE
  5
AE
  8
0
 10
288.44018126507922
 20
143.379668549466
 30
0.0
 11
288.44018126507922
 21
434.37966854946598
 31
0.0
  0
LINE
  5
AF
  8
0
 10
142.44018126507851
 20
67.279668549466038
 30
0.0
 11
154.44018126507839
 21
67.279668549466038
 31
0.0
  0
LINE
  5
B0
  8
0
 10
143.44018126507839
 20
67.279668549465995
 30
0.0
 11
143.44018126507839
 21
68.27966854946601
 31
0.0
  0
LINE
  5
B1
  8
0
 10
153.44018126507839
 20
67.279668549466038
 30
0.0
 11
153.44018126507839
 21
68.279668549466038
 31
0.0
  0
LINE
  5
B2
  8
0
 10
142.44018126507839
 20
53.27966854946601
 30
0.0
 11
142.44018126507839
 21
49.279668549466066
 31
0.0
  0
LINE
  5
B3
  8
3
 10
143.3871812650784
 20
53.27966854946601
 30
0.0
 11
143.3871812650784
 21
48.332668549466057
 31
0.0
  0
LINE
  5
B4
  8
3
 10
153.49318126507839
 20
53.27966854946601
 30
0.0
 11
153.49318126507839
 21
48.332668549466057
 31
0.0
  0
LINE
  5
B5
  8
0
 10
154.44018126507839
 20
53.27966854946601
 30
0.0
 11
154.44018126507839
 21
49.279668549465981
 31
0.0
  0
LINE
  5
B6
  8
0
 10
289.44018126507922
 20
409.87966854946592
 30
0.0
 11
289.44018126507922
 21
421.87966854946569
 31
0.0
  0
LINE
  5
B7
  8
0
 10
289.44018126507922
 20
420.8796685494658
 30
0.0
 11
288.44018126507922
 21
420.87966854946592
 31
0.0
  0
LINE
  5
B8
  8
0
 10
289.44018126507922
 20
410.87966854946598
 30
0.0
 11
288.44018126507922
 21
410.87966854946598
 31
0.0
  0
LINE
  5
B9
  8
3
 10
303.44018126507927
 20
410.82666854946592
 30
0.0
 11
308.38718126507922
 21
410.82666854946592
 31
0.0
  0
LINE
  5
BA
  8
0
 10
303.44018126507927
 20
409.87966854946598
 30
0.0
 11
307.44018126507922
 21
409.87966854946592
 31
0.0
  0
LINE
  5
BB
  8
3
 10
303.44018126507927
 20
420.93266854946597
 30
0.0
 11
308.38718126507911
 21
420.93266854946597
 31
0.0
  0
LINE
  5
BC
  8
0
 10
303.44018126507927
 20
421.87966854946592
 30
0.0
 11
307.4401812650791
 21
421.87966854946592
 31
0.0
  0
LINE
  5
BD
  8
0
 10
138.19018126507839
 20
64.27966854946601
 30
0.0
 11
158.69018126507839
 21
64.279668549466066
 31
0.0
  0
LINE
  5
BE
  8
0
 10
292.44018126507922
 20
405.62966854946592
 30
0.0
 11
292.44018126507922
 21
426.12966854946592
 31
0.0
  0
LINE
  5
BF
  8
2
 10
135.74766378429439
 20
73.27966854946601
 30
0.0
 11
161.1326987458624
 21
73.279668549466066
 31
0.0
  0
ARC
  5
C0
  8
2
 10
148.44018126507831
 20
68.829668549465794
 30
0.0
 40
13.450000000000211
 50
19.320679846585509
 51
160.67932015341449
  0
LINE
  5
C1
  8
2
 10
135.74766378429419
 20
73.27966854946601
 30
0.0
 11
135.74766378429419
 21
70.27966854946601
 31
0.0
  0
LINE
  5
C2
  8
2
 10
161.1326987458624
 20
73.279668549466066
 30
0.0
 11
161.1326987458624
 21
70.279668549466066
 31
0.0
  0
LINE
  5
CB
  8
0
 10
292.44018126507922
 20
172.12966854946609
 30
0.0
 11
292.44018126507922
 21
151.62966854946609
 31
0.0
  0
LINE
  5
CC
  8
0
 10
303.44018126507927
 20
155.87966854946609
 30
0.0
 11
307.4401812650791
 21
155.87966854946609
 31
0.0
  0
LINE
  5
CD
  8
3
 10
303.44018126507927
 20
156.82666854946601
 30
0.0
 11
308.38718126507922
 21
156.82666854946609
 31
0.0
  0
LINE
  5
CE
  8
0
 10
303.44018126507927
 20
167.87966854946609
 30
0.0
 11
307.44018126507927
 21
167.87966854946609
 31
0.0
  0
LINE
  5
CF
  8
3
 10
303.44018126507927
 20
166.93266854946609
 30
0.0
 11
308.38718126507922
 21
166.93266854946609
 31
0.0
  0
LINE
  5
D0
  8
0
 10
289.44018126507922
 20
166.879668549466
 30
0.0
 11
288.44018126507922
 21
166.879668549466
 31
0.0
  0
LINE
  5
D1
  8
0
 10
289.44018126507922
 20
156.8796685494662
 30
0.0
 11
288.44018126507922
 21
156.87966854946609
 31
0.0
  0
LINE
  5
D2
  8
0
 10
289.44018126507922
 20
167.87966854946609
 30
0.0
 11
289.44018126507922
 21
155.8796685494662
 31
0.0
  0
LINE
  5
D3
  8
1
 10
320.44018126507922
 20
161.87966854946609
 30
0.0
 11
259.18762997899472
 21
161.87966854946609
 31
0.0
  0
LINE
  5
D4
  8
0
 10
293.44018126507922
 20
151.62966854946609
 30
0.0
 11
292.44018126507922
 21
151.62966854946609
 31
0.0
  0
LINE
  5
D5
  8
0
 10
293.44018126507922
 20
172.12966854946609
 30
0.0
 11
292.44018126507922
 21
172.12966854946609
 31
0.0
  0
LINE
  5
D6
  8
0
 10
293.44018126507922
 20
172.12966854946609
 30
0.0
 11
293.44018126507922
 21
151.62966854946609
 31
0.0
  0
LINE
  5
D7
  8
0
 10
303.15150613048439
 20
152.379668549466
 30
0.0
 11
303.44018126507927
 21
152.879668549466
 31
0.0
  0
ARC
  5
D8
  8
0
 10
289.43182224049127
 20
157.129668549466
 30
0.0
 40
13.719683889993171
 50
339.74384199960411
 51
20.25615800039612
  0
LINE
  5
D9
  8
0
 10
293.44018126507927
 20
152.879668549466
 30
0.0
 11
293.80065316939942
 21
152.379668549466
 31
0.0
  0
LINE
  5
DA
  8
0
 10
293.80065316939942
 20
152.379668549466
 30
0.0
 11
303.15150613048439
 21
152.379668549466
 31
0.0
  0
ARC
  5
DB
  8
0
 10
307.44854028966728
 20
157.129668549466
 30
0.0
 40
13.719683889993171
 50
159.7438419996038
 51
200.256158000396
  0
ARC
  5
DC
  8
0
 10
307.44854028966728
 20
166.629668549466
 30
0.0
 40
13.719683889993171
 50
159.743841999604
 51
200.25615800039611
  0
LINE
  5
DD
  8
0
 10
293.80065316939942
 20
171.379668549466
 30
0.0
 11
303.15150613048439
 21
171.379668549466
 31
0.0
  0
LINE
  5
DE
  8
0
 10
293.44018126507927
 20
170.879668549466
 30
0.0
 11
293.80065316939942
 21
171.379668549466
 31
0.0
  0
ARC
  5
DF
  8
0
 10
289.43182224049127
 20
166.629668549466
 30
0.0
 40
13.719683889993171
 50
339.74384199960389
 51
20.256158000395921
  0
LINE
  5
E0
  8
0
 10
303.15150613048439
 20
171.379668549466
 30
0.0
 11
303.44018126507927
 21
170.879668549466
 31
0.0
  0
LINE
  5
E1
  8
0
 10
303.44018126507927
 20
170.879668549466
 30
0.0
 11
303.44018126507927
 21
152.879668549466
 31
0.0
  0
LINE
  5
E2
  8
0
 10
302.30300035445339
 20
161.87966854946919
 30
0.0
 11
294.5773621757051
 21
161.879668549466
 31
0.0
  0
LINE
  5
E3
  8
0
 10
307.44018126507922
 20
167.87966854946609
 30
0.0
 11
307.4401812650791
 21
155.87966854946609
 31
0.0
  0
LINE
  5
E4
  8
0
 10
309.4401812650791
 20
157.87966854946609
 30
0.0
 11
307.4401812650791
 21
155.87966854946609
 31
0.0
  0
LINE
  5
E5
  8
0
 10
309.44018126507922
 20
165.87966854946609
 30
0.0
 11
307.44018126507927
 21
167.87966854946609
 31
0.0
  0
LINE
  5
E6
  8
0
 10
289.44018126507922
 20
167.8796685494662
 30
0.0
 11
292.44018126507922
 21
167.87966854946609
 31
0.0
  0
LINE
  5
E7
  8
3
 10
289.44018126507922
 20
166.93266854946609
 30
0.0
 11
292.44018126507922
 21
166.93266854946609
 31
0.0
  0
LINE
  5
E8
  8
3
 10
289.44018126507922
 20
156.82666854946589
 30
0.0
 11
292.44018126507922
 21
156.82666854946589
 31
0.0
  0
LINE
  5
E9
  8
0
 10
289.44018126507922
 20
155.8796685494662
 30
0.0
 11
292.44018126507922
 21
155.8796685494662
 31
0.0
  0
LINE
  5
EA
  8
0
 10
309.44018126507922
 20
165.87966854946609
 30
0.0
 11
309.4401812650791
 21
157.87966854946609
 31
0.0
  0
LINE
  5
EB
  8
0
 10
272.44018126507927
 20
155.6508442803954
 30
0.0
 11
272.44018126507927
 21
168.10849281853891
 31
0.0
  0
ARC
  5
EC
  8
0
 10
284.68762997899518
 20
161.87966854946609
 30
0.0
 40
15.5
 50
148.02687562600619
 51
176.30092893683491
  0
LINE
  5
ED
  8
0
 10
272.44018126507927
 20
160.87966854946609
 30
0.0
 11
269.219921680737
 21
160.87966854946609
 31
0.0
  0
LINE
  5
EE
  8
0
 10
272.44018126507927
 20
162.87966854946609
 30
0.0
 11
269.219921680737
 21
162.87966854946609
 31
0.0
  0
ARC
  5
EF
  8
0
 10
284.68762997899518
 20
161.87966854946609
 30
0.0
 40
15.5
 50
183.69907106316501
 51
211.9731243739943
  0
ARC
  5
F0
  8
0
 10
256.13974420882568
 20
161.879668549466
 30
0.0
 40
17.44999999999613
 50
325.03570161684883
 51
34.964298383151728
  0
LINE
  5
F1
  8
0
 10
286.44018126507922
 20
144.87966854946589
 30
0.0
 11
288.44018126507922
 21
144.87966854946589
 31
0.0
  0
LINE
  5
F2
  8
0
 10
286.44018126507922
 20
144.87966854946589
 30
0.0
 11
270.44018126507922
 21
149.16685562836389
 31
0.0
  0
LINE
  5
F3
  8
0
 10
271.8890700045128
 20
147.27862706071019
 30
0.0
 11
270.44018126507922
 21
149.166855628364
 31
0.0
  0
LINE
  5
F4
  8
0
 10
286.44018126507922
 20
143.379668549466
 30
0.0
 11
271.8890700045128
 21
147.27862706071019
 31
0.0
  0
LINE
  5
F5
  8
0
 10
270.44018126507922
 20
149.16685562836389
 30
0.0
 11
270.44018126507922
 21
151.87966854946669
 31
0.0
  0
LINE
  5
F6
  8
0
 10
288.44018126507922
 20
143.379668549466
 30
0.0
 11
286.44018126507922
 21
143.379668549466
 31
0.0
  0
LINE
  5
1F5
  8
0
 10
165.9401812650793
 20
70.279668549466123
 30
0.0
 11
165.94018126507919
 21
68.279668549466123
 31
0.0
  0
LINE
  5
1F7
  8
0
 10
130.9401812650791
 20
70.27966854946601
 30
0.0
 11
130.9401812650791
 21
68.27966854946601
 31
0.0
  0
ARC
  5
1F8
  8
0
 10
148.4401812650791
 20
68.709356049465981
 30
0.0
 40
17.57031249999994
 50
5.1275404229303021
 51
174.87245957706989
  0
LINE
  5
1FA
  8
0
 10
132.44677442038389
 20
70.27966854946601
 30
0.0
 11
132.446774420384
 21
68.27966854946601
 31
0.0
  0
LINE
  5
1FB
  8
0
 10
164.44018126507891
 20
70.279668549466095
 30
0.0
 11
164.44018126507891
 21
68.279668549466095
 31
0.0
  0
ARC
  5
1FD
  8
0
 10
148.4401812650791
 20
68.709356049465981
 30
0.0
 40
16.07031249999995
 50
5.6076119888583378
 51
174.3923880111418
  0
TEXT
  5
24B
  8
0
 10
140.44018126507919
 20
205.1796685494661
 30
0.0
 40
2.0
  1
50
 41
0.75
  7
07500
  0
TEXT
  5
24C
  8
0
 10
140.44018126507919
 20
220.37966854946609
 30
0.0
 40
2.0
  1
100
 41
0.75
  7
07500
  0
TEXT
  5
24D
  8
0
 10
155.2258955507935
 20
198.77966854946601
 30
0.0
 40
2.0
  1
0
 41
0.75
  7
07500
 72
     2
 11
156.44018126507919
 21
198.77966854946601
 31
0.0
  0
TEXT
  5
24E
  8
0
 10
153.79732412222211
 20
209.77966854946609
 30
0.0
 40
2.0
  1
20
 41
0.75
  7
07500
 72
     2
 11
156.44018126507919
 21
209.77966854946609
 31
0.0
  0
TEXT
  5
24F
  8
0
 10
153.79732412222211
 20
220.77966854946609
 30
0.0
 40
2.0
  1
40
 41
0.75
  7
07500
 72
     2
 11
156.44018126507919
 21
220.77966854946609
 31
0.0
  0
TEXT
  5
250
  8
0
 10
153.79732412222211
 20
231.77966854946609
 30
0.0
 40
2.0
  1
60
 41
0.75
  7
07500
 72
     2
 11
156.44018126507919
 21
231.77966854946609
 31
0.0
  0
TEXT
  5
251
  8
0
 10
140.44018126507919
 20
235.57966854946611
 30
0.0
 40
2.0
  1
150
 41
0.75
  7
07500
  0
TEXT
  5
252
  8
0
 10
153.79732412222211
 20
242.77966854946609
 30
0.0
 40
2.0
  1
80
 41
0.75
  7
07500
 72
     2
 11
156.44018126507919
 21
242.77966854946609
 31
0.0
  0
TEXT
  5
253
  8
0
 10
152.36875269365061
 20
253.77966854946621
 30
0.0
 40
2.0
  1
100
 41
0.75
  7
07500
 72
     2
 11
156.44018126507919
 21
253.77966854946621
 31
0.0
  0
TEXT
  5
254
  8
0
 10
140.44018126507919
 20
250.77966854946609
 30
0.0
 40
2.0
  1
200
 41
0.75
  7
07500
  0
TEXT
  5
255
  8
0
 10
140.44018126507919
 20
260.87966854946598
 30
0.0
 40
2.8269230769230762
  1
%%DF
 72
     3
 11
143.94018126507919
 21
260.87966854946598
 31
0.0
  0
TEXT
  5
256
  8
0
 10
152.94018126507919
 20
260.87966854946598
 30
0.0
 40
2.722222222222221
  1
%%DC
 72
     3
 11
156.44018126507919
 21
260.87966854946598
 31
0.0
  0
LINE
  5
257
  8
3
 10
147.34018126507931
 20
253.31966854946609
 30
0.0
 11
145.4401812650793
 21
253.31966854946609
 31
0.0
  0
LINE
  5
258
  8
3
 10
147.34018126507931
 20
251.79966854946599
 30
0.0
 11
145.4401812650793
 21
251.79966854946611
 31
0.0
  0
LINE
  5
259
  8
3
 10
147.34018126507931
 20
198.599668549466
 30
0.0
 11
145.44018126507919
 21
198.59966854946609
 31
0.0
  0
LINE
  5
25A
  8
3
 10
147.34018126507931
 20
200.1196685494661
 30
0.0
 11
145.44018126507919
 21
200.1196685494661
 31
0.0
  0
LINE
  5
25B
  8
3
 10
147.34018126507931
 20
201.63966854946599
 30
0.0
 11
145.44018126507919
 21
201.63966854946599
 31
0.0
  0
LINE
  5
25C
  8
3
 10
147.34018126507931
 20
203.15966854946601
 30
0.0
 11
145.44018126507919
 21
203.15966854946609
 31
0.0
  0
LINE
  5
25D
  8
3
 10
147.3401812650792
 20
210.75966854946611
 30
0.0
 11
145.44018126507919
 21
210.75966854946611
 31
0.0
  0
LINE
  5
25E
  8
3
 10
147.3401812650792
 20
209.2396685494661
 30
0.0
 11
145.44018126507919
 21
209.2396685494661
 31
0.0
  0
LINE
  5
25F
  8
3
 10
147.3401812650792
 20
207.71966854946601
 30
0.0
 11
145.44018126507919
 21
207.71966854946609
 31
0.0
  0
LINE
  5
260
  8
3
 10
147.3401812650792
 20
206.199668549466
 30
0.0
 11
145.44018126507919
 21
206.19966854946611
 31
0.0
  0
LINE
  5
261
  8
3
 10
147.34018126507931
 20
213.79966854946599
 30
0.0
 11
145.44018126507919
 21
213.79966854946611
 31
0.0
  0
LINE
  5
262
  8
3
 10
147.34018126507931
 20
215.319668549466
 30
0.0
 11
145.44018126507919
 21
215.31966854946609
 31
0.0
  0
LINE
  5
263
  8
3
 10
147.34018126507931
 20
216.8396685494661
 30
0.0
 11
145.44018126507919
 21
216.8396685494661
 31
0.0
  0
LINE
  5
264
  8
3
 10
147.34018126507931
 20
218.35966854946611
 30
0.0
 11
145.44018126507919
 21
218.35966854946611
 31
0.0
  0
LINE
  5
265
  8
3
 10
147.34018126507931
 20
233.5596685494661
 30
0.0
 11
145.44018126507919
 21
233.5596685494661
 31
0.0
  0
LINE
  5
266
  8
3
 10
147.34018126507931
 20
232.03966854946611
 30
0.0
 11
145.44018126507919
 21
232.0396685494662
 31
0.0
  0
LINE
  5
267
  8
3
 10
147.34018126507931
 20
230.5196685494661
 30
0.0
 11
145.44018126507919
 21
230.5196685494661
 31
0.0
  0
LINE
  5
268
  8
3
 10
147.34018126507931
 20
228.99966854946601
 30
0.0
 11
145.44018126507919
 21
228.99966854946601
 31
0.0
  0
LINE
  5
269
  8
3
 10
147.3401812650792
 20
221.39966854946601
 30
0.0
 11
145.44018126507919
 21
221.39966854946601
 31
0.0
  0
LINE
  5
26A
  8
3
 10
147.3401812650792
 20
222.919668549466
 30
0.0
 11
145.44018126507919
 21
222.91966854946611
 31
0.0
  0
LINE
  5
26B
  8
3
 10
147.3401812650792
 20
224.43966854946609
 30
0.0
 11
145.44018126507919
 21
224.43966854946609
 31
0.0
  0
LINE
  5
26C
  8
3
 10
147.3401812650792
 20
225.9596685494661
 30
0.0
 11
145.44018126507919
 21
225.9596685494661
 31
0.0
  0
LINE
  5
26D
  8
3
 10
147.3401812650792
 20
241.15966854946601
 30
0.0
 11
145.44018126507919
 21
241.15966854946601
 31
0.0
  0
LINE
  5
26E
  8
3
 10
147.3401812650792
 20
239.63966854946611
 30
0.0
 11
145.44018126507919
 21
239.63966854946611
 31
0.0
  0
LINE
  5
26F
  8
3
 10
147.3401812650792
 20
238.11966854946601
 30
0.0
 11
145.44018126507919
 21
238.1196685494661
 31
0.0
  0
LINE
  5
270
  8
3
 10
147.3401812650792
 20
236.599668549466
 30
0.0
 11
145.44018126507919
 21
236.59966854946609
 31
0.0
  0
LINE
  5
271
  8
3
 10
147.34018126507931
 20
244.199668549466
 30
0.0
 11
145.44018126507919
 21
244.19966854946611
 31
0.0
  0
LINE
  5
272
  8
3
 10
147.34018126507931
 20
245.71966854946601
 30
0.0
 11
145.44018126507919
 21
245.71966854946609
 31
0.0
  0
LINE
  5
273
  8
3
 10
147.34018126507931
 20
247.2396685494661
 30
0.0
 11
145.44018126507919
 21
247.2396685494661
 31
0.0
  0
LINE
  5
274
  8
3
 10
147.34018126507931
 20
248.759668549466
 30
0.0
 11
145.44018126507919
 21
248.759668549466
 31
0.0
  0
LINE
  5
275
  8
3
 10
149.5401812650791
 20
208.17966854946599
 30
0.0
 11
151.44018126507919
 21
208.17966854946599
 31
0.0
  0
LINE
  5
276
  8
3
 10
149.5401812650791
 20
207.07966854946599
 30
0.0
 11
151.44018126507919
 21
207.07966854946611
 31
0.0
  0
LINE
  5
277
  8
3
 10
149.5401812650791
 20
205.979668549466
 30
0.0
 11
151.44018126507919
 21
205.97966854946611
 31
0.0
  0
LINE
  5
278
  8
3
 10
149.5401812650791
 20
204.879668549466
 30
0.0
 11
151.44018126507919
 21
204.879668549466
 31
0.0
  0
LINE
  5
279
  8
3
 10
149.5401812650791
 20
202.67966854946599
 30
0.0
 11
151.44018126507919
 21
202.67966854946599
 31
0.0
  0
LINE
  5
27A
  8
3
 10
149.5401812650791
 20
201.57966854946599
 30
0.0
 11
151.44018126507919
 21
201.57966854946599
 31
0.0
  0
LINE
  5
27B
  8
3
 10
149.5401812650791
 20
200.479668549466
 30
0.0
 11
151.44018126507919
 21
200.479668549466
 31
0.0
  0
LINE
  5
27C
  8
3
 10
149.5401812650791
 20
199.37966854946589
 30
0.0
 11
151.44018126507919
 21
199.379668549466
 31
0.0
  0
LINE
  5
27D
  8
3
 10
149.5401812650791
 20
230.17966854946599
 30
0.0
 11
151.44018126507919
 21
230.1796685494661
 31
0.0
  0
LINE
  5
27E
  8
3
 10
149.5401812650791
 20
229.07966854946599
 30
0.0
 11
151.44018126507919
 21
229.07966854946611
 31
0.0
  0
LINE
  5
27F
  8
3
 10
149.5401812650791
 20
227.97966854946611
 30
0.0
 11
151.44018126507919
 21
227.97966854946611
 31
0.0
  0
LINE
  5
280
  8
3
 10
149.5401812650791
 20
226.87966854946609
 30
0.0
 11
151.44018126507919
 21
226.87966854946609
 31
0.0
  0
LINE
  5
281
  8
3
 10
149.5401812650791
 20
224.67966854946599
 30
0.0
 11
151.44018126507919
 21
224.67966854946599
 31
0.0
  0
LINE
  5
282
  8
3
 10
149.5401812650791
 20
223.57966854946599
 30
0.0
 11
151.44018126507919
 21
223.57966854946599
 31
0.0
  0
LINE
  5
283
  8
3
 10
149.5401812650791
 20
222.479668549466
 30
0.0
 11
151.44018126507919
 21
222.479668549466
 31
0.0
  0
LINE
  5
284
  8
3
 10
149.5401812650791
 20
221.379668549466
 30
0.0
 11
151.44018126507919
 21
221.379668549466
 31
0.0
  0
LINE
  5
285
  8
3
 10
149.5401812650791
 20
210.379668549466
 30
0.0
 11
151.44018126507919
 21
210.37966854946609
 31
0.0
  0
LINE
  5
286
  8
3
 10
149.5401812650791
 20
211.479668549466
 30
0.0
 11
151.44018126507919
 21
211.479668549466
 31
0.0
  0
LINE
  5
287
  8
3
 10
149.5401812650791
 20
212.57966854946599
 30
0.0
 11
151.44018126507919
 21
212.57966854946599
 31
0.0
  0
LINE
  5
288
  8
3
 10
149.5401812650791
 20
213.67966854946599
 30
0.0
 11
151.44018126507919
 21
213.67966854946599
 31
0.0
  0
LINE
  5
289
  8
3
 10
149.5401812650791
 20
215.87966854946609
 30
0.0
 11
151.44018126507919
 21
215.87966854946609
 31
0.0
  0
LINE
  5
28A
  8
3
 10
149.5401812650791
 20
216.97966854946611
 30
0.0
 11
151.44018126507919
 21
216.97966854946611
 31
0.0
  0
LINE
  5
28B
  8
3
 10
149.5401812650791
 20
218.07966854946599
 30
0.0
 11
151.44018126507919
 21
218.07966854946611
 31
0.0
  0
LINE
  5
28C
  8
3
 10
149.5401812650791
 20
219.17966854946599
 30
0.0
 11
151.44018126507919
 21
219.1796685494661
 31
0.0
  0
LINE
  5
28D
  8
3
 10
149.5401812650791
 20
241.17966854946599
 30
0.0
 11
151.44018126507919
 21
241.1796685494661
 31
0.0
  0
LINE
  5
28E
  8
3
 10
149.5401812650791
 20
240.07966854946611
 30
0.0
 11
151.44018126507919
 21
240.07966854946611
 31
0.0
  0
LINE
  5
28F
  8
3
 10
149.5401812650791
 20
238.97966854946611
 30
0.0
 11
151.44018126507919
 21
238.97966854946611
 31
0.0
  0
LINE
  5
290
  8
3
 10
149.5401812650791
 20
237.879668549466
 30
0.0
 11
151.44018126507919
 21
237.879668549466
 31
0.0
  0
LINE
  5
291
  8
3
 10
149.5401812650791
 20
235.67966854946599
 30
0.0
 11
151.44018126507919
 21
235.67966854946599
 31
0.0
  0
LINE
  5
292
  8
3
 10
149.5401812650791
 20
234.57966854946599
 30
0.0
 11
151.44018126507919
 21
234.57966854946599
 31
0.0
  0
LINE
  5
293
  8
3
 10
149.5401812650791
 20
233.479668549466
 30
0.0
 11
151.44018126507919
 21
233.479668549466
 31
0.0
  0
LINE
  5
294
  8
3
 10
149.5401812650791
 20
232.379668549466
 30
0.0
 11
151.44018126507919
 21
232.37966854946609
 31
0.0
  0
LINE
  5
295
  8
3
 10
149.5401812650791
 20
243.379668549466
 30
0.0
 11
151.44018126507919
 21
243.37966854946609
 31
0.0
  0
LINE
  5
296
  8
3
 10
149.5401812650791
 20
244.479668549466
 30
0.0
 11
151.44018126507919
 21
244.479668549466
 31
0.0
  0
LINE
  5
297
  8
3
 10
149.5401812650791
 20
245.57966854946599
 30
0.0
 11
151.44018126507919
 21
245.57966854946599
 31
0.0
  0
LINE
  5
298
  8
3
 10
149.5401812650791
 20
246.67966854946599
 30
0.0
 11
151.44018126507919
 21
246.67966854946599
 31
0.0
  0
LINE
  5
299
  8
3
 10
149.5401812650791
 20
248.87966854946609
 30
0.0
 11
151.44018126507919
 21
248.87966854946609
 31
0.0
  0
LINE
  5
29A
  8
3
 10
149.5401812650791
 20
249.97966854946611
 30
0.0
 11
151.44018126507919
 21
249.97966854946611
 31
0.0
  0
LINE
  5
29B
  8
3
 10
149.5401812650791
 20
251.07966854946611
 30
0.0
 11
151.44018126507919
 21
251.07966854946611
 31
0.0
  0
LINE
  5
29C
  8
3
 10
149.5401812650791
 20
252.17966854946599
 30
0.0
 11
151.44018126507919
 21
252.1796685494661
 31
0.0
  0
LINE
  5
29D
  8
0
 10
147.34018126507931
 20
212.27966854946609
 30
0.0
 11
143.44018126507919
 21
212.27966854946621
 31
0.0
  0
LINE
  5
29E
  8
0
 10
147.34018126507931
 20
227.47966854946611
 30
0.0
 11
143.44018126507919
 21
227.47966854946611
 31
0.0
  0
LINE
  5
29F
  8
0
 10
147.34018126507931
 20
242.6796685494661
 30
0.0
 11
143.44018126507919
 21
242.6796685494661
 31
0.0
  0
LINE
  5
2A0
  8
0
 10
149.54018126507989
 20
203.77966854946601
 30
0.0
 11
153.44018126507919
 21
203.77966854946609
 31
0.0
  0
LINE
  5
2A1
  8
0
 10
149.54018126507981
 20
214.77966854946609
 30
0.0
 11
153.44018126507919
 21
214.77966854946609
 31
0.0
  0
LINE
  5
2A2
  8
0
 10
149.5401812650795
 20
225.77966854946601
 30
0.0
 11
153.44018126507919
 21
225.77966854946601
 31
0.0
  0
LINE
  5
2A3
  8
0
 10
149.5401812650793
 20
236.77966854946601
 30
0.0
 11
153.44018126507919
 21
236.77966854946601
 31
0.0
  0
LINE
  5
2A4
  8
0
 10
149.54018126507921
 20
247.77966854946601
 30
0.0
 11
153.44018126507919
 21
247.77966854946609
 31
0.0
  0
LINE
  5
2A5
  8
0
 10
147.34018126507931
 20
204.6796685494661
 30
0.0
 11
140.44018126507919
 21
204.6796685494661
 31
0.0
  0
LINE
  5
2A6
  8
0
 10
147.34018126507931
 20
219.87966854946609
 30
0.0
 11
140.44018126507919
 21
219.87966854946609
 31
0.0
  0
LINE
  5
2A7
  8
0
 10
147.34018126507931
 20
235.07966854946611
 30
0.0
 11
140.44018126507919
 21
235.07966854946611
 31
0.0
  0
LINE
  5
2A8
  8
0
 10
147.34018126507931
 20
250.27966854946609
 30
0.0
 11
140.44018126507919
 21
250.27966854946609
 31
0.0
  0
LINE
  5
2A9
  8
0
 10
149.5401812650791
 20
198.27966854946601
 30
0.0
 11
156.44018126507919
 21
198.27966854946601
 31
0.0
  0
LINE
  5
2AA
  8
0
 10
149.5401812650791
 20
209.27966854946601
 30
0.0
 11
156.44018126507919
 21
209.27966854946601
 31
0.0
  0
LINE
  5
2AB
  8
0
 10
149.5401812650791
 20
220.27966854946601
 30
0.0
 11
156.44018126507919
 21
220.27966854946601
 31
0.0
  0
LINE
  5
2AC
  8
0
 10
149.5401812650791
 20
231.27966854946601
 30
0.0
 11
156.44018126507919
 21
231.27966854946609
 31
0.0
  0
LINE
  5
2AD
  8
0
 10
149.5401812650791
 20
242.27966854946601
 30
0.0
 11
156.44018126507919
 21
242.27966854946609
 31
0.0
  0
LINE
  5
2AE
  8
0
 10
149.5401812650791
 20
253.27966854946601
 30
0.0
 11
156.44018126507919
 21
253.27966854946609
 31
0.0
  0
POLYLINE
  5
2AF
  8
0
 66
     1
 10
0.0
 20
0.0
 30
0.0
 70
     1
 40
2.1000000000000001
 41
2.1000000000000001
  0
VERTEX
  5
2B0
  8
0
 10
147.39018126507901
 20
187.479668549466
 30
0.0
 42
1.0
  0
VERTEX
  5
2B1
  8
0
 10
149.4901812650792
 20
187.479668549466
 30
0.0
 42
1.0
  0
SEQEND
  5
2B2
  8
0
  0
CIRCLE
  5
2B3
  8
0
 10
148.4401812650791
 20
187.479668549466
 30
0.0
 40
2.1000000000000001
  0
ARC
  5
2B4
  8
0
 10
148.44018126507919
 20
192.77966854946601
 30
0.0
 40
2.100000000000136
 50
0.0000000000008142
 51
58.411864494917801
  0
ARC
  5
2B5
  8
0
 10
148.44018126507919
 20
192.77966854946601
 30
0.0
 40
2.100000000000136
 50
121.58813550514
 51
180.0
  0
ARC
  5
2B6
  8
0
 10
148.44018126507919
 20
185.97966854946611
 30
0.0
 40
2.0999999999999939
 50
180.0
 51
0.0
  0
LINE
  5
2B7
  8
0
 10
150.5401812650793
 20
192.77967045681461
 30
0.0
 11
150.5401812650793
 21
185.9796628274201
 31
0.0
  0
LINE
  5
2B8
  8
0
 10
146.34018126507911
 20
192.77967427151191
 30
0.0
 11
146.34018126507911
 21
185.97966854946611
 31
0.0
  0
LINE
  5
2B9
  8
0
 10
149.54018126507921
 20
197.879668549466
 30
0.0
 11
150.5401812650791
 21
197.879668549466
 31
0.0
  0
LINE
  5
2BA
  8
0
 10
146.34018126507911
 20
197.879668549466
 30
0.0
 11
147.34018126507911
 21
197.879668549466
 31
0.0
  0
LINE
  5
2BB
  8
0
 10
146.34018126507911
 20
194.879668549466
 30
0.0
 11
146.34018126507911
 21
197.879668549466
 31
0.0
  0
LINE
  5
2BC
  8
0
 10
150.54018126507921
 20
194.879668549466
 30
0.0
 11
150.5401812650791
 21
197.879668549466
 31
0.0
  0
LINE
  5
2BD
  8
0
 10
146.34018126507911
 20
194.879668549466
 30
0.0
 11
147.34018126507911
 21
194.879668549466
 31
0.0
  0
LINE
  5
2BE
  8
0
 10
149.5401812650791
 20
194.879668549466
 30
0.0
 11
150.54018126507921
 21
194.879668549466
 31
0.0
  0
LINE
  5
2BF
  8
0
 10
149.54018126507921
 20
260.37966854946609
 30
0.0
 11
150.5401812650793
 21
260.37966854946609
 31
0.0
  0
LINE
  5
2C0
  8
0
 10
146.34018126507911
 20
260.37966854946609
 30
0.0
 11
147.3401812650792
 21
260.37966854946609
 31
0.0
  0
LINE
  5
2C1
  8
0
 10
150.5401812650793
 20
260.37966854946609
 30
0.0
 11
150.54018126507921
 21
263.37966854946598
 31
0.0
  0
LINE
  5
2C2
  8
0
 10
146.34018126507911
 20
260.37966854946609
 30
0.0
 11
146.3401812650792
 21
263.37966854946598
 31
0.0
  0
LINE
  5
2C3
  8
0
 10
149.54018126507921
 20
185.69081416747261
 30
0.0
 11
149.54018126507921
 21
263.37966854946598
 31
0.0
  0
LINE
  5
2C4
  8
0
 10
147.3401812650792
 20
185.6908141674767
 30
0.0
 11
147.3401812650792
 21
263.37966854946598
 31
0.0
  0
LINE
  5
2C5
  8
0
 10
146.3401812650792
 20
263.37966854946598
 30
0.0
 11
150.5401812650791
 21
263.37966854946598
 31
0.0
  0
LINE
  5
2F0
  8
0
 10
136.44018126507919
 20
188.879668549466
 30
0.0
 11
160.44018126507919
 21
188.879668549466
 31
0.0
  0
LINE
  5
2F1
  8
0
 10
136.44018126507919
 20
186.879668549466
 30
0.0
 11
160.44018126507919
 21
186.879668549466
 31
0.0
  0
SOLID
  5
2F2
  8
0
 10
136.44018126507919
 20
188.879668549466
 30
0.0
 11
136.44018126507919
 21
186.879668549466
 31
0.0
 12
160.44018126507919
 22
188.879668549466
 32
0.0
 13
160.44018126507919
 23
186.879668549466
 33
0.0
  0
TEXT
  5
2FB
  8
3
 10
139.5830384079363
 20
182.879668549466
 30
0.0
 40
1.5
  1
HCX    254/T
 72
     1
 11
148.44018126507919
 21
182.879668549466
 31
0.0
  0
TEXT
  5
3EC
  8
0
 62
     3
 10
0.0
 20
0.0
 30
0.0
 40
10.0
  1
LT-254N-J
  7
STANDARD1
  0
ENDSEC
  0
EOF
