  0
SECTION
  2
HEADER
  9
$ACADVER
  1
AC1009
  9
$INSBASE
 10
0.0
 20
0.0
 30
0.0
  9
$EXTMIN
 10
0.0
 20
-2.960436562073669
 30
0.0
  9
$EXTMAX
 10
358.19930355101098
 20
459.2083098233457
 30
0.0
  9
$LIMMIN
 10
0.0
 20
0.0
  9
$LIMMAX
 10
375.0
 20
270.0
  9
$ORTHOMODE
 70
     1
  9
$REGENMODE
 70
     1
  9
$FILLMODE
 70
     1
  9
$QTEXTMODE
 70
     0
  9
$MIRRTEXT
 70
     0
  9
$DRAGMODE
 70
     2
  9
$LTSCALE
 40
6.0
  9
$OSMODE
 70
  3071
  9
$ATTMODE
 70
     1
  9
$TEXTSIZE
 40
0.2
  9
$TRACEWID
 40
0.05
  9
$TEXTSTYLE
  7
STANDARD
  9
$CLAYER
  8
0
  9
$CELTYPE
  6
BYLAYER
  9
$CECOLOR
 62
   256
  9
$DIMSCALE
 40
1.0
  9
$DIMASZ
 40
3.0
  9
$DIMEXO
 40
1.0
  9
$DIMDLI
 40
6.0
  9
$DIMRND
 40
0.0
  9
$DIMDLE
 40
0.0
  9
$DIMEXE
 40
1.0
  9
$DIMTP
 40
495.0
  9
$DIMTM
 40
0.0
  9
$DIMTXT
 40
3.0
  9
$DIMCEN
 40
0.0
  9
$DIMTSZ
 40
0.0
  9
$DIMTOL
 70
     0
  9
$DIMLIM
 70
     0
  9
$DIMTIH
 70
     0
  9
$DIMTOH
 70
     0
  9
$DIMSE1
 70
     0
  9
$DIMSE2
 70
     0
  9
$DIMTAD
 70
     1
  9
$DIMZIN
 70
     0
  9
$DIMBLK
  1

  9
$DIMASO
 70
     0
  9
$DIMSHO
 70
     0
  9
$DIMPOST
  1

  9
$DIMAPOST
  1

  9
$DIMALT
 70
     0
  9
$DIMALTD
 70
     2
  9
$DIMALTF
 40
25.399999999999999
  9
$DIMLFAC
 40
1.0
  9
$DIMTOFL
 70
     1
  9
$DIMTVP
 40
0.0
  9
$DIMTIX
 70
     1
  9
$DIMSOXD
 70
     0
  9
$DIMSAH
 70
     0
  9
$DIMBLK1
  1

  9
$DIMBLK2
  1

  9
$DIMSTYLE
  2
STANDARD
  9
$DIMCLRD
 70
     0
  9
$DIMCLRE
 70
     0
  9
$DIMCLRT
 70
     4
  9
$DIMTFAC
 40
1.0
  9
$DIMGAP
 40
1.0
  9
$LUNITS
 70
     2
  9
$LUPREC
 70
     4
  9
$SKETCHINC
 40
0.1
  9
$FILLETRAD
 40
2.0
  9
$AUNITS
 70
     0
  9
$AUPREC
 70
     0
  9
$MENU
  1
C:\R13\WIN\SUPPORT\ACAD-I
  9
$ELEVATION
 40
0.0
  9
$PELEVATION
 40
0.0
  9
$THICKNESS
 40
0.0
  9
$LIMCHECK
 70
     0
  9
$BLIPMODE
 70
     0
  9
$CHAMFERA
 40
0.0
  9
$CHAMFERB
 40
0.0
  9
$SKPOLY
 70
     0
  9
$TDCREATE
 40
2451962.6096904632
  9
$TDUPDATE
 40
2456597.6124156141
  9
$TDINDWG
 40
0.025849919
  9
$TDUSRTIMER
 40
2456556.1861812971
  9
$USRTIMER
 70
     1
  9
$ANGBASE
 50
0.0
  9
$ANGDIR
 70
     0
  9
$PDMODE
 70
     0
  9
$PDSIZE
 40
0.0
  9
$PLINEWID
 40
0.0
  9
$COORDS
 70
     1
  9
$SPLFRAME
 70
     0
  9
$SPLINETYPE
 70
     6
  9
$SPLINESEGS
 70
     8
  9
$ATTDIA
 70
     0
  9
$ATTREQ
 70
     1
  9
$HANDLING
 70
     1
  9
$HANDSEED
  5
93CE
  9
$SURFTAB1
 70
     6
  9
$SURFTAB2
 70
     6
  9
$SURFTYPE
 70
     6
  9
$SURFU
 70
     6
  9
$SURFV
 70
     6
  9
$UCSNAME
  2

  9
$UCSORG
 10
0.0
 20
0.0
 30
0.0
  9
$UCSXDIR
 10
1.0
 20
0.0
 30
0.0
  9
$UCSYDIR
 10
0.0
 20
1.0
 30
0.0
  9
$PUCSNAME
  2

  9
$PUCSORG
 10
0.0
 20
0.0
 30
0.0
  9
$PUCSXDIR
 10
1.0
 20
0.0
 30
0.0
  9
$PUCSYDIR
 10
0.0
 20
1.0
 30
0.0
  9
$USERI1
 70
     4
  9
$USERI2
 70
     1
  9
$USERI3
 70
     0
  9
$USERI4
 70
     0
  9
$USERI5
 70
     0
  9
$USERR1
 40
1.0
  9
$USERR2
 40
3.0
  9
$USERR3
 40
3.0
  9
$USERR4
 40
3.0
  9
$USERR5
 40
10.0
  9
$WORLDVIEW
 70
     1
  9
$SHADEDGE
 70
     3
  9
$SHADEDIF
 70
    70
  9
$TILEMODE
 70
     1
  9
$MAXACTVP
 70
    16
  9
$PLIMCHECK
 70
     0
  9
$PEXTMIN
 10
1.0000000000000000E+020
 20
1.0000000000000000E+020
 30
1.0000000000000000E+020
  9
$PEXTMAX
 10
-1.0000000000000000E+020
 20
-1.0000000000000000E+020
 30
-1.0000000000000000E+020
  9
$PLIMMIN
 10
0.0
 20
0.0
  9
$PLIMMAX
 10
12.0
 20
9.0
  9
$UNITMODE
 70
     0
  9
$VISRETAIN
 70
     0
  9
$PLINEGEN
 70
     0
  9
$PSLTSCALE
 70
     0
  0
ENDSEC
  0
SECTION
  2
TABLES
  0
TABLE
  2
VPORT
 70
     1
  0
VPORT
  2
*ACTIVE
 70
     0
 10
0.0
 20
0.0
 11
1.0
 21
1.0
 12
187.49427839065211
 22
229.11578043997019
 13
0.0
 23
0.0
 14
10.0
 24
10.0
 15
10.0
 25
10.0
 16
0.0
 26
0.0
 36
1.0
 17
0.0
 27
0.0
 37
0.0
 40
469.52831293419132
 41
2.304913294797688
 42
50.0
 43
0.0
 44
0.0
 50
0.0
 51
0.0
 71
    16
 72
   100
 73
     1
 74
     0
 75
     0
 76
     0
 77
     0
 78
     0
  0
ENDTAB
  0
TABLE
  2
LTYPE
 70
     3
  0
LTYPE
  2
CONTINUOUS
 70
     0
  3
Solid Line
 72
    65
 73
     0
 40
0.0
  0
LTYPE
  2
PHANTOM2
 70
     0
  3
___ _ _ ___ _ _ ___ _ _ ___ _ _
 72
    65
 73
     6
 40
1.25
 49
0.625
 49
-0.125
 49
0.125
 49
-0.125
 49
0.125
 49
-0.125
  0
LTYPE
  2
CENTER
 70
     0
  3
____ _ ____ _ ____ _ ____ _ ____ _ ____ _ ____
 72
    65
 73
     4
 40
2.0
 49
1.25
 49
-0.25
 49
0.25
 49
-0.25
  0
ENDTAB
  0
TABLE
  2
LAYER
 70
     4
  0
LAYER
  2
0
 70
     0
 62
     7
  6
CONTINUOUS
  0
LAYER
  2
1
 70
     0
 62
     1
  6
CENTER
  0
LAYER
  2
3
 70
     0
 62
     3
  6
CONTINUOUS
  0
LAYER
  2
DEFPOINTS
 70
     0
 62
     7
  6
CONTINUOUS
  0
ENDTAB
  0
TABLE
  2
STYLE
 70
     3
  0
STYLE
  2
STANDARD
 70
     0
 40
0.0
 41
1.0
 50
0.0
 71
     0
 42
0.2
  3
SIMPLEX
  4
BIGFONT
  0
STYLE
  2
ANNOTATIVE
 70
     0
 40
0.0
 41
1.0
 50
0.0
 71
     0
 42
0.2
  3
txt
  4

  0
STYLE
  2
STANDARD1
 70
     0
 40
0.0
 41
1.0
 50
0.0
 71
     0
 42
3.0
  3
txt
  4

  0
ENDTAB
  0
TABLE
  2
VIEW
 70
     0
  0
ENDTAB
  0
TABLE
  2
UCS
 70
     0
  0
ENDTAB
  0
TABLE
  2
APPID
 70
    29
  0
APPID
  2
ACAD
 70
     0
  0
APPID
  2
ACADANNOTATIVE
 70
     0
  0
APPID
  2
GENIUS_GENOREF_13
 70
     0
  0
APPID
  2
GENIUS_GENOENT_13
 70
     0
  0
APPID
  2
GENIUS_GENBH_13
 70
     0
  0
APPID
  2
GENIUS_GENOBJ_13
 70
     0
  0
APPID
  2
GENIUS_GENODEF_13
 70
     0
  0
APPID
  2
GENIUS_GENOLIS_13
 70
     0
  0
APPID
  2
GENIUS_GENOBJ-NBEHI-BHF_13
 70
     0
  0
APPID
  2
GENIUS_GENOBJ-NBEHI-BHB_13
 70
     0
  0
APPID
  2
GENIUS_GENOBJ-F-PART_13
 70
     0
  0
APPID
  2
GENIUS_GEFSTDP_13
 70
     0
  0
APPID
  2
GENIUS_GENOBJ-N-RSSYM_13
 70
     0
  0
APPID
  2
GENIUS_GENSYMENT_13
 70
     0
  0
APPID
  2
GENIUS_GENOBJ-N-TIT_13
 70
     0
  0
APPID
  2
GENIUS_GENTITLE_13
 70
     0
  0
APPID
  2
GENIUS_GENZVEED_13
 70
     0
  0
APPID
  2
GENIUS_GENOBJ-N-LEADER_13
 70
     0
  0
APPID
  2
GENIUS_GENOBJ-N-FIL_13
 70
     0
  0
APPID
  2
GENIUS_GENOBJ-N-SEC_13
 70
     0
  0
APPID
  2
GENIUS_GENOBJ-N-CRS_13
 70
     0
  0
APPID
  2
GENIUS_GENOBJ-N-ZOO_13
 70
     0
  0
APPID
  2
GENIUS_GENZOO_13
 70
     0
  0
APPID
  2
GENIUS_GENOBJ-F-TOL_13
 70
     0
  0
APPID
  2
GENIUS_GENFIL_13
 70
     0
  0
APPID
  2
GENIUS_GENOBJ-N-CHA_13
 70
     0
  0
APPID
  2
ACAD_EXEMPT_FROM_CAD_STANDARDS
 70
     0
  0
APPID
  2
ACAD_MLEADERVER
 70
     0
  0
APPID
  2
ACAD_NAV_VCDISPLAY
 70
     0
  0
ENDTAB
  0
TABLE
  2
DIMSTYLE
 70
     2
  0
DIMSTYLE
  2
STANDARD
 70
     0
  3

  4

  5

  6

  7

 40
1.0
 41
0.18
 42
0.0625
 43
0.38
 44
0.18
 45
0.0
 46
0.0
 47
0.0
 48
0.0
140
0.18
141
0.09
142
0.0
143
25.399999999999999
144
1.0
145
0.0
146
1.0
147
0.09
 71
     0
 72
     0
 73
     1
 74
     1
 75
     0
 76
     0
 77
     0
 78
     0
170
     0
171
     2
172
     0
173
     0
174
     0
175
     0
176
     0
177
     0
178
     0
  0
DIMSTYLE
  2
ANNOTATIVE
 70
     0
  3

  4

  5

  6

  7

 40
1.0
 41
0.18
 42
0.0625
 43
0.38
 44
0.18
 45
0.0
 46
0.0
 47
0.0
 48
0.0
140
0.18
141
0.09
142
0.0
143
25.399999999999999
144
1.0
145
0.0
146
1.0
147
0.09
 71
     0
 72
     0
 73
     1
 74
     1
 75
     0
 76
     0
 77
     0
 78
     0
170
     0
171
     2
172
     0
173
     0
174
     0
175
     0
176
     0
177
     0
178
     0
  0
ENDTAB
  0
ENDSEC
  0
SECTION
  2
BLOCKS
  0
BLOCK
  8
0
  2
$MODEL_SPACE
 70
     0
 10
0.0
 20
0.0
 30
0.0
  3
$MODEL_SPACE
  1

  0
ENDBLK
  5
92F0
  8
0
  0
BLOCK
 67
     1
  8
0
  2
$PAPER_SPACE
 70
     0
 10
0.0
 20
0.0
 30
0.0
  3
$PAPER_SPACE
  1

  0
ENDBLK
  5
92EC
 67
     1
  8
0
  0
ENDSEC
  0
SECTION
  2
ENTITIES
  0
LINE
  5
8ED2
  8
0
 10
182.77613265496529
 20
73.110891687451627
 30
0.0
 11
82.776132654965295
 21
73.110891687451627
 31
0.0
  0
LINE
  5
8ED3
  8
0
 10
182.77613265496529
 20
73.110891687451627
 30
0.0
 11
182.77613265496529
 21
82.29108778473298
 31
0.0
  0
LINE
  5
8ED5
  8
0
 10
149.27613265496529
 20
97.110891687451613
 30
0.0
 11
116.27613265496529
 21
97.110891687451613
 31
0.0
  0
LINE
  5
8ED7
  8
DEFPOINTS
 10
150.27613265496529
 20
96.110891687451584
 30
0.0
 11
150.27613265496529
 21
96.110891687451584
 31
0.0
  0
LINE
  5
8ED8
  8
DEFPOINTS
 10
156.77613265496529
 20
93.372317032933438
 30
0.0
 11
156.77613265496529
 21
93.110891687451627
 31
0.0
  0
LINE
  5
8ED9
  8
DEFPOINTS
 10
162.77613265496529
 20
90.39013246739546
 30
0.0
 11
162.77613265496529
 21
90.110891687451598
 31
0.0
  0
LINE
  5
8EDA
  8
DEFPOINTS
 10
169.77613265496529
 20
87.356590274697268
 30
0.0
 11
169.77613265496529
 21
87.110891687451627
 31
0.0
  0
LINE
  5
8EDB
  8
DEFPOINTS
 10
177.77613265496529
 20
84.330115281047142
 30
0.0
 11
177.77613265496529
 21
84.110891687451627
 31
0.0
  0
LINE
  5
8EDC
  8
DEFPOINTS
 10
150.27613265496529
 20
96.110891687451584
 30
0.0
 11
156.07021850380301
 21
94.328096041655371
 31
0.0
  0
LINE
  5
8EDD
  8
DEFPOINTS
 10
156.77613265496529
 20
93.110891687451627
 30
0.0
 11
162.092360420982
 21
91.338815765445929
 31
0.0
  0
LINE
  5
8EDE
  8
DEFPOINTS
 10
162.77613265496529
 20
90.110891687451598
 30
0.0
 11
169.0508537828627
 21
88.318114222337954
 31
0.0
  0
LINE
  5
8EDF
  8
DEFPOINTS
 10
169.77613265496529
 20
87.110891687451627
 30
0.0
 11
177.01866828000169
 21
85.300257781192514
 31
0.0
  0
ARC
  5
8EE0
  8
DEFPOINTS
 10
176.77613265496529
 20
84.330115281047142
 30
0.0
 40
1.0
 50
0.0
 51
75.963756532073333
  0
ARC
  5
8EE1
  8
DEFPOINTS
 10
168.77613265496529
 20
87.356590274697268
 30
0.0
 40
1.0
 50
0.0
 51
74.054604099077153
  0
ARC
  5
8EE2
  8
DEFPOINTS
 10
161.77613265496529
 20
90.39013246739546
 30
0.0
 40
1.0
 50
0.0
 51
71.565051177077734
  0
ARC
  5
8EE3
  8
DEFPOINTS
 10
155.77613265496529
 20
93.372317032933438
 30
0.0
 40
1.0
 50
0.0
 51
72.897271030947451
  0
ARC
  5
8EE4
  8
DEFPOINTS
 10
149.27613265496529
 20
96.110891687451584
 30
0.0
 40
1.0
 50
0.0
 51
89.999999999999986
  0
LINE
  5
8EE5
  8
DEFPOINTS
 10
177.77613265496529
 20
84.110891687451627
 30
0.0
 11
181.97224879010341
 21
83.271668460423925
 31
0.0
  0
ARC
  5
8EE6
  8
DEFPOINTS
 10
181.77613265496529
 20
82.29108778473298
 30
0.0
 40
1.0
 50
359.99999999999972
 51
78.690067525979913
  0
ARC
  5
8EE7
  8
DEFPOINTS
 10
83.776132654965295
 20
82.29108778473298
 30
0.0
 40
1.0
 50
101.3099324740201
 51
180.00000000000031
  0
LINE
  5
8EE8
  8
DEFPOINTS
 10
87.776132654965309
 20
84.110891687451627
 30
0.0
 11
83.580016519827055
 21
83.271668460423925
 31
0.0
  0
ARC
  5
8EE9
  8
DEFPOINTS
 10
116.27613265496529
 20
96.110891687451584
 30
0.0
 40
1.0
 50
90.000000000000057
 51
180.0
  0
ARC
  5
8EEA
  8
DEFPOINTS
 10
109.77613265496529
 20
93.372317032933438
 30
0.0
 40
1.0
 50
107.10272896905251
 51
180.0
  0
ARC
  5
8EEB
  8
DEFPOINTS
 10
103.77613265496529
 20
90.39013246739546
 30
0.0
 40
1.0
 50
108.43494882292219
 51
180.0
  0
ARC
  5
8EEC
  8
DEFPOINTS
 10
96.776132654965281
 20
87.356590274697268
 30
0.0
 40
1.0
 50
105.9453959009228
 51
180.0
  0
ARC
  5
8EED
  8
DEFPOINTS
 10
88.776132654965309
 20
84.330115281047142
 30
0.0
 40
1.0
 50
104.0362434679266
 51
180.0
  0
LINE
  5
8EEE
  8
DEFPOINTS
 10
95.776132654965295
 20
87.110891687451627
 30
0.0
 11
88.533597029928842
 21
85.300257781192514
 31
0.0
  0
LINE
  5
8EEF
  8
DEFPOINTS
 10
102.77613265496529
 20
90.110891687451598
 30
0.0
 11
96.501411527067873
 21
88.318114222337954
 31
0.0
  0
LINE
  5
8EF0
  8
DEFPOINTS
 10
108.77613265496529
 20
93.110891687451627
 30
0.0
 11
103.4599048889486
 21
91.338815765445929
 31
0.0
  0
LINE
  5
8EF1
  8
DEFPOINTS
 10
115.27613265496529
 20
96.110891687451584
 30
0.0
 11
109.4820468061275
 21
94.328096041655371
 31
0.0
  0
LINE
  5
8EF2
  8
DEFPOINTS
 10
87.776132654965309
 20
84.330115281047142
 30
0.0
 11
87.776132654965309
 21
84.110891687451627
 31
0.0
  0
LINE
  5
8EF3
  8
DEFPOINTS
 10
95.776132654965295
 20
87.356590274697268
 30
0.0
 11
95.776132654965295
 21
87.110891687451627
 31
0.0
  0
LINE
  5
8EF4
  8
DEFPOINTS
 10
102.77613265496529
 20
90.39013246739546
 30
0.0
 11
102.77613265496529
 21
90.110891687451598
 31
0.0
  0
LINE
  5
8EF5
  8
DEFPOINTS
 10
108.77613265496529
 20
93.372317032933438
 30
0.0
 11
108.77613265496529
 21
93.110891687451627
 31
0.0
  0
LINE
  5
8EF6
  8
DEFPOINTS
 10
115.27613265496529
 20
96.110891687451584
 30
0.0
 11
115.27613265496529
 21
96.110891687451584
 31
0.0
  0
LINE
  5
8EF8
  8
0
 10
82.776132654965295
 20
73.110891687451627
 30
0.0
 11
82.776132654965295
 21
82.29108778473298
 31
0.0
  0
LINE
  5
8EF9
  8
DEFPOINTS
 10
87.776132654965309
 20
84.110891687451627
 30
0.0
 11
177.77613265496529
 21
84.110891687451627
 31
0.0
  0
LINE
  5
8EFA
  8
DEFPOINTS
 10
95.776132654965295
 20
87.110891687451627
 30
0.0
 11
169.77613265496529
 21
87.110891687451627
 31
0.0
  0
LINE
  5
8EFB
  8
DEFPOINTS
 10
102.77613265496529
 20
90.110891687451598
 30
0.0
 11
162.77613265496529
 21
90.110891687451598
 31
0.0
  0
LINE
  5
8EFC
  8
DEFPOINTS
 10
156.77613265496529
 20
93.110891687451627
 30
0.0
 11
108.77613265496529
 21
93.110891687451627
 31
0.0
  0
LINE
  5
8EFD
  8
DEFPOINTS
 10
115.27613265496529
 20
96.110891687451584
 30
0.0
 11
150.27613265496529
 21
96.110891687451584
 31
0.0
  0
CIRCLE
  5
8EFE
  8
DEFPOINTS
 10
132.77613265496529
 20
399.2083098233457
 30
0.0
 40
50.0
  0
CIRCLE
  5
8EFF
  8
DEFPOINTS
 10
132.77613265496529
 20
399.2083098233457
 30
0.0
 40
45.0
  0
CIRCLE
  5
8F00
  8
DEFPOINTS
 10
132.77613265496529
 20
399.2083098233457
 30
0.0
 40
37.0
  0
CIRCLE
  5
8F01
  8
DEFPOINTS
 10
132.77613265496529
 20
399.2083098233457
 30
0.0
 40
30.0
  0
CIRCLE
  5
8F02
  8
DEFPOINTS
 10
132.77613265496529
 20
399.2083098233457
 30
0.0
 40
23.999999999999989
  0
CIRCLE
  5
8F03
  8
DEFPOINTS
 10
132.77613265496529
 20
399.2083098233457
 30
0.0
 40
17.499999999999979
  0
CIRCLE
  5
8F04
  8
0
 10
132.77613265496529
 20
399.2083098233457
 30
0.0
 40
14.5
  0
LINE
  5
8F05
  8
0
 10
115.4556245792769
 20
399.2083098233461
 30
0.0
 11
124.1158786171213
 21
384.2083098233457
 31
0.0
  0
LINE
  5
8F06
  8
0
 10
124.1158786171213
 20
414.2083098233457
 30
0.0
 11
115.4556245792769
 21
399.2083098233461
 31
0.0
  0
LINE
  5
8F07
  8
0
 10
141.43638669280909
 20
414.2083098233457
 30
0.0
 11
124.1158786171213
 21
414.2083098233457
 31
0.0
  0
LINE
  5
8F08
  8
0
 10
150.09664073065409
 20
399.2083098233457
 30
0.0
 11
141.43638669280909
 21
414.2083098233457
 31
0.0
  0
LINE
  5
8F09
  8
0
 10
141.43638669280969
 20
384.2083098233457
 30
0.0
 11
150.09664073065409
 21
399.2083098233457
 31
0.0
  0
LINE
  5
8F0A
  8
0
 10
124.1158786171213
 20
384.2083098233457
 30
0.0
 11
141.43638669280969
 21
384.2083098233457
 31
0.0
  0
CIRCLE
  5
8F0B
  8
3
 10
132.77613265496529
 20
399.2083098233457
 30
0.0
 40
8.6470000000000002
  0
CIRCLE
  5
8F0C
  8
0
 10
132.77613265496529
 20
399.2083098233457
 30
0.0
 40
10.0
  0
LINE
  5
8F0D
  8
3
 10
124.1291326549653
 20
158.11089168747461
 30
0.0
 11
124.1291326549653
 21
312.96389168745179
 31
0.0
  0
LINE
  5
8F0E
  8
0
 10
122.7761326549652
 20
158.11089168747461
 30
0.0
 11
122.7761326549652
 21
311.61089168745173
 31
0.0
  0
LINE
  5
8F0F
  8
0
 10
142.77613265496529
 20
158.11089168747441
 30
0.0
 11
142.77613265496529
 21
311.6108916874515
 31
0.0
  0
LINE
  5
8F10
  8
3
 10
141.4231326549652
 20
158.11089168747461
 30
0.0
 11
141.4231326549652
 21
312.96389168745162
 31
0.0
  0
LINE
  5
8F11
  8
0
 10
118.27613265496571
 20
158.1108916874748
 30
0.0
 11
115.4556245792769
 21
156.4824705907244
 31
0.0
  0
ARC
  5
8F12
  8
0
 10
119.7857515981991
 20
150.1547483076036
 30
0.0
 40
7.6674682452751766
 50
55.615752531994502
 51
115.61575252953971
  0
ARC
  5
8F13
  8
0
 10
119.7857515981991
 20
150.1547483076036
 30
0.0
 40
7.6674682452751766
 50
124.3842474680055
 51
124.3842474680055
  0
ARC
  5
8F14
  8
0
 10
132.77613265503891
 20
129.16196251548601
 30
0.0
 40
28.660254037392811
 50
72.412046225870512
 51
107.58795377442971
  0
ARC
  5
8F15
  8
0
 10
119.7857515981991
 20
150.0670350673455
 30
0.0
 40
7.6674682452751766
 50
235.6157525319945
 51
235.6157525319945
  0
ARC
  5
8F16
  8
0
 10
119.7857515981991
 20
150.0670350673455
 30
0.0
 40
7.6674682452751766
 50
244.3842474704602
 51
304.38424746800558
  0
LINE
  5
8F17
  8
0
 10
118.27613265496571
 20
142.11089168747409
 30
0.0
 11
115.4556245792769
 21
143.73931278422461
 31
0.0
  0
LINE
  5
8F18
  8
0
 10
115.4556245792769
 20
156.4824705907244
 30
0.0
 11
115.4556245789931
 21
143.73931278438829
 31
0.0
  0
LINE
  5
8F19
  8
0
 10
124.1158786171213
 20
143.739312784248
 30
0.0
 11
124.115878617275
 21
156.4824705907244
 31
0.0
  0
ARC
  5
8F1A
  8
0
 10
132.77613265503891
 20
171.0598208594628
 30
0.0
 40
28.660254037392811
 50
252.41204622557021
 51
287.5879537741294
  0
LINE
  5
8F1B
  8
0
 10
141.43638669280969
 20
143.739312784248
 30
0.0
 11
141.4363866926555
 21
156.4824705907244
 31
0.0
  0
LINE
  5
8F1C
  8
0
 10
150.09664073065369
 20
156.4824705907244
 30
0.0
 11
150.09664073093739
 21
143.73931278438829
 31
0.0
  0
LINE
  5
8F1D
  8
0
 10
147.27613265496569
 20
142.11089168747409
 30
0.0
 11
150.09664073065409
 21
143.73931278422461
 31
0.0
  0
ARC
  5
8F1E
  8
0
 10
145.76651371173151
 20
150.0670350673455
 30
0.0
 40
7.6674682452751766
 50
235.6157525319945
 51
295.61575252953969
  0
ARC
  5
8F1F
  8
0
 10
145.76651371173151
 20
150.0670350673455
 30
0.0
 40
7.6674682452751766
 50
304.38424746800558
 51
304.38424746800558
  0
ARC
  5
8F20
  8
0
 10
145.76651371173151
 20
150.1547483076036
 30
0.0
 40
7.6674682452751766
 50
55.615752531994502
 51
55.615752531994502
  0
ARC
  5
8F21
  8
0
 10
145.76651371173151
 20
150.1547483076036
 30
0.0
 40
7.6674682452751766
 50
64.384247470460238
 51
124.3842474680055
  0
LINE
  5
8F22
  8
0
 10
147.27613265496569
 20
158.1108916874748
 30
0.0
 11
150.09664073065409
 21
156.4824705907244
 31
0.0
  0
LINE
  5
8F23
  8
0
 10
118.27613265496571
 20
158.1108916874748
 30
0.0
 11
147.2761326549662
 21
158.11089168747441
 31
0.0
  0
LINE
  5
8F24
  8
0
 10
147.27613265496569
 20
142.11089168747441
 30
0.0
 11
118.27613265496571
 21
142.11089168747409
 31
0.0
  0
ARC
  5
8F25
  8
0
 10
132.77613265496211
 20
90.781157868649288
 30
0.0
 40
12.25
 50
133.87987710304819
 51
148.8879791802687
  0
LINE
  5
8F26
  8
0
 10
141.27613265496529
 20
99.610891687399445
 30
0.0
 11
124.27613265496529
 21
99.61089168742761
 31
0.0
  0
LINE
  5
8F27
  8
0
 10
141.27613265496529
 20
106.1108916874135
 30
0.0
 11
141.27613265496529
 21
99.610891687399445
 31
0.0
  0
LINE
  5
8F28
  8
0
 10
124.27613265496529
 20
106.1108916874135
 30
0.0
 11
124.27613265496529
 21
99.61089168742788
 31
0.0
  0
LINE
  5
8F29
  8
0
 10
144.27613265499841
 20
106.1108916873942
 30
0.0
 11
121.2761326549321
 21
106.1108916874326
 31
0.0
  0
LINE
  5
8F2A
  8
0
 10
121.2761326549321
 20
116.1108916874326
 30
0.0
 11
144.27613265499841
 21
116.110891687471
 31
0.0
  0
ARC
  5
8F2B
  8
0
 10
126.77613265499851
 20
98.492089535534362
 30
0.0
 40
17.330127017333279
 50
69.743841997634789
 51
110.2561580023652
  0
LINE
  5
8F2C
  8
0
 10
120.7761326549835
 20
115.8222165528676
 30
0.0
 11
121.27613265499851
 21
116.110891687471
 31
0.0
  0
LINE
  5
8F2D
  8
0
 10
120.7761326549835
 20
106.3995668219976
 30
0.0
 11
121.27613265499851
 21
106.1108916873942
 31
0.0
  0
ARC
  5
8F2E
  8
0
 10
126.77613265499851
 20
123.72969383933091
 30
0.0
 40
17.330127017333279
 50
249.7438419976348
 51
290.25615800236528
  0
LINE
  5
8F2F
  8
0
 10
120.7761326549835
 20
115.8222165528676
 30
0.0
 11
120.77613265499851
 21
106.3995668219889
 31
0.0
  0
LINE
  5
8F30
  8
0
 10
132.77613265499849
 20
107.4713635918268
 30
0.0
 11
132.77613265499849
 21
114.7504197830384
 31
0.0
  0
LINE
  5
8F31
  8
0
 10
144.7761326550135
 20
115.8222165528676
 30
0.0
 11
144.77613265499841
 21
106.3995668219889
 31
0.0
  0
ARC
  5
8F32
  8
0
 10
138.77613265499849
 20
123.72969383933091
 30
0.0
 40
17.330127017333279
 50
249.7438419976348
 51
290.25615800236528
  0
LINE
  5
8F33
  8
0
 10
144.7761326550135
 20
106.3995668219976
 30
0.0
 11
144.27613265499841
 21
106.1108916873942
 31
0.0
  0
LINE
  5
8F34
  8
0
 10
144.7761326550135
 20
115.8222165528676
 30
0.0
 11
144.27613265499841
 21
116.110891687471
 31
0.0
  0
ARC
  5
8F35
  8
0
 10
138.77613265499849
 20
98.492089535534362
 30
0.0
 40
17.330127017333279
 50
69.743841997634789
 51
110.2561580023652
  0
LINE
  5
8F36
  8
0
 10
125.27613265496529
 20
314.11089168745173
 30
0.0
 11
140.27613265496529
 21
314.1108916874515
 31
0.0
  0
LINE
  5
8F37
  8
0
 10
142.77613265496529
 20
116.1108916874517
 30
0.0
 11
142.77613265496529
 21
142.11089168747409
 31
0.0
  0
LINE
  5
8F38
  8
3
 10
141.4231326549652
 20
120.1108916874517
 30
0.0
 11
141.4231326549652
 21
142.11089168747409
 31
0.0
  0
LINE
  5
8F39
  8
3
 10
124.1291326549653
 20
120.1108916874517
 30
0.0
 11
124.1291326549653
 21
142.11089168747401
 31
0.0
  0
LINE
  5
8F3A
  8
0
 10
122.7761326549652
 20
116.1108916874517
 30
0.0
 11
122.7761326549652
 21
142.11089168747409
 31
0.0
  0
LINE
  5
8F3B
  8
0
 10
122.7761326549652
 20
311.61089168745173
 30
0.0
 11
125.27613265496529
 21
314.11089168745173
 31
0.0
  0
LINE
  5
8F3C
  8
0
 10
140.27613265496529
 20
314.1108916874515
 30
0.0
 11
142.77613265496529
 21
311.6108916874515
 31
0.0
  0
LINE
  5
8F3D
  8
0
 10
122.7761326549652
 20
311.61089168745173
 30
0.0
 11
142.77613265496529
 21
311.6108916874515
 31
0.0
  0
LINE
  5
8F3E
  8
0
 10
142.77613265496529
 20
120.1108916874517
 30
0.0
 11
122.7761326549652
 21
120.1108916874517
 31
0.0
  0
LINE
  5
8F3F
  8
3
 10
124.1291326549653
 20
120.1108916874517
 30
0.0
 11
122.7761326549652
 21
117.76742694481079
 31
0.0
  0
LINE
  5
8F40
  8
3
 10
141.4231326549652
 20
120.1108916874517
 30
0.0
 11
142.77613265496529
 21
117.76742694481079
 31
0.0
  0
ARC
  5
8F41
  8
0
 10
132.77613265496211
 20
90.781157868649288
 30
0.0
 40
12.25
 50
31.112020819731239
 51
46.120122896763412
  0
LINE
  5
8F42
  8
1
 10
132.77613265496529
 20
459.2083098233457
 30
0.0
 11
132.77613265496529
 21
339.20830982334581
 31
0.0
  0
LINE
  5
8F43
  8
1
 10
192.77613265496529
 20
399.2083098233457
 30
0.0
 11
72.776132654965295
 21
399.2083098233457
 31
0.0
  0
LINE
  5
8F44
  8
1
 10
132.77613265496529
 20
324.11089168745161
 30
0.0
 11
132.77613265496481
 21
63.110891687451613
 31
0.0
  0
LINE
  5
8F45
  8
1
 10
308.19930355101093
 20
324.11089168745161
 30
0.0
 11
308.19930355101093
 21
63.110891687451613
 31
0.0
  0
LINE
  5
8F46
  8
0
 10
299.69930355101093
 20
106.1108916874135
 30
0.0
 11
299.69930355101093
 21
99.61089168742788
 31
0.0
  0
LINE
  5
8F47
  8
0
 10
316.69930355101093
 20
106.1108916874135
 30
0.0
 11
316.69930355101093
 21
99.610891687399445
 31
0.0
  0
LINE
  5
8F48
  8
DEFPOINTS
 10
290.69930355101081
 20
96.110891687451584
 30
0.0
 11
325.69930355101093
 21
96.110891687451584
 31
0.0
  0
LINE
  5
8F49
  8
DEFPOINTS
 10
332.19930355101093
 20
93.110891687451627
 30
0.0
 11
284.19930355101093
 21
93.110891687451627
 31
0.0
  0
LINE
  5
8F4A
  8
DEFPOINTS
 10
278.19930355101093
 20
90.110891687451598
 30
0.0
 11
338.19930355101093
 21
90.110891687451598
 31
0.0
  0
LINE
  5
8F4B
  8
DEFPOINTS
 10
271.19930355101093
 20
87.110891687451627
 30
0.0
 11
345.19930355101098
 21
87.110891687451627
 31
0.0
  0
LINE
  5
8F4C
  8
DEFPOINTS
 10
263.19930355101093
 20
84.110891687451627
 30
0.0
 11
353.19930355101098
 21
84.110891687451627
 31
0.0
  0
LINE
  5
8F4D
  8
0
 10
258.19930355101093
 20
73.110891687451627
 30
0.0
 11
258.19930355101093
 21
82.29108778473298
 31
0.0
  0
LINE
  5
8F4F
  8
DEFPOINTS
 10
290.69930355101081
 20
96.110891687451584
 30
0.0
 11
290.69930355101081
 21
96.110891687451584
 31
0.0
  0
LINE
  5
8F50
  8
DEFPOINTS
 10
284.19930355101093
 20
93.372317032933438
 30
0.0
 11
284.19930355101093
 21
93.110891687451627
 31
0.0
  0
LINE
  5
8F51
  8
DEFPOINTS
 10
278.19930355101093
 20
90.39013246739546
 30
0.0
 11
278.19930355101093
 21
90.110891687451598
 31
0.0
  0
LINE
  5
8F52
  8
DEFPOINTS
 10
271.19930355101093
 20
87.356590274697268
 30
0.0
 11
271.19930355101093
 21
87.110891687451627
 31
0.0
  0
LINE
  5
8F53
  8
DEFPOINTS
 10
263.19930355101093
 20
84.330115281047142
 30
0.0
 11
263.19930355101093
 21
84.110891687451627
 31
0.0
  0
LINE
  5
8F54
  8
DEFPOINTS
 10
290.69930355101081
 20
96.110891687451584
 30
0.0
 11
284.90521770217362
 21
94.328096041655371
 31
0.0
  0
LINE
  5
8F55
  8
DEFPOINTS
 10
284.19930355101093
 20
93.110891687451627
 30
0.0
 11
278.88307578499422
 21
91.338815765445929
 31
0.0
  0
LINE
  5
8F56
  8
DEFPOINTS
 10
278.19930355101093
 20
90.110891687451598
 30
0.0
 11
271.92458242311341
 21
88.318114222337954
 31
0.0
  0
LINE
  5
8F57
  8
DEFPOINTS
 10
271.19930355101093
 20
87.110891687451627
 30
0.0
 11
263.95676792597442
 21
85.300257781192514
 31
0.0
  0
ARC
  5
8F58
  8
DEFPOINTS
 10
264.19930355101093
 20
84.330115281047142
 30
0.0
 40
1.0
 50
104.0362434679266
 51
180.0
  0
ARC
  5
8F59
  8
DEFPOINTS
 10
272.19930355101093
 20
87.356590274697268
 30
0.0
 40
1.0
 50
105.9453959009228
 51
180.0
  0
ARC
  5
8F5A
  8
DEFPOINTS
 10
279.19930355101093
 20
90.39013246739546
 30
0.0
 40
1.0
 50
108.43494882292219
 51
180.0
  0
ARC
  5
8F5B
  8
DEFPOINTS
 10
285.19930355101093
 20
93.372317032933438
 30
0.0
 40
1.0
 50
107.10272896905251
 51
180.0
  0
ARC
  5
8F5C
  8
DEFPOINTS
 10
291.69930355101093
 20
96.110891687451584
 30
0.0
 40
1.0
 50
90.000000000000057
 51
180.0
  0
LINE
  5
8F5D
  8
DEFPOINTS
 10
263.19930355101093
 20
84.110891687451627
 30
0.0
 11
259.00318741587262
 21
83.271668460423925
 31
0.0
  0
ARC
  5
8F5E
  8
DEFPOINTS
 10
259.19930355101093
 20
82.29108778473298
 30
0.0
 40
1.0
 50
101.3099324740201
 51
180.00000000000031
  0
ARC
  5
8F5F
  8
DEFPOINTS
 10
357.19930355101098
 20
82.29108778473298
 30
0.0
 40
1.0
 50
359.99999999999972
 51
78.690067525979913
  0
LINE
  5
8F60
  8
DEFPOINTS
 10
353.19930355101098
 20
84.110891687451627
 30
0.0
 11
357.39541968614918
 21
83.271668460423925
 31
0.0
  0
ARC
  5
8F61
  8
DEFPOINTS
 10
324.69930355101093
 20
96.110891687451584
 30
0.0
 40
1.0
 50
0.0
 51
89.999999999999986
  0
ARC
  5
8F62
  8
DEFPOINTS
 10
331.19930355101093
 20
93.372317032933438
 30
0.0
 40
1.0
 50
0.0
 51
72.897271030947451
  0
ARC
  5
8F63
  8
DEFPOINTS
 10
337.19930355101093
 20
90.39013246739546
 30
0.0
 40
1.0
 50
0.0
 51
71.565051177077734
  0
ARC
  5
8F64
  8
DEFPOINTS
 10
344.19930355101098
 20
87.356590274697268
 30
0.0
 40
1.0
 50
0.0
 51
74.054604099077153
  0
ARC
  5
8F65
  8
DEFPOINTS
 10
352.19930355101098
 20
84.330115281047142
 30
0.0
 40
1.0
 50
0.0
 51
75.963756532073333
  0
LINE
  5
8F66
  8
DEFPOINTS
 10
345.19930355101098
 20
87.110891687451627
 30
0.0
 11
352.44183917604693
 21
85.300257781192514
 31
0.0
  0
LINE
  5
8F67
  8
DEFPOINTS
 10
338.19930355101093
 20
90.110891687451598
 30
0.0
 11
344.47402467890822
 21
88.318114222337954
 31
0.0
  0
LINE
  5
8F68
  8
DEFPOINTS
 10
332.19930355101093
 20
93.110891687451627
 30
0.0
 11
337.51553131702758
 21
91.338815765445929
 31
0.0
  0
LINE
  5
8F69
  8
DEFPOINTS
 10
325.69930355101093
 20
96.110891687451584
 30
0.0
 11
331.49338939984818
 21
94.328096041655371
 31
0.0
  0
LINE
  5
8F6A
  8
DEFPOINTS
 10
353.19930355101098
 20
84.330115281047142
 30
0.0
 11
353.19930355101098
 21
84.110891687451627
 31
0.0
  0
LINE
  5
8F6B
  8
DEFPOINTS
 10
345.19930355101098
 20
87.356590274697268
 30
0.0
 11
345.19930355101098
 21
87.110891687451627
 31
0.0
  0
LINE
  5
8F6C
  8
DEFPOINTS
 10
338.19930355101093
 20
90.39013246739546
 30
0.0
 11
338.19930355101093
 21
90.110891687451598
 31
0.0
  0
LINE
  5
8F6D
  8
DEFPOINTS
 10
332.19930355101093
 20
93.372317032933438
 30
0.0
 11
332.19930355101093
 21
93.110891687451627
 31
0.0
  0
LINE
  5
8F6E
  8
DEFPOINTS
 10
325.69930355101093
 20
96.110891687451584
 30
0.0
 11
325.69930355101093
 21
96.110891687451584
 31
0.0
  0
LINE
  5
8F70
  8
0
 10
324.69930355101093
 20
97.110891687451613
 30
0.0
 11
291.69930355101093
 21
97.110891687451613
 31
0.0
  0
LINE
  5
8F72
  8
0
 10
358.19930355101098
 20
73.110891687451627
 30
0.0
 11
358.19930355101098
 21
82.29108778473298
 31
0.0
  0
LINE
  5
8F73
  8
0
 10
358.19930355101098
 20
73.110891687451627
 30
0.0
 11
258.19930355101093
 21
73.110891687451627
 31
0.0
  0
LINE
  5
8F74
  8
0
 10
319.69930355095721
 20
106.1108916875328
 30
0.0
 11
296.69930355117282
 21
106.1108916875328
 31
0.0
  0
LINE
  5
8F75
  8
0
 10
296.69930355106447
 20
116.1108916875328
 30
0.0
 11
319.69930355095721
 21
116.1108916875328
 31
0.0
  0
ARC
  5
8F76
  8
0
 10
318.59160839647802
 20
109.6882419572471
 30
0.0
 40
6.1339745957208196
 50
64.384247469845135
 51
124.3842474712072
  0
LINE
  5
8F77
  8
0
 10
322.05571001163798
 20
114.7504197831386
 30
0.0
 11
319.69930355095721
 21
116.1108916875328
 31
0.0
  0
LINE
  5
8F78
  8
0
 10
322.05571001163798
 20
107.471363591927
 30
0.0
 11
319.69930355095721
 21
106.1108916875328
 31
0.0
  0
ARC
  5
8F79
  8
0
 10
318.59160839647802
 20
112.5335414178184
 30
0.0
 40
6.1339745957208196
 50
235.61575252879319
 51
295.61575253015491
  0
LINE
  5
8F7A
  8
0
 10
322.0557100116161
 20
114.7504197831386
 30
0.0
 11
322.0557100116161
 21
107.4713635919142
 31
0.0
  0
LINE
  5
8F7B
  8
0
 10
315.12750678133989
 20
114.7504197831386
 30
0.0
 11
315.12750678133989
 21
107.471363591927
 31
0.0
  0
LINE
  5
8F7C
  8
0
 10
301.27110032078917
 20
114.7504197831386
 30
0.0
 11
301.27110032078917
 21
107.471363591927
 31
0.0
  0
LINE
  5
8F7D
  8
0
 10
294.34289709051382
 20
114.7504197831386
 30
0.0
 11
294.34289709051382
 21
107.4713635919142
 31
0.0
  0
ARC
  5
8F7E
  8
0
 10
308.19930355106447
 20
129.32777005023721
 30
0.0
 40
22.928203228139491
 50
252.41204622431439
 51
287.58795377568561
  0
ARC
  5
8F7F
  8
0
 10
297.80699870565093
 20
112.5335414178184
 30
0.0
 40
6.1339745957208196
 50
244.38424746984521
 51
304.38424747120678
  0
LINE
  5
8F80
  8
0
 10
294.34289709049199
 20
107.471363591927
 30
0.0
 11
296.69930355117282
 21
106.1108916875328
 31
0.0
  0
LINE
  5
8F81
  8
0
 10
294.34289709049199
 20
114.7504197831386
 30
0.0
 11
296.69930355117282
 21
116.1108916875328
 31
0.0
  0
ARC
  5
8F82
  8
0
 10
297.80699870565093
 20
109.6882419572471
 30
0.0
 40
6.1339745957208196
 50
55.615752528792761
 51
115.61575253015479
  0
ARC
  5
8F83
  8
0
 10
308.19930355106447
 20
92.894013324828421
 30
0.0
 40
22.928203228139491
 50
72.412046224314381
 51
107.58795377568561
  0
LINE
  5
8F84
  8
3
 10
316.84630355101081
 20
120.1108916874516
 30
0.0
 11
318.19930355101093
 21
117.76742694481069
 31
0.0
  0
LINE
  5
8F85
  8
3
 10
299.55230355101088
 20
120.1108916874516
 30
0.0
 11
298.19930355101093
 21
117.76742694481069
 31
0.0
  0
LINE
  5
8F86
  8
0
 10
318.19930355101093
 20
120.1108916874516
 30
0.0
 11
298.19930355101093
 21
120.1108916874516
 31
0.0
  0
LINE
  5
8F87
  8
0
 10
298.19930355101093
 20
311.61089168745161
 30
0.0
 11
318.19930355101093
 21
311.61089168745139
 31
0.0
  0
LINE
  5
8F88
  8
0
 10
315.69930355101093
 20
314.11089168745139
 30
0.0
 11
318.19930355101093
 21
311.61089168745139
 31
0.0
  0
LINE
  5
8F89
  8
0
 10
298.19930355101093
 20
311.61089168745161
 30
0.0
 11
300.69930355101093
 21
314.11089168745161
 31
0.0
  0
LINE
  5
8F8A
  8
0
 10
298.19930355101093
 20
116.1108916874516
 30
0.0
 11
298.19930355101093
 21
142.11089168747409
 31
0.0
  0
LINE
  5
8F8B
  8
3
 10
299.55230355101088
 20
120.1108916874516
 30
0.0
 11
299.55230355101088
 21
142.1108916874739
 31
0.0
  0
LINE
  5
8F8C
  8
3
 10
316.84630355101081
 20
120.1108916874516
 30
0.0
 11
316.84630355101081
 21
142.11089168747409
 31
0.0
  0
LINE
  5
8F8D
  8
0
 10
318.19930355101093
 20
116.1108916874516
 30
0.0
 11
318.19930355101093
 21
142.11089168747409
 31
0.0
  0
LINE
  5
8F8E
  8
0
 10
300.69930355101093
 20
314.11089168745161
 30
0.0
 11
315.69930355101093
 21
314.11089168745139
 31
0.0
  0
LINE
  5
8F8F
  8
0
 10
299.69930355101093
 20
106.1108916874134
 30
0.0
 11
299.69930355101093
 21
99.610891687427724
 31
0.0
  0
LINE
  5
8F90
  8
0
 10
316.69930355101093
 20
106.1108916874134
 30
0.0
 11
316.69930355101093
 21
99.610891687399317
 31
0.0
  0
LINE
  5
8F91
  8
0
 10
316.69930355101093
 20
99.610891687399317
 30
0.0
 11
299.69930355101093
 21
99.610891687427525
 31
0.0
  0
ARC
  5
8F92
  8
0
 10
308.19930355100809
 20
90.78115786864916
 30
0.0
 40
12.25
 50
133.87987710304881
 51
148.8879791802681
  0
LINE
  5
8F93
  8
3
 10
316.84630355101081
 20
158.11089168747441
 30
0.0
 11
316.84630355101081
 21
312.96389168745139
 31
0.0
  0
LINE
  5
8F94
  8
0
 10
318.19930355101093
 20
158.11089168747421
 30
0.0
 11
318.19930355101093
 21
311.61089168745139
 31
0.0
  0
LINE
  5
8F95
  8
0
 10
298.19930355101093
 20
158.11089168747441
 30
0.0
 11
298.19930355101093
 21
311.61089168745161
 31
0.0
  0
LINE
  5
8F96
  8
3
 10
299.55230355101088
 20
158.11089168747441
 30
0.0
 11
299.55230355101088
 21
312.96389168745168
 31
0.0
  0
ARC
  5
8F97
  8
0
 10
315.69930355101133
 20
136.15955777921059
 30
0.0
 40
21.662658773668529
 50
69.743841999600619
 51
110.2561580003994
  0
LINE
  5
8F98
  8
0
 10
322.6993035510099
 20
158.11089168747441
 30
0.0
 11
323.19930355101093
 21
157.82221655287901
 31
0.0
  0
LINE
  5
8F99
  8
0
 10
322.6993035510099
 20
142.1108916874748
 30
0.0
 11
323.19930355101093
 21
142.3995668220702
 31
0.0
  0
ARC
  5
8F9A
  8
0
 10
315.69930355101133
 20
164.06222559573851
 30
0.0
 40
21.662658773668529
 50
249.74384199960059
 51
290.25615800039941
  0
LINE
  5
8F9B
  8
0
 10
323.19930355101133
 20
157.82221655287901
 30
0.0
 11
323.19930355101093
 21
142.3995668220702
 31
0.0
  0
LINE
  5
8F9C
  8
0
 10
293.19930355101133
 20
157.82221655287901
 30
0.0
 11
293.19930355101172
 21
142.3995668220702
 31
0.0
  0
ARC
  5
8F9D
  8
0
 10
300.69930355101133
 20
164.06222559573851
 30
0.0
 40
21.662658773668529
 50
249.74384199960059
 51
290.25615800039941
  0
LINE
  5
8F9E
  8
0
 10
293.69930355101269
 20
142.1108916874748
 30
0.0
 11
293.19930355101172
 21
142.3995668220702
 31
0.0
  0
LINE
  5
8F9F
  8
0
 10
293.69930355101269
 20
158.11089168747441
 30
0.0
 11
293.19930355101172
 21
157.82221655287901
 31
0.0
  0
ARC
  5
8FA0
  8
0
 10
300.69930355101133
 20
136.15955777921059
 30
0.0
 40
21.662658773668529
 50
69.743841999600619
 51
110.2561580003994
  0
LINE
  5
8FA1
  8
0
 10
293.69930355101269
 20
158.11089168747441
 30
0.0
 11
322.6993035510099
 21
158.11089168747441
 31
0.0
  0
LINE
  5
8FA2
  8
0
 10
322.69930355101133
 20
142.1108916874748
 30
0.0
 11
293.69930355101269
 21
142.1108916874748
 31
0.0
  0
LINE
  5
8FA3
  8
0
 10
308.19930355101133
 20
156.48247059072429
 30
0.0
 11
308.19930355101133
 21
143.73931278421989
 31
0.0
  0
ARC
  5
8FA4
  8
0
 10
308.19930355100809
 20
90.78115786864916
 30
0.0
 40
12.25
 50
31.112020819731811
 51
46.120122896761671
  0
TEXT
  5
9371
  8
0
 62
     3
 10
0.0
 20
0.0
 30
0.0
 40
10.0
  1
LVA100L20D-SUS
  7
STANDARD1
  0
ENDSEC
  0
EOF
