  0
SECTION
  2
HEADER
  9
$ACADVER
  1
AC1009
  9
$INSBASE
 10
0.0
 20
0.0
 30
0.0
  9
$EXTMIN
 10
0.0
 20
-2.960436562073669
 30
0.0
  9
$EXTMAX
 10
310.33433332758159
 20
419.78596732059441
 30
0.0
  9
$LIMMIN
 10
0.0
 20
0.0
  9
$LIMMAX
 10
375.0
 20
270.0
  9
$ORTHOMODE
 70
     1
  9
$REGENMODE
 70
     1
  9
$FILLMODE
 70
     1
  9
$QTEXTMODE
 70
     0
  9
$MIRRTEXT
 70
     0
  9
$DRAGMODE
 70
     2
  9
$LTSCALE
 40
6.0
  9
$OSMODE
 70
  3071
  9
$ATTMODE
 70
     1
  9
$TEXTSIZE
 40
0.2
  9
$TRACEWID
 40
0.05
  9
$TEXTSTYLE
  7
STANDARD
  9
$CLAYER
  8
0
  9
$CELTYPE
  6
BYLAYER
  9
$CECOLOR
 62
   256
  9
$DIMSCALE
 40
1.0
  9
$DIMASZ
 40
3.0
  9
$DIMEXO
 40
1.0
  9
$DIMDLI
 40
6.0
  9
$DIMRND
 40
0.0
  9
$DIMDLE
 40
0.0
  9
$DIMEXE
 40
1.0
  9
$DIMTP
 40
495.0
  9
$DIMTM
 40
0.0
  9
$DIMTXT
 40
3.0
  9
$DIMCEN
 40
0.0
  9
$DIMTSZ
 40
0.0
  9
$DIMTOL
 70
     0
  9
$DIMLIM
 70
     0
  9
$DIMTIH
 70
     0
  9
$DIMTOH
 70
     0
  9
$DIMSE1
 70
     0
  9
$DIMSE2
 70
     0
  9
$DIMTAD
 70
     1
  9
$DIMZIN
 70
     0
  9
$DIMBLK
  1

  9
$DIMASO
 70
     0
  9
$DIMSHO
 70
     0
  9
$DIMPOST
  1

  9
$DIMAPOST
  1

  9
$DIMALT
 70
     0
  9
$DIMALTD
 70
     2
  9
$DIMALTF
 40
25.399999999999999
  9
$DIMLFAC
 40
1.0
  9
$DIMTOFL
 70
     1
  9
$DIMTVP
 40
0.0
  9
$DIMTIX
 70
     1
  9
$DIMSOXD
 70
     0
  9
$DIMSAH
 70
     0
  9
$DIMBLK1
  1

  9
$DIMBLK2
  1

  9
$DIMSTYLE
  2
STANDARD
  9
$DIMCLRD
 70
     0
  9
$DIMCLRE
 70
     0
  9
$DIMCLRT
 70
     4
  9
$DIMTFAC
 40
1.0
  9
$DIMGAP
 40
1.0
  9
$LUNITS
 70
     2
  9
$LUPREC
 70
     4
  9
$SKETCHINC
 40
0.1
  9
$FILLETRAD
 40
2.0
  9
$AUNITS
 70
     0
  9
$AUPREC
 70
     0
  9
$MENU
  1
C:\R13\WIN\SUPPORT\ACAD-I
  9
$ELEVATION
 40
0.0
  9
$PELEVATION
 40
0.0
  9
$THICKNESS
 40
0.0
  9
$LIMCHECK
 70
     0
  9
$BLIPMODE
 70
     0
  9
$CHAMFERA
 40
0.0
  9
$CHAMFERB
 40
0.0
  9
$SKPOLY
 70
     0
  9
$TDCREATE
 40
2451962.6107287621
  9
$TDUPDATE
 40
2456597.6124510071
  9
$TDINDWG
 40
0.0419265046
  9
$TDUSRTIMER
 40
2456556.1885747798
  9
$USRTIMER
 70
     1
  9
$ANGBASE
 50
0.0
  9
$ANGDIR
 70
     0
  9
$PDMODE
 70
     0
  9
$PDSIZE
 40
0.0
  9
$PLINEWID
 40
0.0
  9
$COORDS
 70
     1
  9
$SPLFRAME
 70
     0
  9
$SPLINETYPE
 70
     6
  9
$SPLINESEGS
 70
     8
  9
$ATTDIA
 70
     0
  9
$ATTREQ
 70
     1
  9
$HANDLING
 70
     1
  9
$HANDSEED
  5
9760
  9
$SURFTAB1
 70
     6
  9
$SURFTAB2
 70
     6
  9
$SURFTYPE
 70
     6
  9
$SURFU
 70
     6
  9
$SURFV
 70
     6
  9
$UCSNAME
  2

  9
$UCSORG
 10
0.0
 20
0.0
 30
0.0
  9
$UCSXDIR
 10
1.0
 20
0.0
 30
0.0
  9
$UCSYDIR
 10
0.0
 20
1.0
 30
0.0
  9
$PUCSNAME
  2

  9
$PUCSORG
 10
0.0
 20
0.0
 30
0.0
  9
$PUCSXDIR
 10
1.0
 20
0.0
 30
0.0
  9
$PUCSYDIR
 10
0.0
 20
1.0
 30
0.0
  9
$USERI1
 70
     4
  9
$USERI2
 70
     1
  9
$USERI3
 70
     0
  9
$USERI4
 70
     0
  9
$USERI5
 70
     0
  9
$USERR1
 40
1.0
  9
$USERR2
 40
3.0
  9
$USERR3
 40
3.0
  9
$USERR4
 40
3.0
  9
$USERR5
 40
10.0
  9
$WORLDVIEW
 70
     1
  9
$SHADEDGE
 70
     3
  9
$SHADEDIF
 70
    70
  9
$TILEMODE
 70
     1
  9
$MAXACTVP
 70
    16
  9
$PLIMCHECK
 70
     0
  9
$PEXTMIN
 10
1.0000000000000000E+020
 20
1.0000000000000000E+020
 30
1.0000000000000000E+020
  9
$PEXTMAX
 10
-1.0000000000000000E+020
 20
-1.0000000000000000E+020
 30
-1.0000000000000000E+020
  9
$PLIMMIN
 10
0.0
 20
0.0
  9
$PLIMMAX
 10
12.0
 20
9.0
  9
$UNITMODE
 70
     0
  9
$VISRETAIN
 70
     0
  9
$PLINEGEN
 70
     0
  9
$PSLTSCALE
 70
     0
  0
ENDSEC
  0
SECTION
  2
TABLES
  0
TABLE
  2
VPORT
 70
     1
  0
VPORT
  2
*ACTIVE
 70
     0
 10
0.0
 20
0.0
 11
1.0
 21
1.0
 12
187.4942783906524
 22
209.3189815515405
 13
0.0
 23
0.0
 14
10.0
 24
10.0
 15
10.0
 25
10.0
 16
0.0
 26
0.0
 36
1.0
 17
0.0
 27
0.0
 37
0.0
 40
429.48028505581868
 41
2.304913294797688
 42
50.0
 43
0.0
 44
0.0
 50
0.0
 51
0.0
 71
    16
 72
   100
 73
     1
 74
     0
 75
     0
 76
     0
 77
     0
 78
     0
  0
ENDTAB
  0
TABLE
  2
LTYPE
 70
     3
  0
LTYPE
  2
CONTINUOUS
 70
     0
  3
Solid Line
 72
    65
 73
     0
 40
0.0
  0
LTYPE
  2
PHANTOM2
 70
     0
  3
___ _ _ ___ _ _ ___ _ _ ___ _ _
 72
    65
 73
     6
 40
1.25
 49
0.625
 49
-0.125
 49
0.125
 49
-0.125
 49
0.125
 49
-0.125
  0
LTYPE
  2
CENTER
 70
     0
  3
____ _ ____ _ ____ _ ____ _ ____ _ ____ _ ____
 72
    65
 73
     4
 40
2.0
 49
1.25
 49
-0.25
 49
0.25
 49
-0.25
  0
ENDTAB
  0
TABLE
  2
LAYER
 70
     4
  0
LAYER
  2
0
 70
     0
 62
     7
  6
CONTINUOUS
  0
LAYER
  2
1
 70
     0
 62
     1
  6
CENTER
  0
LAYER
  2
3
 70
     0
 62
     3
  6
CONTINUOUS
  0
LAYER
  2
DEFPOINTS
 70
     0
 62
     7
  6
CONTINUOUS
  0
ENDTAB
  0
TABLE
  2
STYLE
 70
     3
  0
STYLE
  2
STANDARD
 70
     0
 40
0.0
 41
1.0
 50
0.0
 71
     0
 42
0.2
  3
SIMPLEX
  4
BIGFONT
  0
STYLE
  2
ANNOTATIVE
 70
     0
 40
0.0
 41
1.0
 50
0.0
 71
     0
 42
0.2
  3
txt
  4

  0
STYLE
  2
STANDARD1
 70
     0
 40
0.0
 41
1.0
 50
0.0
 71
     0
 42
3.0
  3
txt
  4

  0
ENDTAB
  0
TABLE
  2
VIEW
 70
     0
  0
ENDTAB
  0
TABLE
  2
UCS
 70
     0
  0
ENDTAB
  0
TABLE
  2
APPID
 70
    29
  0
APPID
  2
ACAD
 70
     0
  0
APPID
  2
ACADANNOTATIVE
 70
     0
  0
APPID
  2
GENIUS_GENOREF_13
 70
     0
  0
APPID
  2
GENIUS_GENOENT_13
 70
     0
  0
APPID
  2
GENIUS_GENBH_13
 70
     0
  0
APPID
  2
GENIUS_GENOBJ_13
 70
     0
  0
APPID
  2
GENIUS_GENODEF_13
 70
     0
  0
APPID
  2
GENIUS_GENOLIS_13
 70
     0
  0
APPID
  2
GENIUS_GENOBJ-NBEHI-BHF_13
 70
     0
  0
APPID
  2
GENIUS_GENOBJ-NBEHI-BHB_13
 70
     0
  0
APPID
  2
GENIUS_GENOBJ-F-PART_13
 70
     0
  0
APPID
  2
GENIUS_GEFSTDP_13
 70
     0
  0
APPID
  2
GENIUS_GENOBJ-N-RSSYM_13
 70
     0
  0
APPID
  2
GENIUS_GENSYMENT_13
 70
     0
  0
APPID
  2
GENIUS_GENOBJ-N-TIT_13
 70
     0
  0
APPID
  2
GENIUS_GENTITLE_13
 70
     0
  0
APPID
  2
GENIUS_GENZVEED_13
 70
     0
  0
APPID
  2
GENIUS_GENOBJ-N-LEADER_13
 70
     0
  0
APPID
  2
GENIUS_GENOBJ-N-FIL_13
 70
     0
  0
APPID
  2
GENIUS_GENOBJ-N-SEC_13
 70
     0
  0
APPID
  2
GENIUS_GENOBJ-N-CRS_13
 70
     0
  0
APPID
  2
GENIUS_GENOBJ-N-ZOO_13
 70
     0
  0
APPID
  2
GENIUS_GENZOO_13
 70
     0
  0
APPID
  2
GENIUS_GENOBJ-F-TOL_13
 70
     0
  0
APPID
  2
GENIUS_GENFIL_13
 70
     0
  0
APPID
  2
GENIUS_GENOBJ-N-CHA_13
 70
     0
  0
APPID
  2
ACAD_EXEMPT_FROM_CAD_STANDARDS
 70
     0
  0
APPID
  2
ACAD_MLEADERVER
 70
     0
  0
APPID
  2
ACAD_NAV_VCDISPLAY
 70
     0
  0
ENDTAB
  0
TABLE
  2
DIMSTYLE
 70
     2
  0
DIMSTYLE
  2
STANDARD
 70
     0
  3

  4

  5

  6

  7

 40
1.0
 41
0.18
 42
0.0625
 43
0.38
 44
0.18
 45
0.0
 46
0.0
 47
0.0
 48
0.0
140
0.18
141
0.09
142
0.0
143
25.399999999999999
144
1.0
145
0.0
146
1.0
147
0.09
 71
     0
 72
     0
 73
     1
 74
     1
 75
     0
 76
     0
 77
     0
 78
     0
170
     0
171
     2
172
     0
173
     0
174
     0
175
     0
176
     0
177
     0
178
     0
  0
DIMSTYLE
  2
ANNOTATIVE
 70
     0
  3

  4

  5

  6

  7

 40
1.0
 41
0.18
 42
0.0625
 43
0.38
 44
0.18
 45
0.0
 46
0.0
 47
0.0
 48
0.0
140
0.18
141
0.09
142
0.0
143
25.399999999999999
144
1.0
145
0.0
146
1.0
147
0.09
 71
     0
 72
     0
 73
     1
 74
     1
 75
     0
 76
     0
 77
     0
 78
     0
170
     0
171
     2
172
     0
173
     0
174
     0
175
     0
176
     0
177
     0
178
     0
  0
ENDTAB
  0
ENDSEC
  0
SECTION
  2
BLOCKS
  0
BLOCK
  8
0
  2
$MODEL_SPACE
 70
     0
 10
0.0
 20
0.0
 30
0.0
  3
$MODEL_SPACE
  1

  0
ENDBLK
  5
9682
  8
0
  0
BLOCK
 67
     1
  8
0
  2
$PAPER_SPACE
 70
     0
 10
0.0
 20
0.0
 30
0.0
  3
$PAPER_SPACE
  1

  0
ENDBLK
  5
967E
 67
     1
  8
0
  0
ENDSEC
  0
SECTION
  2
ENTITIES
  0
LINE
  5
9252
  8
0
 10
310.33433332758159
 20
54.40190660681742
 30
0.0
 11
210.33433332758159
 21
54.40190660681742
 31
0.0
  0
LINE
  5
9253
  8
0
 10
310.33433332758159
 20
54.40190660681742
 30
0.0
 11
310.33433332758159
 21
63.582102704098808
 31
0.0
  0
LINE
  5
9255
  8
0
 10
276.83433332758159
 20
78.401906606817406
 30
0.0
 11
243.83433332758159
 21
78.401906606817406
 31
0.0
  0
LINE
  5
9257
  8
DEFPOINTS
 10
277.83433332758159
 20
77.40190660681742
 30
0.0
 11
277.83433332758159
 21
77.40190660681742
 31
0.0
  0
LINE
  5
9258
  8
DEFPOINTS
 10
284.3343333275817
 20
74.663331952299345
 30
0.0
 11
284.3343333275817
 21
74.40190660681742
 31
0.0
  0
LINE
  5
9259
  8
DEFPOINTS
 10
290.3343333275817
 20
71.681147386761268
 30
0.0
 11
290.3343333275817
 21
71.40190660681742
 31
0.0
  0
LINE
  5
925A
  8
DEFPOINTS
 10
297.3343333275817
 20
68.64760519406309
 30
0.0
 11
297.3343333275817
 21
68.401906606817406
 31
0.0
  0
LINE
  5
925B
  8
DEFPOINTS
 10
305.3343333275817
 20
65.621130200413063
 30
0.0
 11
305.3343333275817
 21
65.40190660681742
 31
0.0
  0
LINE
  5
925C
  8
DEFPOINTS
 10
277.83433332758159
 20
77.40190660681742
 30
0.0
 11
283.6284191764189
 21
75.619110961021306
 31
0.0
  0
LINE
  5
925D
  8
DEFPOINTS
 10
284.3343333275817
 20
74.40190660681742
 30
0.0
 11
289.6505610935983
 21
72.629830684811623
 31
0.0
  0
LINE
  5
925E
  8
DEFPOINTS
 10
290.3343333275817
 20
71.40190660681742
 30
0.0
 11
296.609054455479
 21
69.609129141703761
 31
0.0
  0
LINE
  5
925F
  8
DEFPOINTS
 10
297.3343333275817
 20
68.401906606817406
 30
0.0
 11
304.57686895261782
 21
66.59127270055842
 31
0.0
  0
ARC
  5
9260
  8
DEFPOINTS
 10
304.33433332758159
 20
65.621130200413063
 30
0.0
 40
1.0
 50
0.0
 51
75.963756532073333
  0
ARC
  5
9261
  8
DEFPOINTS
 10
296.33433332758159
 20
68.64760519406309
 30
0.0
 40
1.0
 50
0.0
 51
74.054604099077153
  0
ARC
  5
9262
  8
DEFPOINTS
 10
289.3343333275817
 20
71.681147386761268
 30
0.0
 40
1.0
 50
0.0
 51
71.565051177077734
  0
ARC
  5
9263
  8
DEFPOINTS
 10
283.33433332758159
 20
74.663331952299345
 30
0.0
 40
1.0
 50
0.0
 51
72.897271030947451
  0
ARC
  5
9264
  8
DEFPOINTS
 10
276.83433332758159
 20
77.40190660681742
 30
0.0
 40
1.0
 50
0.0
 51
89.999999999999986
  0
LINE
  5
9265
  8
DEFPOINTS
 10
305.3343333275817
 20
65.40190660681742
 30
0.0
 11
309.53044946271979
 21
64.562683379789632
 31
0.0
  0
ARC
  5
9266
  8
DEFPOINTS
 10
309.3343333275817
 20
63.582102704098808
 30
0.0
 40
1.0
 50
359.99999999999972
 51
78.690067525979913
  0
ARC
  5
9267
  8
DEFPOINTS
 10
211.33433332758159
 20
63.582102704098808
 30
0.0
 40
1.0
 50
101.3099324740201
 51
180.00000000000031
  0
LINE
  5
9268
  8
DEFPOINTS
 10
215.33433332758159
 20
65.40190660681742
 30
0.0
 11
211.13821719244331
 21
64.562683379789632
 31
0.0
  0
ARC
  5
9269
  8
DEFPOINTS
 10
243.83433332758159
 20
77.40190660681742
 30
0.0
 40
1.0
 50
90.000000000000057
 51
180.0
  0
ARC
  5
926A
  8
DEFPOINTS
 10
237.33433332758159
 20
74.663331952299345
 30
0.0
 40
1.0
 50
107.10272896905251
 51
180.0
  0
ARC
  5
926B
  8
DEFPOINTS
 10
231.33433332758159
 20
71.681147386761268
 30
0.0
 40
1.0
 50
108.43494882292219
 51
180.0
  0
ARC
  5
926C
  8
DEFPOINTS
 10
224.33433332758159
 20
68.64760519406309
 30
0.0
 40
1.0
 50
105.9453959009228
 51
180.0
  0
ARC
  5
926D
  8
DEFPOINTS
 10
216.33433332758159
 20
65.621130200413063
 30
0.0
 40
1.0
 50
104.0362434679266
 51
180.0
  0
LINE
  5
926E
  8
DEFPOINTS
 10
223.33433332758159
 20
68.401906606817406
 30
0.0
 11
216.09179770254519
 21
66.59127270055842
 31
0.0
  0
LINE
  5
926F
  8
DEFPOINTS
 10
230.33433332758159
 20
71.40190660681742
 30
0.0
 11
224.0596121996841
 21
69.609129141703761
 31
0.0
  0
LINE
  5
9270
  8
DEFPOINTS
 10
236.33433332758159
 20
74.40190660681742
 30
0.0
 11
231.01810556156471
 21
72.629830684811623
 31
0.0
  0
LINE
  5
9271
  8
DEFPOINTS
 10
242.83433332758159
 20
77.40190660681742
 30
0.0
 11
237.04024747874399
 21
75.619110961021306
 31
0.0
  0
LINE
  5
9272
  8
DEFPOINTS
 10
215.33433332758159
 20
65.621130200413063
 30
0.0
 11
215.33433332758159
 21
65.40190660681742
 31
0.0
  0
LINE
  5
9273
  8
DEFPOINTS
 10
223.33433332758159
 20
68.64760519406309
 30
0.0
 11
223.33433332758159
 21
68.401906606817406
 31
0.0
  0
LINE
  5
9274
  8
DEFPOINTS
 10
230.33433332758159
 20
71.681147386761268
 30
0.0
 11
230.33433332758159
 21
71.40190660681742
 31
0.0
  0
LINE
  5
9275
  8
DEFPOINTS
 10
236.33433332758159
 20
74.663331952299345
 30
0.0
 11
236.33433332758159
 21
74.40190660681742
 31
0.0
  0
LINE
  5
9276
  8
DEFPOINTS
 10
242.83433332758159
 20
77.40190660681742
 30
0.0
 11
242.83433332758159
 21
77.40190660681742
 31
0.0
  0
LINE
  5
9278
  8
0
 10
210.33433332758159
 20
54.40190660681742
 30
0.0
 11
210.33433332758159
 21
63.582102704098808
 31
0.0
  0
LINE
  5
9279
  8
DEFPOINTS
 10
215.33433332758159
 20
65.40190660681742
 30
0.0
 11
305.3343333275817
 21
65.40190660681742
 31
0.0
  0
LINE
  5
927A
  8
DEFPOINTS
 10
223.33433332758159
 20
68.401906606817406
 30
0.0
 11
297.3343333275817
 21
68.401906606817406
 31
0.0
  0
LINE
  5
927B
  8
DEFPOINTS
 10
230.33433332758159
 20
71.40190660681742
 30
0.0
 11
290.3343333275817
 21
71.40190660681742
 31
0.0
  0
LINE
  5
927C
  8
DEFPOINTS
 10
284.3343333275817
 20
74.40190660681742
 30
0.0
 11
236.33433332758159
 21
74.40190660681742
 31
0.0
  0
LINE
  5
927D
  8
DEFPOINTS
 10
242.83433332758159
 20
77.40190660681742
 30
0.0
 11
277.83433332758159
 21
77.40190660681742
 31
0.0
  0
LINE
  5
927E
  8
1
 10
260.33433332758239
 20
265.40190660681537
 30
0.0
 11
260.33433332758159
 21
44.40190660681742
 31
0.0
  0
LINE
  5
927F
  8
3
 10
249.95833332758161
 20
140.40190660681719
 30
0.0
 11
249.9583333275823
 21
254.0259066068156
 31
0.0
  0
LINE
  5
9280
  8
0
 10
248.33433332758159
 20
140.40190660681739
 30
0.0
 11
248.3343333275823
 21
252.4019066068158
 31
0.0
  0
LINE
  5
9281
  8
3
 10
270.71033332758162
 20
140.40190660681739
 30
0.0
 11
270.71033332758219
 21
254.0259066068156
 31
0.0
  0
LINE
  5
9282
  8
0
 10
272.33433332758159
 20
140.40190660681739
 30
0.0
 11
272.33433332758239
 21
252.4019066068154
 31
0.0
  0
LINE
  5
9283
  8
0
 10
260.33433332758159
 20
138.21686119281409
 30
0.0
 11
260.33433332758159
 21
123.5869520208209
 31
0.0
  0
LINE
  5
9284
  8
0
 10
243.33433332758159
 20
121.40190660681741
 30
0.0
 11
277.33433332758142
 21
121.40190660681741
 31
0.0
  0
LINE
  5
9285
  8
0
 10
278.33433331293043
 20
139.82455634608641
 30
0.0
 11
278.33433331293043
 21
121.9792568675484
 31
0.0
  0
LINE
  5
9286
  8
0
 10
243.33433332758159
 20
140.40190660681739
 30
0.0
 11
277.33433332758142
 21
140.40190660681739
 31
0.0
  0
LINE
  5
9287
  8
0
 10
277.33433332758142
 20
140.40190660681739
 30
0.0
 11
278.33433331293043
 21
139.82455634608641
 31
0.0
  0
ARC
  5
9288
  8
0
 10
269.33433332025612
 20
113.82936583877419
 30
0.0
 40
25.995190507312159
 50
69.743841999652659
 51
110.2561580003473
  0
ARC
  5
9289
  8
0
 10
269.33433332025612
 20
147.9744473748606
 30
0.0
 40
25.995190507312159
 50
249.74384199965269
 51
290.2561580003474
  0
LINE
  5
928A
  8
0
 10
277.33433332758142
 20
121.40190660681741
 30
0.0
 11
278.33433331293043
 21
121.9792568675484
 31
0.0
  0
LINE
  5
928B
  8
0
 10
243.33433332758159
 20
121.40190660681741
 30
0.0
 11
242.33433334223241
 21
121.9792568675484
 31
0.0
  0
ARC
  5
928C
  8
0
 10
251.33433333490689
 20
147.9744473748606
 30
0.0
 40
25.995190507312159
 50
249.74384199965269
 51
290.2561580003474
  0
ARC
  5
928D
  8
0
 10
251.33433333490689
 20
113.82936583877419
 30
0.0
 40
25.995190507312159
 50
69.743841999652659
 51
110.2561580003473
  0
LINE
  5
928E
  8
0
 10
243.33433332758159
 20
140.40190660681739
 30
0.0
 11
242.33433334223241
 21
139.82455634608641
 31
0.0
  0
LINE
  5
928F
  8
0
 10
242.33433334223241
 20
139.82455634608641
 30
0.0
 11
242.33433334223241
 21
121.9792568675484
 31
0.0
  0
LINE
  5
9290
  8
0
 10
251.83433332758159
 20
80.901906606746266
 30
0.0
 11
268.83433332758159
 21
80.901906606746266
 31
0.0
  0
ARC
  5
9291
  8
0
 10
260.33433332763548
 20
74.185028244113255
 30
0.0
 40
22.928203228139491
 50
72.412046224314139
 51
107.5879537756858
  0
ARC
  5
9292
  8
0
 10
249.94202848222201
 20
90.979256876531934
 30
0.0
 40
6.1339745957208196
 50
55.615752528791369
 51
115.6157525301595
  0
LINE
  5
9293
  8
0
 10
246.47792686706239
 20
96.041434702423444
 30
0.0
 11
248.83433332774331
 21
97.401906606817647
 31
0.0
  0
LINE
  5
9294
  8
0
 10
246.47792686706239
 20
88.76237851121185
 30
0.0
 11
248.83433332774331
 21
87.401906606817633
 31
0.0
  0
ARC
  5
9295
  8
0
 10
249.94202848222201
 20
93.824556337103346
 30
0.0
 40
6.1339745957208196
 50
244.3842474698404
 51
304.38424747121132
  0
ARC
  5
9296
  8
0
 10
260.33433332763548
 20
110.618784969522
 30
0.0
 40
22.928203228139491
 50
252.41204622431411
 51
287.58795377568589
  0
LINE
  5
9297
  8
0
 10
246.47792686708431
 20
96.041434702423444
 30
0.0
 11
246.47792686708431
 21
88.762378511199145
 31
0.0
  0
LINE
  5
9298
  8
0
 10
253.40613009736009
 20
96.041434702423444
 30
0.0
 11
253.40613009736009
 21
88.76237851121185
 31
0.0
  0
LINE
  5
9299
  8
0
 10
267.26253655791078
 20
96.041434702423444
 30
0.0
 11
267.26253655791078
 21
88.76237851121185
 31
0.0
  0
LINE
  5
929A
  8
0
 10
274.19073978818659
 20
96.041434702423444
 30
0.0
 11
274.19073978818659
 21
88.762378511199145
 31
0.0
  0
ARC
  5
929B
  8
0
 10
270.72663817304903
 20
93.824556337103346
 30
0.0
 40
6.1339745957208196
 50
235.6157525287887
 51
295.61575253015963
  0
LINE
  5
929C
  8
0
 10
274.19073978820848
 20
88.76237851121185
 30
0.0
 11
271.8343333275277
 21
87.401906606817633
 31
0.0
  0
LINE
  5
929D
  8
0
 10
274.19073978820848
 20
96.041434702423444
 30
0.0
 11
271.8343333275277
 21
97.401906606817647
 31
0.0
  0
ARC
  5
929E
  8
0
 10
270.72663817304903
 20
90.979256876531934
 30
0.0
 40
6.1339745957208196
 50
64.384247469840446
 51
124.3842474712085
  0
LINE
  5
929F
  8
0
 10
248.83433332763551
 20
97.401906606817647
 30
0.0
 11
271.8343333275277
 21
97.401906606817647
 31
0.0
  0
LINE
  5
92A0
  8
0
 10
271.8343333275277
 20
87.401906606817633
 30
0.0
 11
248.83433332774331
 21
87.401906606817633
 31
0.0
  0
LINE
  5
92A1
  8
3
 10
270.71033332758162
 20
102.4019066068176
 30
0.0
 11
272.33433332758159
 21
99.589056095325773
 31
0.0
  0
LINE
  5
92A2
  8
3
 10
249.95833332758161
 20
102.4019066068176
 30
0.0
 11
248.33433332758159
 21
99.589056095325773
 31
0.0
  0
LINE
  5
92A3
  8
0
 10
272.33433332758159
 20
102.4019066068176
 30
0.0
 11
248.33433332758159
 21
102.4019066068176
 31
0.0
  0
LINE
  5
92A4
  8
0
 10
248.3343333275823
 20
252.4019066068158
 30
0.0
 11
272.33433332758239
 21
252.4019066068154
 31
0.0
  0
LINE
  5
92A5
  8
0
 10
269.33433332758239
 20
255.4019066068154
 30
0.0
 11
272.33433332758239
 21
252.4019066068154
 31
0.0
  0
LINE
  5
92A6
  8
0
 10
248.3343333275823
 20
252.4019066068158
 30
0.0
 11
251.3343333275823
 21
255.4019066068158
 31
0.0
  0
LINE
  5
92A7
  8
0
 10
248.33433332758159
 20
97.113231472129215
 30
0.0
 11
248.33433332758159
 21
121.4019066068176
 31
0.0
  0
LINE
  5
92A8
  8
3
 10
249.95833332758161
 20
102.4019066068176
 30
0.0
 11
249.95833332758161
 21
121.4019066068176
 31
0.0
  0
LINE
  5
92A9
  8
3
 10
270.71033332758162
 20
102.4019066068176
 30
0.0
 11
270.71033332758162
 21
121.40190660681741
 31
0.0
  0
LINE
  5
92AA
  8
0
 10
272.33433332758159
 20
97.113231472191501
 30
0.0
 11
272.33433332758159
 21
121.4019066068176
 31
0.0
  0
LINE
  5
92AB
  8
0
 10
251.3343333275823
 20
255.4019066068158
 30
0.0
 11
269.33433332758239
 21
255.4019066068154
 31
0.0
  0
LINE
  5
92AC
  8
0
 10
268.83433332758159
 20
87.401906606760335
 30
0.0
 11
268.83433332758159
 21
80.901906606746266
 31
0.0
  0
LINE
  5
92AD
  8
0
 10
251.83433332758159
 20
87.401906606760335
 30
0.0
 11
251.83433332758159
 21
80.901906606774432
 31
0.0
  0
ARC
  5
92AE
  8
0
 10
260.33433332758159
 20
72.080767224557803
 30
0.0
 40
12.25
 50
133.93783988574569
 51
148.93491910364409
  0
ARC
  5
92AF
  8
0
 10
260.33433332758159
 20
72.080767224557803
 30
0.0
 40
12.25
 50
31.065080896355841
 51
46.062160114254262
  0
LINE
  5
92B0
  8
1
 10
164.9657595767921
 20
359.78596732059441
 30
0.0
 11
44.965759576792152
 21
359.78596732059441
 31
0.0
  0
LINE
  5
92B1
  8
1
 10
104.9657595767921
 20
419.78596732059441
 30
0.0
 11
104.9657595767921
 21
299.78596732059441
 31
0.0
  0
LINE
  5
92B2
  8
0
 10
96.46575957679218
 20
87.40190660677942
 30
0.0
 11
96.46575957679218
 21
80.901906606793546
 31
0.0
  0
LINE
  5
92B3
  8
0
 10
113.4657595767921
 20
87.40190660677942
 30
0.0
 11
113.4657595767921
 21
80.901906606765351
 31
0.0
  0
CIRCLE
  5
92B4
  8
DEFPOINTS
 10
104.9657595767921
 20
359.78596732059441
 30
0.0
 40
23.999999999999989
  0
CIRCLE
  5
92B5
  8
DEFPOINTS
 10
104.9657595767921
 20
359.78596732059441
 30
0.0
 40
30.0
  0
CIRCLE
  5
92B6
  8
DEFPOINTS
 10
104.9657595767921
 20
359.78596732059441
 30
0.0
 40
37.0
  0
CIRCLE
  5
92B7
  8
DEFPOINTS
 10
104.9657595767921
 20
359.78596732059441
 30
0.0
 40
45.0
  0
CIRCLE
  5
92B8
  8
DEFPOINTS
 10
104.9657595767921
 20
359.78596732059441
 30
0.0
 40
50.0
  0
LINE
  5
92B9
  8
DEFPOINTS
 10
87.465759576792138
 20
77.40190660681742
 30
0.0
 11
122.4657595767921
 21
77.40190660681742
 31
0.0
  0
LINE
  5
92BA
  8
DEFPOINTS
 10
128.9657595767921
 20
74.40190660681742
 30
0.0
 11
80.965759576792124
 21
74.40190660681742
 31
0.0
  0
LINE
  5
92BB
  8
DEFPOINTS
 10
74.965759576792138
 20
71.40190660681742
 30
0.0
 11
134.9657595767921
 21
71.40190660681742
 31
0.0
  0
LINE
  5
92BC
  8
DEFPOINTS
 10
67.965759576792124
 20
68.401906606817406
 30
0.0
 11
141.9657595767921
 21
68.401906606817406
 31
0.0
  0
LINE
  5
92BD
  8
DEFPOINTS
 10
59.965759576792152
 20
65.40190660681742
 30
0.0
 11
149.9657595767921
 21
65.40190660681742
 31
0.0
  0
LINE
  5
92BE
  8
0
 10
54.965759576792152
 20
54.40190660681742
 30
0.0
 11
54.965759576792152
 21
63.582102704098808
 31
0.0
  0
LINE
  5
92C0
  8
DEFPOINTS
 10
87.465759576792138
 20
77.40190660681742
 30
0.0
 11
87.465759576792138
 21
77.40190660681742
 31
0.0
  0
LINE
  5
92C1
  8
DEFPOINTS
 10
80.965759576792124
 20
74.663331952299345
 30
0.0
 11
80.965759576792124
 21
74.40190660681742
 31
0.0
  0
LINE
  5
92C2
  8
DEFPOINTS
 10
74.965759576792138
 20
71.681147386761268
 30
0.0
 11
74.965759576792138
 21
71.40190660681742
 31
0.0
  0
LINE
  5
92C3
  8
DEFPOINTS
 10
67.965759576792124
 20
68.64760519406309
 30
0.0
 11
67.965759576792124
 21
68.401906606817406
 31
0.0
  0
LINE
  5
92C4
  8
DEFPOINTS
 10
59.965759576792152
 20
65.621130200413063
 30
0.0
 11
59.965759576792152
 21
65.40190660681742
 31
0.0
  0
LINE
  5
92C5
  8
DEFPOINTS
 10
87.465759576792138
 20
77.40190660681742
 30
0.0
 11
81.671673727954612
 21
75.619110961021306
 31
0.0
  0
LINE
  5
92C6
  8
DEFPOINTS
 10
80.965759576792124
 20
74.40190660681742
 30
0.0
 11
75.649531810775443
 21
72.629830684811623
 31
0.0
  0
LINE
  5
92C7
  8
DEFPOINTS
 10
74.965759576792138
 20
71.40190660681742
 30
0.0
 11
68.691038448894687
 21
69.609129141703761
 31
0.0
  0
LINE
  5
92C8
  8
DEFPOINTS
 10
67.965759576792124
 20
68.401906606817406
 30
0.0
 11
60.723223951755713
 21
66.59127270055842
 31
0.0
  0
ARC
  5
92C9
  8
DEFPOINTS
 10
60.965759576792138
 20
65.621130200413063
 30
0.0
 40
1.0
 50
104.0362434679266
 51
180.0
  0
ARC
  5
92CA
  8
DEFPOINTS
 10
68.965759576792138
 20
68.64760519406309
 30
0.0
 40
1.0
 50
105.9453959009228
 51
180.0
  0
ARC
  5
92CB
  8
DEFPOINTS
 10
75.965759576792124
 20
71.681147386761268
 30
0.0
 40
1.0
 50
108.43494882292219
 51
180.0
  0
ARC
  5
92CC
  8
DEFPOINTS
 10
81.965759576792124
 20
74.663331952299345
 30
0.0
 40
1.0
 50
107.10272896905251
 51
180.0
  0
ARC
  5
92CD
  8
DEFPOINTS
 10
88.465759576792124
 20
77.40190660681742
 30
0.0
 40
1.0
 50
90.000000000000057
 51
180.0
  0
LINE
  5
92CE
  8
DEFPOINTS
 10
59.965759576792152
 20
65.40190660681742
 30
0.0
 11
55.769643441653891
 21
64.562683379789632
 31
0.0
  0
ARC
  5
92CF
  8
DEFPOINTS
 10
55.965759576792138
 20
63.582102704098808
 30
0.0
 40
1.0
 50
101.3099324740201
 51
180.00000000000031
  0
ARC
  5
92D0
  8
DEFPOINTS
 10
153.9657595767921
 20
63.582102704098808
 30
0.0
 40
1.0
 50
359.99999999999972
 51
78.690067525979913
  0
LINE
  5
92D1
  8
DEFPOINTS
 10
149.9657595767921
 20
65.40190660681742
 30
0.0
 11
154.16187571193041
 21
64.562683379789632
 31
0.0
  0
ARC
  5
92D2
  8
DEFPOINTS
 10
121.4657595767921
 20
77.40190660681742
 30
0.0
 40
1.0
 50
0.0
 51
89.999999999999986
  0
ARC
  5
92D3
  8
DEFPOINTS
 10
127.9657595767921
 20
74.663331952299345
 30
0.0
 40
1.0
 50
0.0
 51
72.897271030947451
  0
ARC
  5
92D4
  8
DEFPOINTS
 10
133.9657595767921
 20
71.681147386761268
 30
0.0
 40
1.0
 50
0.0
 51
71.565051177077734
  0
ARC
  5
92D5
  8
DEFPOINTS
 10
140.9657595767921
 20
68.64760519406309
 30
0.0
 40
1.0
 50
0.0
 51
74.054604099077153
  0
ARC
  5
92D6
  8
DEFPOINTS
 10
148.9657595767921
 20
65.621130200413063
 30
0.0
 40
1.0
 50
0.0
 51
75.963756532073333
  0
LINE
  5
92D7
  8
DEFPOINTS
 10
141.9657595767921
 20
68.401906606817406
 30
0.0
 11
149.20829520182861
 21
66.59127270055842
 31
0.0
  0
LINE
  5
92D8
  8
DEFPOINTS
 10
134.9657595767921
 20
71.40190660681742
 30
0.0
 11
141.24048070468959
 21
69.609129141703761
 31
0.0
  0
LINE
  5
92D9
  8
DEFPOINTS
 10
128.9657595767921
 20
74.40190660681742
 30
0.0
 11
134.2819873428088
 21
72.629830684811623
 31
0.0
  0
LINE
  5
92DA
  8
DEFPOINTS
 10
122.4657595767921
 20
77.40190660681742
 30
0.0
 11
128.25984542562969
 21
75.619110961021306
 31
0.0
  0
LINE
  5
92DB
  8
DEFPOINTS
 10
149.9657595767921
 20
65.621130200413063
 30
0.0
 11
149.9657595767921
 21
65.40190660681742
 31
0.0
  0
LINE
  5
92DC
  8
DEFPOINTS
 10
141.9657595767921
 20
68.64760519406309
 30
0.0
 11
141.9657595767921
 21
68.401906606817406
 31
0.0
  0
LINE
  5
92DD
  8
DEFPOINTS
 10
134.9657595767921
 20
71.681147386761268
 30
0.0
 11
134.9657595767921
 21
71.40190660681742
 31
0.0
  0
LINE
  5
92DE
  8
DEFPOINTS
 10
128.9657595767921
 20
74.663331952299345
 30
0.0
 11
128.9657595767921
 21
74.40190660681742
 31
0.0
  0
LINE
  5
92DF
  8
DEFPOINTS
 10
122.4657595767921
 20
77.40190660681742
 30
0.0
 11
122.4657595767921
 21
77.40190660681742
 31
0.0
  0
LINE
  5
92E1
  8
0
 10
121.4657595767921
 20
78.401906606817406
 30
0.0
 11
88.465759576792124
 21
78.401906606817406
 31
0.0
  0
LINE
  5
92E3
  8
0
 10
154.9657595767921
 20
54.40190660681742
 30
0.0
 11
154.9657595767921
 21
63.582102704098808
 31
0.0
  0
LINE
  5
92E4
  8
0
 10
154.9657595767921
 20
54.40190660681742
 30
0.0
 11
54.965759576792152
 21
54.40190660681742
 31
0.0
  0
LINE
  5
92F4
  8
0
 10
92.965759576792124
 20
140.40190660681691
 30
0.0
 11
92.965759576792124
 21
252.4019066068179
 31
0.0
  0
LINE
  5
92F5
  8
3
 10
94.589759576792162
 20
140.40190660681719
 30
0.0
 11
94.589759576792162
 21
254.0259066068177
 31
0.0
  0
LINE
  5
92F6
  8
3
 10
115.3417595767921
 20
140.40190660681719
 30
0.0
 11
115.3417595767921
 21
254.0259066068173
 31
0.0
  0
LINE
  5
92F7
  8
0
 10
116.9657595767921
 20
140.40190660681719
 30
0.0
 11
116.9657595767921
 21
252.40190660681739
 31
0.0
  0
LINE
  5
92F8
  8
0
 10
87.965759576792124
 20
140.40190660681719
 30
0.0
 11
121.965759576792
 21
140.40190660681719
 31
0.0
  0
LINE
  5
92F9
  8
0
 10
87.965759576792124
 20
121.40190660681721
 30
0.0
 11
121.965759576792
 21
121.40190660681721
 31
0.0
  0
LINE
  5
92FA
  8
0
 10
84.181149902892884
 20
138.21686119281381
 30
0.0
 11
84.181149902892884
 21
123.5869520208207
 31
0.0
  0
LINE
  5
92FB
  8
0
 10
87.965759576792124
 20
140.40190660681719
 30
0.0
 11
84.181149902892884
 21
138.21686119281381
 31
0.0
  0
LINE
  5
92FC
  8
0
 10
94.573454739843086
 20
138.21686119281381
 30
0.0
 11
94.573454739843086
 21
123.5869520208207
 31
0.0
  0
LINE
  5
92FD
  8
0
 10
115.3580644137452
 20
138.21686119281381
 30
0.0
 11
115.3580644137452
 21
123.5869520208207
 31
0.0
  0
ARC
  5
92FE
  8
0
 10
104.9657595767939
 20
105.4322515285694
 30
0.0
 40
34.392304817516766
 50
72.412046226066266
 51
107.58795377393371
  0
ARC
  5
92FF
  8
0
 10
89.377302321368006
 20
130.62359445923261
 30
0.0
 40
9.2009618868538041
 50
55.615752532061599
 51
115.6157525320707
  0
ARC
  5
9300
  8
0
 10
104.9657595767939
 20
156.37156168506499
 30
0.0
 40
34.392304817516766
 50
252.41204622606631
 51
287.58795377393369
  0
ARC
  5
9301
  8
0
 10
89.377302321368006
 20
131.18021875440181
 30
0.0
 40
9.2009618868538041
 50
244.38424746792921
 51
304.38424746793839
  0
LINE
  5
9302
  8
0
 10
87.965759576792124
 20
121.40190660681721
 30
0.0
 11
84.181149902892884
 21
123.5869520208207
 31
0.0
  0
LINE
  5
9303
  8
0
 10
121.965759576792
 20
121.40190660681721
 30
0.0
 11
125.75036925069099
 21
123.5869520208207
 31
0.0
  0
ARC
  5
9304
  8
0
 10
120.5542168322163
 20
131.18021875440181
 30
0.0
 40
9.2009618868538041
 50
235.61575253206149
 51
295.6157525320707
  0
ARC
  5
9305
  8
0
 10
120.5542168322163
 20
130.62359445923261
 30
0.0
 40
9.2009618868538041
 50
64.384247467929242
 51
124.38424746793839
  0
LINE
  5
9306
  8
0
 10
121.965759576792
 20
140.40190660681719
 30
0.0
 11
125.75036925069099
 21
138.21686119281381
 31
0.0
  0
LINE
  5
9307
  8
0
 10
125.75036925069099
 20
138.21686119281381
 30
0.0
 11
125.75036925069099
 21
123.5869520208207
 31
0.0
  0
ARC
  5
9308
  8
0
 10
104.9657595767921
 20
72.080767224557562
 30
0.0
 40
12.25
 50
133.9378398855568
 51
148.93491910364301
  0
ARC
  5
9309
  8
0
 10
110.96575957682531
 20
79.783104454880458
 30
0.0
 40
17.330127017333279
 50
69.743841997633055
 51
110.2561580023669
  0
LINE
  5
930A
  8
0
 10
116.9657595768403
 20
97.113231472214238
 30
0.0
 11
116.46575957682531
 21
97.401906606817647
 31
0.0
  0
LINE
  5
930B
  8
0
 10
116.9657595768403
 20
87.690581741344204
 30
0.0
 11
116.46575957682531
 21
87.401906606740795
 31
0.0
  0
ARC
  5
930C
  8
0
 10
110.96575957682531
 20
105.0207087586775
 30
0.0
 40
17.330127017333279
 50
249.7438419976331
 51
290.25615800236699
  0
LINE
  5
930D
  8
0
 10
116.9657595768403
 20
97.113231472214238
 30
0.0
 11
116.96575957682531
 21
87.690581741335535
 31
0.0
  0
LINE
  5
930E
  8
0
 10
104.96575957682531
 20
88.762378511173424
 30
0.0
 11
104.96575957682531
 21
96.041434702385004
 31
0.0
  0
LINE
  5
930F
  8
0
 10
92.965759576810328
 20
97.113231472214238
 30
0.0
 11
92.965759576825334
 21
87.690581741335535
 31
0.0
  0
ARC
  5
9310
  8
0
 10
98.965759576825363
 20
105.0207087586775
 30
0.0
 40
17.330127017333279
 50
249.7438419976331
 51
290.25615800236699
  0
LINE
  5
9311
  8
0
 10
92.965759576810328
 20
87.690581741344204
 30
0.0
 11
93.465759576825349
 21
87.401906606740795
 31
0.0
  0
LINE
  5
9312
  8
0
 10
92.965759576810328
 20
97.113231472214238
 30
0.0
 11
93.465759576825349
 21
97.401906606817647
 31
0.0
  0
ARC
  5
9313
  8
0
 10
98.965759576825363
 20
79.783104454880458
 30
0.0
 40
17.330127017333279
 50
69.743841997633055
 51
110.2561580023669
  0
LINE
  5
9314
  8
0
 10
93.465759576758956
 20
97.401906606779235
 30
0.0
 11
116.46575957682531
 21
97.401906606817647
 31
0.0
  0
LINE
  5
9315
  8
0
 10
116.46575957682531
 20
87.401906606740795
 30
0.0
 11
93.465759576758956
 21
87.401906606779235
 31
0.0
  0
LINE
  5
9316
  8
0
 10
96.46575957679218
 20
87.401906606760107
 30
0.0
 11
96.46575957679218
 21
80.901906606774205
 31
0.0
  0
LINE
  5
9317
  8
0
 10
113.4657595767921
 20
87.401906606760107
 30
0.0
 11
113.4657595767921
 21
80.90190660674601
 31
0.0
  0
LINE
  5
9318
  8
0
 10
95.965759576792166
 20
255.40190660681759
 30
0.0
 11
113.9657595767921
 21
255.40190660681739
 31
0.0
  0
LINE
  5
9319
  8
0
 10
116.9657595768403
 20
97.113231472214238
 30
0.0
 11
116.9657595767921
 21
121.40190660681699
 31
0.0
  0
LINE
  5
931A
  8
3
 10
115.3417595767921
 20
102.40190660681741
 30
0.0
 11
115.3417595767921
 21
121.40190660681699
 31
0.0
  0
LINE
  5
931B
  8
3
 10
94.589759576792162
 20
102.40190660681741
 30
0.0
 11
94.589759576792162
 21
121.40190660681721
 31
0.0
  0
LINE
  5
931C
  8
0
 10
92.965759576810328
 20
97.113231472214238
 30
0.0
 11
92.965759576792124
 21
121.40190660681699
 31
0.0
  0
LINE
  5
931D
  8
0
 10
92.965759576792124
 20
252.4019066068179
 30
0.0
 11
95.965759576792166
 21
255.40190660681759
 31
0.0
  0
LINE
  5
931E
  8
0
 10
113.9657595767921
 20
255.40190660681739
 30
0.0
 11
116.9657595767921
 21
252.40190660681739
 31
0.0
  0
LINE
  5
931F
  8
0
 10
92.965759576792124
 20
252.4019066068179
 30
0.0
 11
116.9657595767921
 21
252.40190660681739
 31
0.0
  0
LINE
  5
9320
  8
0
 10
116.9657595767921
 20
102.40190660681741
 30
0.0
 11
92.965759576792124
 21
102.40190660681741
 31
0.0
  0
LINE
  5
9321
  8
3
 10
94.589759576792162
 20
102.40190660681741
 30
0.0
 11
92.965759576792124
 21
99.589056095325503
 31
0.0
  0
LINE
  5
9322
  8
3
 10
115.3417595767921
 20
102.40190660681741
 30
0.0
 11
116.9657595767921
 21
99.589056095325503
 31
0.0
  0
LINE
  5
9323
  8
DEFPOINTS
 10
96.465759576820332
 20
80.901906606773565
 30
0.0
 11
113.4657595767921
 21
80.901906606773565
 31
0.0
  0
ARC
  5
9324
  8
0
 10
104.9657595767921
 20
72.080767224557562
 30
0.0
 40
12.25
 50
31.065080896357031
 51
46.062160114254262
  0
LINE
  5
9325
  8
1
 10
104.9657595767921
 20
265.4019066068177
 30
0.0
 11
104.9657595767921
 21
44.40190660681742
 31
0.0
  0
LINE
  5
9326
  8
0
 10
84.181149902890425
 20
359.78596732059748
 30
0.0
 11
94.573454748299355
 21
377.78596732059748
 31
0.0
  0
LINE
  5
9327
  8
0
 10
94.573454739833778
 20
341.78596733525097
 30
0.0
 11
84.181149894417558
 21
359.7859673352512
 31
0.0
  0
LINE
  5
9328
  8
0
 10
115.3580644137387
 20
341.78596733525097
 30
0.0
 11
94.573454722913553
 21
341.78596733525097
 31
0.0
  0
LINE
  5
9329
  8
0
 10
125.750369250693
 20
359.78596732059748
 30
0.0
 11
115.358064405284
 21
341.78596732059742
 31
0.0
  0
LINE
  5
932A
  8
0
 10
115.3580644137496
 20
377.78596730592898
 30
0.0
 11
125.75036925916579
 21
359.78596730594359
 31
0.0
  0
LINE
  5
932B
  8
0
 10
94.573454739831945
 20
377.78596730594359
 30
0.0
 11
115.35806443065709
 21
377.78596730594359
 31
0.0
  0
CIRCLE
  5
932C
  8
0
 10
104.9657595767921
 20
359.78596732059441
 30
0.0
 40
17.0
  0
CIRCLE
  5
932D
  8
0
 10
104.9657595767921
 20
359.78596732059458
 30
0.0
 40
12.0
  0
CIRCLE
  5
932E
  8
3
 10
104.9657595767921
 20
359.78596732059441
 30
0.0
 40
10.375999999999999
  0
TEXT
  5
9703
  8
0
 62
     3
 10
0.0
 20
0.0
 30
0.0
 40
10.0
  1
LVA100L24B-SUS
  7
STANDARD1
  0
ENDSEC
  0
EOF
